  0
SECTION
  2
HEADER
  9
$ACADVER
  1
AC1009
  9
$INSBASE
 10
307.3901914774991724
 20
12.0428243824733894
 30
0.0
  9
$EXTMIN
 10
300.6770860588102892
 20
8.7925792127368823
 30
-0.0000000349181948
  9
$EXTMAX
 10
307.4085222116921727
 20
15.2928523776634293
 30
0.0000000814935746
  9
$LIMMIN
 10
0.0
 20
0.0
  9
$LIMMAX
 10
11.6929133858000007
 20
8.2677165353999982
  9
$ORTHOMODE
 70
     0
  9
$REGENMODE
 70
     1
  9
$FILLMODE
 70
     1
  9
$QTEXTMODE
 70
     0
  9
$MIRRTEXT
 70
     0
  9
$DRAGMODE
 70
     2
  9
$LTSCALE
 40
0.6431102362
  9
$OSMODE
 70
  4095
  9
$ATTMODE
 70
     1
  9
$TEXTSIZE
 40
0.2
  9
$TRACEWID
 40
0.05
  9
$TEXTSTYLE
  7
STANDARD
  9
$CLAYER
  8
0
  9
$CELTYPE
  6
BYLAYER
  9
$CECOLOR
 62
   256
  9
$DIMSCALE
 40
1.0
  9
$DIMASZ
 40
0.1875
  9
$DIMEXO
 40
0.0625
  9
$DIMDLI
 40
0.4443307087
  9
$DIMRND
 40
0.0
  9
$DIMDLE
 40
0.0
  9
$DIMEXE
 40
0.125
  9
$DIMTP
 40
0.01
  9
$DIMTM
 40
0.01
  9
$DIMTXT
 40
1.0
  9
$DIMCEN
 40
0.1052362205
  9
$DIMTSZ
 40
0.0
  9
$DIMTOL
 70
     1
  9
$DIMLIM
 70
     0
  9
$DIMTIH
 70
     1
  9
$DIMTOH
 70
     1
  9
$DIMSE1
 70
     0
  9
$DIMSE2
 70
     0
  9
$DIMTAD
 70
     0
  9
$DIMZIN
 70
     0
  9
$DIMBLK
  1

  9
$DIMASO
 70
     1
  9
$DIMSHO
 70
     1
  9
$DIMPOST
  1
\X
  9
$DIMAPOST
  1

  9
$DIMALT
 70
     1
  9
$DIMALTD
 70
     2
  9
$DIMALTF
 40
25.3999999999999986
  9
$DIMLFAC
 40
1.0
  9
$DIMTOFL
 70
     0
  9
$DIMTVP
 40
0.0
  9
$DIMTIX
 70
     0
  9
$DIMSOXD
 70
     0
  9
$DIMSAH
 70
     0
  9
$DIMBLK1
  1

  9
$DIMBLK2
  1

  9
$DIMSTYLE
  2
STANDARD
  9
$DIMCLRD
 70
     0
  9
$DIMCLRE
 70
     0
  9
$DIMCLRT
 70
     0
  9
$DIMTFAC
 40
1.0
  9
$DIMGAP
 40
0.09
  9
$LUNITS
 70
     2
  9
$LUPREC
 70
     4
  9
$SKETCHINC
 40
0.1
  9
$FILLETRAD
 40
0.0
  9
$AUNITS
 70
     0
  9
$AUPREC
 70
     0
  9
$MENU
  1
.
  9
$ELEVATION
 40
0.0
  9
$PELEVATION
 40
0.0
  9
$THICKNESS
 40
0.0
  9
$LIMCHECK
 70
     0
  9
$BLIPMODE
 70
     0
  9
$CHAMFERA
 40
0.0
  9
$CHAMFERB
 40
0.0
  9
$SKPOLY
 70
     0
  9
$TDCREATE
 40
2458267.4656481482088566
  9
$TDUPDATE
 40
2460334.703807869926095
  9
$TDINDWG
 40
0.196403287
  9
$TDUSRTIMER
 40
0.196403287
  9
$USRTIMER
 70
     1
  9
$ANGBASE
 50
0.0
  9
$ANGDIR
 70
     0
  9
$PDMODE
 70
     0
  9
$PDSIZE
 40
0.3125
  9
$PLINEWID
 40
0.0
  9
$COORDS
 70
     1
  9
$SPLFRAME
 70
     0
  9
$SPLINETYPE
 70
     6
  9
$SPLINESEGS
 70
     8
  9
$ATTDIA
 70
     1
  9
$ATTREQ
 70
     1
  9
$HANDLING
 70
     1
  9
$HANDSEED
  5
1CFA
  9
$SURFTAB1
 70
     6
  9
$SURFTAB2
 70
     6
  9
$SURFTYPE
 70
     6
  9
$SURFU
 70
     6
  9
$SURFV
 70
     6
  9
$UCSNAME
  2

  9
$UCSORG
 10
0.0
 20
0.0
 30
0.0
  9
$UCSXDIR
 10
1.0
 20
0.0
 30
0.0
  9
$UCSYDIR
 10
0.0
 20
1.0
 30
0.0
  9
$PUCSNAME
  2

  9
$PUCSORG
 10
0.0
 20
0.0
 30
0.0
  9
$PUCSXDIR
 10
1.0
 20
0.0
 30
0.0
  9
$PUCSYDIR
 10
0.0
 20
1.0
 30
0.0
  9
$USERI1
 70
     0
  9
$USERI2
 70
     0
  9
$USERI3
 70
     0
  9
$USERI4
 70
     0
  9
$USERI5
 70
     0
  9
$USERR1
 40
0.0
  9
$USERR2
 40
0.0
  9
$USERR3
 40
0.0
  9
$USERR4
 40
0.0
  9
$USERR5
 40
0.0
  9
$WORLDVIEW
 70
     1
  9
$SHADEDGE
 70
     3
  9
$SHADEDIF
 70
    70
  9
$TILEMODE
 70
     1
  9
$MAXACTVP
 70
    64
  9
$PLIMCHECK
 70
     0
  9
$PEXTMIN
 10
1.0000000000000000E+20
 20
1.0000000000000000E+20
 30
1.0000000000000000E+20
  9
$PEXTMAX
 10
-1.0000000000000000E+20
 20
-1.0000000000000000E+20
 30
-1.0000000000000000E+20
  9
$PLIMMIN
 10
0.0
 20
0.0
  9
$PLIMMAX
 10
12.0
 20
9.0
  9
$UNITMODE
 70
     0
  9
$VISRETAIN
 70
     1
  9
$PLINEGEN
 70
     0
  9
$PSLTSCALE
 70
     1
  0
ENDSEC
  0
SECTION
  2
TABLES
  0
TABLE
  2
VPORT
 70
     1
  0
VPORT
  2
*ACTIVE
 70
     0
 10
0.0
 20
0.0
 11
1.0
 21
1.0
 12
202.057429684567694
 22
2.230588302429211
 13
0.0
 23
0.0
 14
1.0
 24
1.0
 15
0.0
 25
0.0
 16
-0.0000000000000142
 26
0.0
 36
62.9619509154070727
 17
101.9853744506835938
 27
9.8121274927709443
 37
0.0
 40
6.5503576335610116
 41
2.4474358974358972
 42
50.0
 43
0.0
 44
0.0
 50
0.0
 51
0.0
 71
     0
 72
   100
 73
     1
 74
     1
 75
     0
 76
     0
 77
     0
 78
     0
  0
ENDTAB
  0
TABLE
  2
LTYPE
 70
     2
  0
LTYPE
  2
CONTINUOUS
 70
     0
  3
Solid line
 72
    65
 73
     0
 40
0.0
  0
LTYPE
  2
PHANTOM2
 70
     0
  3
___ _ _ ___ _ _ ___ _ _ ___ _ _
 72
    65
 73
     6
 40
1.25
 49
0.625
 49
-0.125
 49
0.125
 49
-0.125
 49
0.125
 49
-0.125
  0
ENDTAB
  0
TABLE
  2
LAYER
 70
     2
  0
LAYER
  2
0
 70
     0
 62
   255
  6
CONTINUOUS
  0
LAYER
  2
DEFPOINTS
 70
     0
 62
     7
  6
CONTINUOUS
  0
ENDTAB
  0
TABLE
  2
STYLE
 70
     1
  0
STYLE
  2
STANDARD
 70
     0
 40
0.0
 41
0.8
 50
0.0
 71
     0
 42
0.2
  3
txt
  4

  0
ENDTAB
  0
TABLE
  2
VIEW
 70
     0
  0
ENDTAB
  0
TABLE
  2
UCS
 70
     0
  0
ENDTAB
  0
TABLE
  2
APPID
 70
     9
  0
APPID
  2
ACAD
 70
     0
  0
APPID
  2
ACAD_MLEADERVER
 70
     0
  0
APPID
  2
ACAD_EXEMPT_FROM_CAD_STANDARDS
 70
     0
  0
APPID
  2
ACAD_DSTYLE_DIMJAG
 70
     0
  0
APPID
  2
ACAD_DSTYLE_DIMTALN
 70
     0
  0
APPID
  2
ACAD_NAV_VCDISPLAY
 70
     0
  0
APPID
  2
ACAECLAYERSTANDARD
 70
     0
  0
APPID
  2
ACCMTRANSPARENCY
 70
     0
  0
APPID
  2
ACDBATTR
 70
     0
  0
ENDTAB
  0
TABLE
  2
DIMSTYLE
 70
     1
  0
DIMSTYLE
  2
STANDARD
 70
     0
  3

  4

  5

  6

  7

 40
1.0
 41
0.1875
 42
0.0625
 43
0.38
 44
0.125
 45
0.0
 46
0.0
 47
0.01
 48
0.01
140
0.15625
141
0.09
142
0.0
143
25.3999999999999986
144
1.0
145
0.0
146
1.0
147
0.09
 71
     1
 72
     0
 73
     1
 74
     1
 75
     0
 76
     0
 77
     0
 78
     4
170
     0
171
     2
172
     0
173
     0
174
     0
175
     0
176
     0
177
     0
178
     0
  0
ENDTAB
  0
ENDSEC
  0
SECTION
  2
BLOCKS
  0
BLOCK
  8
0
  2
$MODEL_SPACE
 70
     0
 10
0.0
 20
0.0
 30
0.0
  3
$MODEL_SPACE
  1

  0
ENDBLK
  5
21
  8
0
  0
BLOCK
 67
     1
  8
0
  2
$PAPER_SPACE
 70
     0
 10
0.0
 20
0.0
 30
0.0
  3
$PAPER_SPACE
  1

  0
ENDBLK
  5
1D
 67
     1
  8
0
  0
BLOCK
  8
0
  2
_FILLED
 70
     0
 10
0.0
 20
0.0
 30
0.0
  3
_FILLED
  1

  0
SOLID
  5
1619
  8
0
  6
BYBLOCK
 62
     0
 10
0.0
 20
0.0
 30
0.0
 11
-1.0
 21
0.1666666667
 31
0.0
 12
-1.0
 22
-0.1666666667
 32
0.0
 13
-1.0
 23
-0.1666666667
 33
0.0
  0
ENDBLK
  5
161A
  8
0
  6
BYBLOCK
 62
     0
  0
ENDSEC
  0
SECTION
  2
ENTITIES
  0
ATTDEF
  5
D4F
  8
DEFPOINTS
 10
307.3911452002370197
 20
12.0471546240540999
 30
0.0
 40
0.001
  1
P34605-CP
  3

  2
MODELNUMBER
 70
     0
1001
ACDBATTR
1070
     0
1070
     1
  0
ATTDEF
  5
D50
  8
DEFPOINTS
 10
307.3911452002370197
 20
12.04548795738744
 30
0.0
 40
0.001
  1
VICE
  3

  2
TRADENAME
 70
     0
1001
ACDBATTR
1070
     0
1070
     1
  0
ATTDEF
  5
D51
  8
DEFPOINTS
 10
307.3911452002370197
 20
12.0438212907207696
 30
0.0
 40
0.001
  1
VALVE TRIM
  3

  2
PRODUCT
 70
     0
1001
ACDBATTR
1070
     0
1070
     1
  0
LINE
  5
1B93
  8
0
 10
306.5492914774991959
 20
15.2927968224733899
 30
0.0
 11
307.3901914774991724
 21
15.2927968224733899
 31
0.0
  0
LINE
  5
1B94
  8
0
 10
307.3901914774991724
 20
15.2927968224733899
 30
0.0
 11
307.3901914774991155
 21
8.7927968224733881
 31
0.0
  0
LINE
  5
1B95
  8
0
 10
306.4901914774991951
 20
15.2336968224733909
 30
0.0
 11
306.4901914774991951
 21
8.8518968224733872
 31
0.0
  0
ARC
  5
1B96
  8
0
 10
306.5401914774990928
 20
15.0358650170037507
 30
0.0
 40
0.05
 50
135.2460667168006978
 51
180.0
  0
ARC
  5
1B97
  8
0
 10
306.5492914774991959
 20
15.2336968224733909
 30
0.0
 40
0.0591
 50
90.0
 51
180.0
  0
LINE
  5
1B98
  8
0
 10
306.7117672889992264
 20
8.8074414834733901
 30
0.0
 11
306.7117672889992264
 21
15.2798369208353595
 31
0.0
  0
LINE
  5
1B99
  8
0
 10
306.485191477499086
 20
13.1057889484733892
 30
0.0
 11
304.3630418900992254
 21
13.1057889484733892
 31
0.0
  0
LINE
  5
1B9A
  8
0
 10
304.3030418711991842
 20
13.1057889484733892
 30
0.0
 11
303.8099157339934777
 21
13.1057889484733892
 31
0.0
  0
ARC
  5
1B9B
  8
0
 10
306.485191477499086
 20
13.1007889484733901
 30
0.0
 40
0.005
 50
0.0000000000101778
 51
90.0
  0
LINE
  5
1B9C
  8
0
 10
304.3430418900991867
 20
13.0857889484733896
 30
0.0
 11
304.343041890099073
 21
10.9998046964733902
 31
0.0
  0
LINE
  5
1B9D
  8
0
 10
304.3130418711991751
 20
13.0957889484733894
 30
0.0
 11
304.3130418711991751
 21
10.9898046964733904
 31
0.0
  0
ARC
  5
1B9E
  8
0
 10
304.3630418900992254
 20
13.0857889484733896
 30
0.0
 40
0.02
 50
89.9999999999934914
 51
180.0
  0
ARC
  5
1B9F
  8
0
 10
304.3030418711991842
 20
13.0957889484733894
 30
0.0
 40
0.01
 50
0.0000000000152667
 51
89.9999999999902229
  0
LINE
  5
1BA0
  8
0
 10
303.6624906900992187
 20
12.6920835686185303
 30
0.0
 11
303.6624906900992187
 21
11.3935100763282495
 31
0.0
  0
LINE
  5
1BA1
  8
0
 10
303.7721773783561048
 20
13.0777104551656205
 30
0.0
 11
303.668238967424486
 21
12.7312490854244107
 31
0.0
  0
ARC
  5
1BA2
  8
0
 10
303.8099157339934777
 20
13.0663889484733904
 30
0.0
 40
0.0394
 50
90.0
 51
163.3007557646108125
  0
ARC
  5
1BA3
  8
0
 10
303.7987906900992243
 20
12.6920835686185303
 30
0.0
 40
0.1363
 50
163.3007557646112105
 51
179.9999999999984084
  0
LINE
  5
1BA4
  8
0
 10
303.7721837753991849
 20
13.0777317567957105
 30
0.0
 11
303.7721837753991849
 21
11.0078618881510604
 31
0.0
  0
ARC
  5
1BA5
  8
0
 10
304.2830418902959764
 20
12.7676496361342302
 30
0.0
 40
0.059999999803134
 50
314.9999999610340069
 51
0.0000000373935524
  0
LINE
  5
1BA6
  8
0
 10
304.3130418711991751
 20
12.71279680357339
 30
0.0
 11
304.3254682969990768
 21
12.7252232293733893
 31
0.0
  0
LINE
  5
1BA7
  8
0
 10
306.5492914774991959
 20
8.7927968224733881
 30
0.0
 11
307.3901914774991724
 21
8.7927968224733881
 31
0.0
  0
ARC
  5
1BA8
  8
0
 10
306.7468573062391215
 20
8.8427968224733888
 30
0.0
 40
0.05
 50
225.3589054125939128
 51
270.0
  0
ARC
  5
1BA9
  8
0
 10
306.5492914774991959
 20
8.8518968224733872
 30
0.0
 40
0.0591
 50
180.0
 51
270.0
  0
LINE
  5
1BAA
  8
0
 10
306.485191477499086
 20
10.9798046964733906
 30
0.0
 11
304.3630418900992254
 21
10.9798046964733906
 31
0.0
  0
LINE
  5
1BAB
  8
0
 10
304.3030418711991842
 20
10.9798046964733906
 30
0.0
 11
303.8099157339934777
 21
10.9798046964733906
 31
0.0
  0
ARC
  5
1BAC
  8
0
 10
306.485191477499086
 20
10.9848046964733896
 30
0.0
 40
0.005
 50
270.0
 51
359.999999999989825
  0
ARC
  5
1BAD
  8
0
 10
304.3630418900992254
 20
10.9998046964733902
 30
0.0
 40
0.02
 50
180.0
 51
270.0000000000064801
  0
ARC
  5
1BAE
  8
0
 10
304.3030418711991842
 20
10.9898046964733904
 30
0.0
 40
0.01
 50
270.0000000000097771
 51
359.9999999999847091
  0
LINE
  5
1BAF
  8
0
 10
303.7721773783561048
 20
11.0078831897811593
 30
0.0
 11
303.668238967424486
 21
11.3543445595223709
 31
0.0
  0
ARC
  5
1BB0
  8
0
 10
303.8099157339934777
 20
11.0192046964733894
 30
0.0
 40
0.0394
 50
196.6992442353891022
 51
270.0
  0
ARC
  5
1BB1
  8
0
 10
303.7987906900992243
 20
11.3935100763282495
 30
0.0
 40
0.1363
 50
180.0000000000013927
 51
196.6992442353887043
  0
ARC
  5
1BB2
  8
0
 10
304.2830418902959764
 20
11.3179440088125496
 30
0.0
 40
0.059999999803134
 50
359.9999999626064096
 51
45.0000000389660428
  0
LINE
  5
1BB3
  8
0
 10
304.3130418711991751
 20
11.3727968413733898
 30
0.0
 11
304.3254682969990768
 21
11.3603704155733904
 31
0.0
  0
LINE
  5
1BB4
  8
0
 10
306.5046846252878936
 20
15.0710681908102497
 30
0.0
 11
306.7098466112252027
 21
15.2779999962798794
 31
0.0
  0
ARC
  5
1BB5
  8
0
 10
306.7453534634365155
 20
15.2427968224733892
 30
0.0
 40
0.05
 50
90.0
 51
135.2460667168006978
  0
LINE
  5
1BB6
  8
0
 10
306.5050582993512762
 20
9.0113134796853416
 30
0.0
 11
306.7117241280913049
 21
8.8072207097960842
 31
0.0
  0
ARC
  5
1BB7
  8
0
 10
306.5401914774990928
 20
9.0468895923626427
 30
0.0
 40
0.05
 50
180.0
 51
225.3589054125939128
  0
LINE
  5
1BB8
  8
0
 10
301.7799383815344072
 20
12.3428744064430802
 30
0.0
 11
302.8874906900991846
 21
12.3428744064430802
 31
0.0
  0
LINE
  5
1BB9
  8
0
 10
301.7799842036343989
 20
11.7427968224733892
 30
0.0
 11
302.8943139152228241
 21
11.7427968224733892
 31
0.0
  0
LINE
  5
1BBA
  8
0
 10
305.1916434525263071
 20
10.1957968224733904
 30
0.0
 11
305.4217650707279859
 21
10.1957968224733904
 31
0.0
  0
LINE
  5
1BBB
  8
0
 10
305.4217650716266803
 20
9.2897968234009731
 30
0.0
 11
305.1916178835833762
 21
9.2897968234009731
 31
0.0
  0
LINE
  5
1BBC
  8
0
 10
302.2387609328757208
 20
12.6412220186712201
 30
0.0
 11
303.6324906900991891
 21
12.6412220186712201
 31
0.0
  0
LINE
  5
1BBD
  8
0
 10
302.2387609329161933
 20
11.4443716262755597
 30
0.0
 11
303.6324906900991891
 21
11.4443716262755597
 31
0.0
  0
LINE
  5
1BBE
  8
0
 10
302.1124906900992073
 20
12.5149517758946391
 30
0.0
 11
302.1124906900992073
 21
12.3428744064430802
 31
0.0
  0
LINE
  5
1BBF
  8
0
 10
302.1124906900992073
 20
11.7427968224733892
 30
0.0
 11
302.1124906900992073
 21
11.5706418690568107
 31
0.0
  0
LINE
  5
1BC0
  8
0
 10
302.2248309292863837
 20
12.6354520222605906
 30
0.0
 11
302.1182606865098137
 21
12.5288817794840099
 31
0.0
  0
ARC
  5
1BC1
  8
0
 10
302.2387609328757208
 20
12.6215220186712198
 30
0.0
 40
0.0197
 50
90.0000000000065086
 51
135.0000000000011084
  0
ARC
  5
1BC2
  8
0
 10
302.1321906900992076
 20
12.5149517758946391
 30
0.0
 40
0.0197
 50
135.000000000000199
 51
180.0
  0
LINE
  5
1BC3
  8
0
 10
302.1182606865120874
 20
11.5567118654650898
 30
0.0
 11
302.2248309293293005
 21
11.4501416226838408
 31
0.0
  0
ARC
  5
1BC4
  8
0
 10
302.1321906900992076
 20
11.5706418690568107
 30
0.0
 40
0.0197
 50
180.0000000000013074
 51
225.0000000096401891
  0
ARC
  5
1BC5
  8
0
 10
302.2387609329161933
 20
11.4640716262755493
 30
0.0
 40
0.0197
 50
225.0000000096360964
 51
270.0000000000032969
  0
ARC
  5
1BC6
  8
0
 10
303.6324906900990754
 20
11.4743716262755608
 30
0.0
 40
0.03
 50
270.0000000000032969
 51
359.9999999999973852
  0
ARC
  5
1BC7
  8
0
 10
303.6324906900990754
 20
12.6112220186712207
 30
0.0
 40
0.03
 50
0.0000000000016793
 51
89.9999999999967457
  0
ARC
  5
1BC8
  8
0
 10
302.8874906900991846
 20
12.0427968224733899
 30
0.0
 40
0.3000775839696934
 50
271.3029153753502101
 51
90.0
  0
ARC
  5
1BC9
  8
0
 10
302.8874906900991846
 20
12.0427968224733899
 30
0.0
 40
0.315
 50
252.2472098380530099
 51
107.7064496951897041
  0
CIRCLE
  5
1BCA
  8
0
 10
301.2719487717990887
 20
12.0427968224733899
 30
0.0
 40
0.5900000000000003
  0
LINE
  5
1BCB
  8
0
 10
302.2248309292863837
 20
12.6354520222605906
 30
0.0
 11
302.2248309292863837
 21
12.3428744064430802
 31
0.0
  0
LINE
  5
1BCC
  8
0
 10
302.2248309292863837
 20
11.7427968224733892
 30
0.0
 11
302.2248309292863837
 21
11.4501416227267097
 31
0.0
  0
LINE
  5
1BCD
  8
0
 10
306.3336679052961813
 20
9.3672823095403572
 30
0.0
 11
306.4901914774991951
 21
9.3645501803733886
 31
0.0
  0
LINE
  5
1BCE
  8
0
 10
306.3336679053144849
 20
10.1183113355024297
 30
0.0
 11
306.4901914774991951
 21
10.1210434645733898
 31
0.0
  0
LINE
  5
1BCF
  8
0
 10
306.3041914774992165
 20
9.3972777403948768
 30
0.0
 11
306.3041914774992165
 21
10.0883159046475903
 31
0.0
  0
LINE
  5
1BD0
  8
0
 10
305.9301914774990792
 20
10.0427968224733792
 30
0.0
 11
305.5241914774991869
 21
10.0427968224733792
 31
0.0
  0
LINE
  5
1BD1
  8
0
 10
305.9701914774992133
 20
10.0427968224733792
 30
0.0
 11
306.3041914774992165
 21
10.0427968224733792
 31
0.0
  0
LINE
  5
1BD2
  8
0
 10
305.9501914774991747
 20
10.0227968224733903
 30
0.0
 11
305.9501914774991747
 21
9.4627968224733898
 31
0.0
  0
LINE
  5
1BD3
  8
0
 10
305.9701914774992133
 20
9.4427968224733903
 30
0.0
 11
306.3041914774992165
 21
9.4427968224733903
 31
0.0
  0
LINE
  5
1BD4
  8
0
 10
305.9301914774990792
 20
9.4427968224733903
 30
0.0
 11
305.5241914774991869
 21
9.4427968224733903
 31
0.0
  0
LINE
  5
1BD5
  8
0
 10
305.4941914774992142
 20
10.1233704156733904
 30
0.0
 11
305.4941914774992142
 21
9.3622232293445826
 31
0.0
  0
ARC
  5
1BD6
  8
0
 10
306.3341914774991892
 20
9.3972777403948768
 30
0.0
 40
0.03
 50
179.9999999999976126
 51
268.9999999811998919
  0
ARC
  5
1BD7
  8
0
 10
306.3341914774991892
 20
10.0883159046475903
 30
0.0
 40
0.03
 50
90.9999999837832689
 51
180.000000000002899
  0
ARC
  5
1BD8
  8
0
 10
305.9701914774992133
 20
10.0227968224733903
 30
0.0
 40
0.02
 50
90.0
 51
179.9999999999986926
  0
ARC
  5
1BD9
  8
0
 10
305.9301914774990792
 20
10.0227968224733903
 30
0.0
 40
0.02
 50
0.0000000000012722
 51
90.0
  0
ARC
  5
1BDA
  8
0
 10
305.9701914774992133
 20
9.4627968224733898
 30
0.0
 40
0.02
 50
179.9999999999984084
 51
270.0
  0
ARC
  5
1BDB
  8
0
 10
305.9301914774990792
 20
9.4627968224733898
 30
0.0
 40
0.02
 50
269.9999999999935199
 51
359.9999999999997158
  0
ARC
  5
1BDC
  8
0
 10
305.5241914774991869
 20
9.4127968224733873
 30
0.0
 40
0.03
 50
90.0000000000032543
 51
179.9999999999963904
  0
ARC
  5
1BDD
  8
0
 10
305.5241914774991869
 20
10.0727968224733893
 30
0.0
 40
0.03
 50
180.0000000000034106
 51
270.0
  0
LINE
  5
1BDE
  8
0
 10
305.4429782741706845
 20
10.1870100259017793
 30
0.0
 11
305.485404680941997
 21
10.1445836191017804
 31
0.0
  0
LINE
  5
1BDF
  8
0
 10
305.1704346633816272
 20
10.1870144392815796
 30
0.0
 11
305.1089826883546152
 21
10.1255880315633799
 31
0.0
  0
ARC
  5
1BE0
  8
0
 10
305.1916434525263071
 20
10.1657968224733892
 30
0.0
 40
0.03
 50
89.9999999999967457
 51
134.9880784655705099
  0
ARC
  5
1BE1
  8
0
 10
305.4217650707279859
 20
10.1657968224733892
 30
0.0
 40
0.03
 50
44.9999999805449988
 51
90.0
  0
ARC
  5
1BE2
  8
0
 10
305.4641914774991847
 20
10.1233704156733904
 30
0.0
 40
0.03
 50
359.9999999999956799
 51
44.9999999805539588
  0
LINE
  5
1BE3
  8
0
 10
305.1001914774992088
 20
10.1043704147551807
 30
0.0
 11
305.1001914774992088
 21
9.3812232293733882
 31
0.0
  0
ARC
  5
1BE4
  8
0
 10
305.1301914774991815
 20
10.1043704147551807
 30
0.0
 40
0.03
 50
134.9880784655659056
 51
180.0000000000042064
  0
LINE
  5
1BE5
  8
0
 10
305.1704046801672234
 20
9.2985836199460596
 30
0.0
 11
305.108978274082915
 21
9.3600100259184735
 31
0.0
  0
LINE
  5
1BE6
  8
0
 10
305.4854046809526267
 20
9.3410100259267832
 30
0.0
 11
305.4429782750801223
 21
9.2985836199831748
 31
0.0
  0
ARC
  5
1BE7
  8
0
 10
305.4641914774991847
 20
9.3622232293445826
 30
0.0
 40
0.03
 50
315.0000000480721951
 51
0.0000000000010687
  0
ARC
  5
1BE8
  8
0
 10
305.4217650716266803
 20
9.3197968234009707
 30
0.0
 40
0.03
 50
269.9999999999968168
 51
315.0000000480732751
  0
ARC
  5
1BE9
  8
0
 10
305.1916178835833762
 20
9.3197968234009814
 30
0.0
 40
0.03
 50
225.000000052183907
 51
269.9999999999935199
  0
ARC
  5
1BEA
  8
0
 10
305.1301914774991815
 20
9.3812232293733882
 30
0.0
 40
0.03
 50
179.9999999999990905
 51
225.000000052175011
  0
LINE
  5
1BEB
  8
0
 10
305.1704346633816272
 20
9.2985536790508316
 30
0.0
 11
305.1704346633816272
 21
10.1870144392815796
 31
0.0
  0
LINE
  5
1BEC
  8
0
 10
305.4429782741706845
 20
9.2985836190738027
 30
0.0
 11
305.4429782741706845
 21
10.1870100259017793
 31
0.0
  0
ENDSEC
  0
EOF
