  0
SECTION
  2
HEADER
  9
$ACADVER
  1
AC1009
  9
$INSBASE
 10
6102.9473114155825897
 20
1013.3695256186130109
 30
0.0
  9
$EXTMIN
 10
6098.9487616022834118
 20
1012.183475805312014
 30
0.0
  9
$EXTMAX
 10
6106.9458612288826771
 20
1014.5555754319129846
 30
0.0
  9
$LIMMIN
 10
0.0
 20
0.0
  9
$LIMMAX
 10
11.6929133858000007
 20
8.2677165353999982
  9
$ORTHOMODE
 70
     1
  9
$REGENMODE
 70
     1
  9
$FILLMODE
 70
     1
  9
$QTEXTMODE
 70
     0
  9
$MIRRTEXT
 70
     0
  9
$DRAGMODE
 70
     2
  9
$LTSCALE
 40
0.6431102362
  9
$OSMODE
 70
  4095
  9
$ATTMODE
 70
     1
  9
$TEXTSIZE
 40
0.2
  9
$TRACEWID
 40
0.05
  9
$TEXTSTYLE
  7
STANDARD
  9
$CLAYER
  8
0
  9
$CELTYPE
  6
BYLAYER
  9
$CECOLOR
 62
   256
  9
$DIMSCALE
 40
1.0
  9
$DIMASZ
 40
0.1875
  9
$DIMEXO
 40
0.0625
  9
$DIMDLI
 40
0.4443307087
  9
$DIMRND
 40
0.0
  9
$DIMDLE
 40
0.0
  9
$DIMEXE
 40
0.125
  9
$DIMTP
 40
0.01
  9
$DIMTM
 40
0.01
  9
$DIMTXT
 40
2.0
  9
$DIMCEN
 40
0.1052362205
  9
$DIMTSZ
 40
0.0
  9
$DIMTOL
 70
     1
  9
$DIMLIM
 70
     0
  9
$DIMTIH
 70
     1
  9
$DIMTOH
 70
     1
  9
$DIMSE1
 70
     0
  9
$DIMSE2
 70
     0
  9
$DIMTAD
 70
     0
  9
$DIMZIN
 70
     0
  9
$DIMBLK
  1

  9
$DIMASO
 70
     1
  9
$DIMSHO
 70
     1
  9
$DIMPOST
  1
\X
  9
$DIMAPOST
  1

  9
$DIMALT
 70
     1
  9
$DIMALTD
 70
     2
  9
$DIMALTF
 40
25.3999999999999986
  9
$DIMLFAC
 40
1.0
  9
$DIMTOFL
 70
     0
  9
$DIMTVP
 40
0.0
  9
$DIMTIX
 70
     0
  9
$DIMSOXD
 70
     0
  9
$DIMSAH
 70
     0
  9
$DIMBLK1
  1

  9
$DIMBLK2
  1

  9
$DIMSTYLE
  2
STANDARD
  9
$DIMCLRD
 70
     0
  9
$DIMCLRE
 70
     0
  9
$DIMCLRT
 70
     0
  9
$DIMTFAC
 40
1.0
  9
$DIMGAP
 40
0.09
  9
$LUNITS
 70
     2
  9
$LUPREC
 70
     4
  9
$SKETCHINC
 40
0.1
  9
$FILLETRAD
 40
0.0
  9
$AUNITS
 70
     0
  9
$AUPREC
 70
     0
  9
$MENU
  1
.
  9
$ELEVATION
 40
0.0
  9
$PELEVATION
 40
0.0
  9
$THICKNESS
 40
0.0
  9
$LIMCHECK
 70
     0
  9
$BLIPMODE
 70
     0
  9
$CHAMFERA
 40
0.0
  9
$CHAMFERB
 40
0.0
  9
$SKPOLY
 70
     0
  9
$TDCREATE
 40
2458060.468368056230247
  9
$TDUPDATE
 40
2460899.6124074067920446
  9
$TDINDWG
 40
1.5476622685000001
  9
$TDUSRTIMER
 40
1.5476622685000001
  9
$USRTIMER
 70
     1
  9
$ANGBASE
 50
0.0
  9
$ANGDIR
 70
     0
  9
$PDMODE
 70
     0
  9
$PDSIZE
 40
0.3125
  9
$PLINEWID
 40
0.0
  9
$COORDS
 70
     1
  9
$SPLFRAME
 70
     0
  9
$SPLINETYPE
 70
     6
  9
$SPLINESEGS
 70
     8
  9
$ATTDIA
 70
     1
  9
$ATTREQ
 70
     1
  9
$HANDLING
 70
     1
  9
$HANDSEED
  5
211B5
  9
$SURFTAB1
 70
     6
  9
$SURFTAB2
 70
     6
  9
$SURFTYPE
 70
     6
  9
$SURFU
 70
     6
  9
$SURFV
 70
     6
  9
$UCSNAME
  2

  9
$UCSORG
 10
0.0
 20
0.0
 30
0.0
  9
$UCSXDIR
 10
1.0
 20
0.0
 30
0.0
  9
$UCSYDIR
 10
0.0
 20
1.0
 30
0.0
  9
$PUCSNAME
  2

  9
$PUCSORG
 10
0.0
 20
0.0
 30
0.0
  9
$PUCSXDIR
 10
1.0
 20
0.0
 30
0.0
  9
$PUCSYDIR
 10
0.0
 20
1.0
 30
0.0
  9
$USERI1
 70
     0
  9
$USERI2
 70
     0
  9
$USERI3
 70
     0
  9
$USERI4
 70
     0
  9
$USERI5
 70
     0
  9
$USERR1
 40
0.0
  9
$USERR2
 40
0.0
  9
$USERR3
 40
0.0
  9
$USERR4
 40
0.0
  9
$USERR5
 40
0.0
  9
$WORLDVIEW
 70
     1
  9
$SHADEDGE
 70
     3
  9
$SHADEDIF
 70
    70
  9
$TILEMODE
 70
     1
  9
$MAXACTVP
 70
    64
  9
$PLIMCHECK
 70
     0
  9
$PEXTMIN
 10
1.0000000000000000E+20
 20
1.0000000000000000E+20
 30
1.0000000000000000E+20
  9
$PEXTMAX
 10
-1.0000000000000000E+20
 20
-1.0000000000000000E+20
 30
-1.0000000000000000E+20
  9
$PLIMMIN
 10
0.0
 20
0.0
  9
$PLIMMAX
 10
12.0
 20
9.0
  9
$UNITMODE
 70
     0
  9
$VISRETAIN
 70
     1
  9
$PLINEGEN
 70
     0
  9
$PSLTSCALE
 70
     1
  0
ENDSEC
  0
SECTION
  2
TABLES
  0
TABLE
  2
VPORT
 70
     1
  0
VPORT
  2
*ACTIVE
 70
     0
 10
0.0
 20
0.0
 11
1.0
 21
1.0
 12
2191.5819549702709992
 22
880.789920516073721
 13
0.0
 23
0.0
 14
1.0
 24
1.0
 15
0.0
 25
0.0
 16
0.0
 26
0.0
 36
60.4960186965801583
 17
3911.3653564453120453
 27
132.5796051025390057
 37
0.0
 40
3.6163946966668519
 41
2.2182448036951499
 42
50.0
 43
0.0
 44
0.0
 50
0.0
 51
0.0
 71
     0
 72
   100
 73
     1
 74
     1
 75
     0
 76
     0
 77
     0
 78
     0
  0
ENDTAB
  0
TABLE
  2
LTYPE
 70
     2
  0
LTYPE
  2
CONTINUOUS
 70
     0
  3
Solid line
 72
    65
 73
     0
 40
0.0
  0
LTYPE
  2
PHANTOM2
 70
     0
  3
___ _ _ ___ _ _ ___ _ _ ___ _ _
 72
    65
 73
     6
 40
1.25
 49
0.625
 49
-0.125
 49
0.125
 49
-0.125
 49
0.125
 49
-0.125
  0
ENDTAB
  0
TABLE
  2
LAYER
 70
     2
  0
LAYER
  2
0
 70
     0
 62
   255
  6
CONTINUOUS
  0
LAYER
  2
DEFPOINTS
 70
     0
 62
     7
  6
CONTINUOUS
  0
ENDTAB
  0
TABLE
  2
STYLE
 70
     1
  0
STYLE
  2
STANDARD
 70
     0
 40
0.0
 41
0.8
 50
0.0
 71
     0
 42
0.2
  3
txt
  4

  0
ENDTAB
  0
TABLE
  2
VIEW
 70
     0
  0
ENDTAB
  0
TABLE
  2
UCS
 70
     0
  0
ENDTAB
  0
TABLE
  2
APPID
 70
    11
  0
APPID
  2
ACAD
 70
     0
  0
APPID
  2
ACAD_MLEADERVER
 70
     0
  0
APPID
  2
ACAD_EXEMPT_FROM_CAD_STANDARDS
 70
     0
  0
APPID
  2
ACAD_NAV_VCDISPLAY
 70
     0
  0
APPID
  2
ACAECLAYERSTANDARD
 70
     0
  0
APPID
  2
ACCMTRANSPARENCY
 70
     0
  0
APPID
  2
ACAD_DSTYLE_DIMJAG
 70
     0
  0
APPID
  2
ACAD_DSTYLE_DIMTALN
 70
     0
  0
APPID
  2
ACDBATTR
 70
     0
  0
APPID
  2
ACADANNOTATIVE
 70
     0
  0
APPID
  2
DCO15
 70
     0
  0
ENDTAB
  0
TABLE
  2
DIMSTYLE
 70
     1
  0
DIMSTYLE
  2
STANDARD
 70
     0
  3

  4

  5

  6

  7

 40
1.0
 41
0.1875
 42
0.0625
 43
0.38
 44
0.125
 45
0.0
 46
0.0
 47
0.01
 48
0.01
140
0.15625
141
0.09
142
0.0
143
25.3999999999999986
144
1.0
145
0.0
146
1.0
147
0.09
 71
     1
 72
     0
 73
     1
 74
     1
 75
     0
 76
     0
 77
     0
 78
     4
170
     0
171
     2
172
     0
173
     0
174
     0
175
     0
176
     0
177
     0
178
     0
  0
ENDTAB
  0
ENDSEC
  0
SECTION
  2
BLOCKS
  0
BLOCK
  8
0
  2
$MODEL_SPACE
 70
     0
 10
0.0
 20
0.0
 30
0.0
  3
$MODEL_SPACE
  1

  0
ENDBLK
  5
21
  8
0
  0
BLOCK
 67
     1
  8
0
  2
$PAPER_SPACE
 70
     0
 10
0.0
 20
0.0
 30
0.0
  3
$PAPER_SPACE
  1

  0
ENDBLK
  5
1D
 67
     1
  8
0
  0
BLOCK
  8
0
  2
_FILLED
 70
     0
 10
0.0
 20
0.0
 30
0.0
  3
_FILLED
  1

  0
SOLID
  5
1FCD6
  8
0
  6
BYBLOCK
 62
     0
 10
0.0
 20
0.0
 30
0.0
 11
-1.0
 21
0.1666666667
 31
0.0
 12
-1.0
 22
-0.1666666667
 32
0.0
 13
-1.0
 23
-0.1666666667
 33
0.0
  0
ENDBLK
  5
1FCD7
  8
0
  6
BYBLOCK
 62
     0
  0
ENDSEC
  0
SECTION
  2
ENTITIES
  0
ATTDEF
  5
20569
  8
DEFPOINTS
 10
6102.9442458581834217
 20
1013.3729574043850334
 30
0.0
 40
0.001
  1
P34608-00
  3

  2
MODELNUMBER
 70
     0
1001
ACDBATTR
1070
     0
1070
     1
  0
ATTDEF
  5
2056A
  8
DEFPOINTS
 10
6102.9442458581834217
 20
1013.3712905640060171
 30
0.0
 40
0.001
  1
KALLISTA
  3

  2
BRANDNAME
 70
     0
1001
ACDBATTR
1070
     0
1070
     1
  0
ATTDEF
  5
2056B
  8
DEFPOINTS
 10
6102.9442458581834217
 20
1013.3696240710520442
 30
0.0
 40
0.001
  1
TOILET TISSUE HOLDER
  3

  2
PRODUCT
 70
     0
1001
ACDBATTR
1070
     0
1070
     1
  0
ARC
  5
20FE0
  8
0
 10
6105.7598114155844087
 20
1013.3695256186130109
 30
0.0
 40
1.186049813299999
 50
200.1142240781267958
 51
159.8857759231175066
  0
CIRCLE
  5
20FE1
  8
0
 10
6105.7598114155844087
 20
1013.3695256186130109
 30
0.0
 40
0.3650028707999997
  0
CIRCLE
  5
20FE2
  8
0
 10
6105.7598114155844087
 20
1013.3695256186130109
 30
0.0
 40
0.404
  0
CIRCLE
  5
20FE3
  8
0
 10
6105.7598114155844087
 20
1013.3695256186130109
 30
0.0
 40
0.4109704271999997
  0
CIRCLE
  5
20FE4
  8
0
 10
6105.7598114155844087
 20
1013.3695256186130109
 30
0.0
 40
0.4609704271999995
  0
ARC
  5
20FE5
  8
0
 10
6105.7598114155844087
 20
1013.3695256186130109
 30
0.0
 40
0.9009999999999998
 50
206.9164262201628901
 51
153.0835737805946906
  0
ARC
  5
20FE6
  8
0
 10
6105.7598114155844087
 20
1013.3695256186130109
 30
0.0
 40
1.0118334990999991
 50
203.7723613582024029
 51
156.2276386427672037
  0
ARC
  5
20FE7
  8
0
 10
6105.7556678289683987
 20
1010.969219072524993
 30
0.0
 40
1.8840415716036181
 50
89.8739888651544305
 51
91.2166000022379251
  0
ARC
  5
20FE8
  8
0
 10
6105.7225659465239005
 20
1012.5279179930960254
 30
0.0
 40
0.3249912005090252
 50
91.2166000022379251
 51
94.4806786631780113
  0
ARC
  5
20FE9
  8
0
 10
6105.7078908008179496
 20
1012.7151907738580121
 30
0.0
 40
0.1371443098885239
 50
94.4806786631780113
 51
102.3847645814298062
  0
ARC
  5
20FEA
  8
0
 10
6105.6840815227405983
 20
1012.8236190472399585
 30
0.0
 40
0.0261327240463573
 50
102.3847645814298062
 51
129.9947139425864862
  0
ARC
  5
20FEB
  8
0
 10
6105.6736688198006959
 20
1012.8374374989859916
 30
0.0
 40
0.0088999806180102
 50
135.8254069864489963
 51
204.0811837716366028
  0
ARC
  5
20FEC
  8
0
 10
6105.6962676287239447
 20
1012.8474882410559985
 30
0.0
 40
0.0336330161175725
 50
204.0045258044987975
 51
230.5075731342905954
  0
ARC
  5
20FED
  8
0
 10
6105.7484024792256605
 20
1012.911027423920018
 30
0.0
 40
0.115823413064389
 50
230.5948818371566063
 51
254.775940965609891
  0
ARC
  5
20FEE
  8
0
 10
6105.7597420304464322
 20
1012.9430291122520202
 30
0.0
 40
0.1497012648186557
 50
253.8044612103551003
 51
270.0265560591938083
  0
ARC
  5
20FEF
  8
0
 10
6105.7639550021985997
 20
1010.969219072524993
 30
0.0
 40
1.8840415716036181
 50
88.7833999977620749
 51
90.1260111348455837
  0
ARC
  5
20FF0
  8
0
 10
6105.7970568846430979
 20
1012.5279179930960254
 30
0.0
 40
0.3249912005090252
 50
85.5193213368220171
 51
88.7833999977620749
  0
ARC
  5
20FF1
  8
0
 10
6105.8117320303481392
 20
1012.7151907738580121
 30
0.0
 40
0.1371443098885239
 50
77.6152354185701512
 51
85.5193213368220171
  0
ARC
  5
20FF2
  8
0
 10
6105.8355413084264001
 20
1012.8236190472399585
 30
0.0
 40
0.0261327240463573
 50
50.0052860574134073
 51
77.6152354185701512
  0
ARC
  5
20FF3
  8
0
 10
6105.8459540113653929
 20
1012.8374374989859916
 30
0.0
 40
0.0088999806180102
 50
335.9188162283633119
 51
44.1745930135509965
  0
ARC
  5
20FF4
  8
0
 10
6105.8233552024430537
 20
1012.8474882410559985
 30
0.0
 40
0.0336330161175725
 50
309.4924268657093762
 51
335.9954741955011741
  0
ARC
  5
20FF5
  8
0
 10
6105.7712203519422474
 20
1012.911027423920018
 30
0.0
 40
0.115823413064389
 50
285.2240590343899953
 51
309.4051181628432801
  0
ARC
  5
20FF6
  8
0
 10
6105.7598808007205662
 20
1012.9430291122520202
 30
0.0
 40
0.1497012648186557
 50
269.9734439408061917
 51
286.1955387896448997
  0
LINE
  5
20FF7
  8
0
 10
6102.9473114155825897
 20
1013.777399634313042
 30
0.0
 11
6105.1896645046836056
 21
1013.7773996344129728
 31
0.0
  0
LINE
  5
20FF8
  8
0
 10
6102.9473114155825897
 20
1012.9616516028130491
 30
0.0
 11
6105.1896645046836056
 21
1012.9616516028130491
 31
0.0
  0
ARC
  5
20FF9
  8
0
 10
6105.1896645046836056
 20
1013.0412421536340162
 30
0.0
 40
0.0795905508213561
 50
270.0
 51
305.3000355284711986
  0
ARC
  5
20FFA
  8
0
 10
51994.6331327559819329
 20
-63798.8587464502124931
 30
0.0
 40
79412.9130615248141112
 50
125.2999644189120971
 51
125.3000355284711986
  0
ARC
  5
20FFB
  8
0
 10
6105.3620861459758089
 20
1012.9682816855879537
 30
0.0
 40
0.0795903897250088
 50
89.9999630640240866
 51
125.2999644189120971
  0
LINE
  5
20FFC
  8
0
 10
6105.362086197284043
 20
1013.0478720753129664
 30
0.0
 11
6105.4296103664710245
 21
1013.0478720753129664
 31
0.0
  0
LINE
  5
20FFD
  8
0
 10
6105.362086197284043
 20
1013.6911791619130554
 30
0.0
 11
6105.4296103664710245
 21
1013.6911791619130554
 31
0.0
  0
ARC
  5
20FFE
  8
0
 10
6105.1896645048127539
 20
1013.6978090839979814
 30
0.0
 40
0.0795905504149999
 50
54.6999643784417131
 51
90.0000000930688344
  0
ARC
  5
20FFF
  8
0
 10
51883.8139795044189668
 20
65669.0822387249354506
 30
0.0
 40
79221.1371377890318399
 50
234.6999643620852112
 51
234.7000356437833091
  0
ARC
  5
21000
  8
0
 10
6105.36208615214764
 20
1013.7707695712540499
 30
0.0
 40
0.0795904093416848
 50
234.7000401511421046
 51
270.0000324928511191
  0
LINE
  5
21001
  8
0
 10
6102.9473114155825897
 20
1013.777399634313042
 30
0.0
 11
6102.9473114155825897
 21
1012.9616516028130491
 31
0.0
  0
LINE
  5
21002
  8
0
 10
6105.1896645046836056
 20
1013.7773996344129728
 30
0.0
 11
6105.1896645046836056
 21
1012.9616516028130491
 31
0.0
  0
LINE
  5
21003
  8
0
 10
6105.3160942728009104
 20
1013.7058128141510451
 30
0.0
 11
6105.3160942727954534
 21
1013.4944609296650242
 31
0.0
  0
LINE
  5
21004
  8
0
 10
6105.316094272787268
 20
1013.2445903075889646
 30
0.0
 11
6105.3160942727790825
 21
1013.0332384230009666
 31
0.0
  0
ARC
  5
21005
  8
0
 10
6100.1348114155844087
 20
1013.3695256186130109
 30
0.0
 40
1.186049813299999
 50
18.7227315629442792
 51
341.2772684319430141
  0
CIRCLE
  5
21006
  8
0
 10
6100.1348114155844087
 20
1013.3695256186130109
 30
0.0
 40
0.3650028707999997
  0
CIRCLE
  5
21007
  8
0
 10
6100.1348114155844087
 20
1013.3695256186130109
 30
0.0
 40
0.404
  0
CIRCLE
  5
21008
  8
0
 10
6100.1348114155844087
 20
1013.3695256186130109
 30
0.0
 40
0.4109704271999997
  0
CIRCLE
  5
21009
  8
0
 10
6100.1348114155844087
 20
1013.3695256186130109
 30
0.0
 40
0.4609704271999995
  0
ARC
  5
2100A
  8
0
 10
6100.1348114155844087
 20
1013.3695256186130109
 30
0.0
 40
0.9009999999999998
 50
24.9950609963290589
 51
335.0049389966537774
  0
ARC
  5
2100B
  8
0
 10
6100.1348114155844087
 20
1013.3695256186130109
 30
0.0
 40
1.0118334990999991
 50
22.1019770411130416
 51
337.8980229527600727
  0
ARC
  5
2100C
  8
0
 10
6100.1387237814442415
 20
1011.0733061429200461
 30
0.0
 40
1.778908131445738
 50
88.7833999977620749
 51
90.1260111348455837
  0
ARC
  5
2100D
  8
0
 10
6100.1699785099672226
 20
1012.5450264202589779
 30
0.0
 40
0.3068560152532821
 50
85.5193213368220171
 51
88.7833999977620749
  0
ARC
  5
2100E
  8
0
 10
6100.1838347520042589
 20
1012.7218489901630392
 30
0.0
 40
0.1294913720160403
 50
77.6152354185701512
 51
85.5193213368220171
  0
ARC
  5
2100F
  8
0
 10
6100.2063154228217172
 20
1012.8242267402639527
 30
0.0
 40
0.0246744636655359
 50
50.0052860574134073
 51
77.6152354185701512
  0
ARC
  5
21010
  8
0
 10
6100.2161470752680543
 20
1012.8372740936480341
 30
0.0
 40
0.0084033431797431
 50
335.9188162283633119
 51
44.1745930135509965
  0
ARC
  5
21011
  8
0
 10
6100.1948093269111268
 20
1012.8467639833960448
 30
0.0
 40
0.0317562238319776
 50
309.4924268657093762
 51
335.9954741955011741
  0
ARC
  5
21012
  8
0
 10
6100.1455837095527386
 20
1012.9067575476379943
 30
0.0
 40
0.109360225600897
 50
285.2240590343899953
 51
309.4051181628432801
  0
ARC
  5
21013
  8
0
 10
6100.1348769288861149
 20
1012.9369734751700207
 30
0.0
 40
0.1413476227315679
 50
269.9734439408061917
 51
286.1955387896448997
  0
ARC
  5
21014
  8
0
 10
6100.1308990497227569
 20
1011.0733061429200461
 30
0.0
 40
1.778908131445738
 50
89.8739888651544305
 51
91.2166000022379251
  0
ARC
  5
21015
  8
0
 10
6100.0996443211997757
 20
1012.5450264202589779
 30
0.0
 40
0.3068560152532821
 50
91.2166000022379251
 51
94.4806786631780113
  0
ARC
  5
21016
  8
0
 10
6100.0857880791627395
 20
1012.7218489901630392
 30
0.0
 40
0.1294913720160403
 50
94.4806786631780113
 51
102.3847645814298062
  0
ARC
  5
21017
  8
0
 10
6100.0633074083461906
 20
1012.8242267402639527
 30
0.0
 40
0.0246744636655359
 50
102.3847645814298062
 51
129.9947139425864862
  0
ARC
  5
21018
  8
0
 10
6100.053475755898944
 20
1012.8372740936480341
 30
0.0
 40
0.0084033431797431
 50
135.8254069864489963
 51
204.0811837716366028
  0
ARC
  5
21019
  8
0
 10
6100.074813504256781
 20
1012.8467639833960448
 30
0.0
 40
0.0317562238319776
 50
204.0045258044987975
 51
230.5075731342905954
  0
ARC
  5
2101A
  8
0
 10
6100.1240391216151693
 20
1012.9067575476379943
 30
0.0
 40
0.109360225600897
 50
230.5948818371566063
 51
254.775940965609891
  0
ARC
  5
2101B
  8
0
 10
6100.1347459022808835
 20
1012.9369734751700207
 30
0.0
 40
0.1413476227315679
 50
253.8044612103551003
 51
270.0265560591938083
  0
ARC
  5
2101C
  8
0
 10
6100.6995869233251142
 20
1013.0684075070080326
 30
0.0
 40
0.0795905498954379
 50
242.2799654491109038
 51
270.000000114121292
  0
ARC
  5
2101D
  8
0
 10
6062.8792337406775914
 20
941.2002068126795393
 30
0.0
 40
81.1325845740758353
 50
62.2445560195106324
 51
62.3154439960391926
  0
ARC
  5
2101E
  8
0
 10
6100.5366846029719454
 20
1012.9741870358150209
 30
0.0
 40
0.0795905512969952
 50
62.2800820844654623
 51
89.99999999150603
  0
LINE
  5
2101F
  8
0
 10
6100.5366846029837689
 20
1013.0537775871130179
 30
0.0
 11
6100.470663935831908
 21
1013.0537775871130179
 31
0.0
  0
LINE
  5
21020
  8
0
 10
6100.5366846029837689
 20
1013.6852736501119807
 30
0.0
 11
6100.470663935831908
 21
1013.6852736501119807
 31
0.0
  0
ARC
  5
21021
  8
0
 10
6100.6995869234833663
 20
1013.6706437288120242
 30
0.0
 40
0.0795905512000211
 50
90.0000168452500446
 51
117.7200342399628994
  0
ARC
  5
21022
  8
0
 10
6105.2884275232991058
 20
1004.8296984974570023
 30
0.0
 40
10.0405016873017399
 50
117.4335925648679932
 51
118.0064074016829068
  0
ARC
  5
21023
  8
0
 10
6100.5366846029828594
 20
1013.7648642013200515
 30
0.0
 40
0.0795905512070415
 50
270.0000000006252776
 51
297.7199179796464819
  0
LINE
  5
21024
  8
0
 10
6100.6995869000838866
 20
1013.7502342800130464
 30
0.0
 11
6100.6995869234833663
 21
1012.9888169571130447
 31
0.0
  0
LINE
  5
21025
  8
0
 10
6100.573706132821826
 20
1013.69440810030801
 30
0.0
 11
6100.5737061327808988
 21
1013.5104694441939728
 31
0.0
  0
LINE
  5
21026
  8
0
 10
6100.5737061327836273
 20
1013.228581793042963
 30
0.0
 11
6100.5737061327781703
 21
1013.0446431369369975
 31
0.0
  0
LINE
  5
21027
  8
0
 10
6100.6995869000838866
 20
1013.7502342800130464
 30
0.0
 11
6102.9473114155825897
 21
1013.7502342800130464
 31
0.0
  0
LINE
  5
21028
  8
0
 10
6100.6995869234833663
 20
1012.9888169571130447
 30
0.0
 11
6102.9473114155825897
 21
1012.9888169571130447
 31
0.0
  0
ENDSEC
  0
EOF
