  0
SECTION
  2
HEADER
  9
$ACADVER
  1
AC1009
  9
$INSBASE
 10
4650.3502688876742468
 20
319.1166330478733926
 30
0.0
  9
$EXTMIN
 10
4643.0023798349084245
 20
318.1953075117626213
 30
-0.0015258207003583
  9
$EXTMAX
 10
4657.5699382451803103
 20
320.0223697921591111
 30
0.0000000349246037
  9
$LIMMIN
 10
0.0
 20
0.0
  9
$LIMMAX
 10
11.6929133858000007
 20
8.2677165353999982
  9
$ORTHOMODE
 70
     1
  9
$REGENMODE
 70
     1
  9
$FILLMODE
 70
     1
  9
$QTEXTMODE
 70
     0
  9
$MIRRTEXT
 70
     0
  9
$DRAGMODE
 70
     2
  9
$LTSCALE
 40
0.6431102362
  9
$OSMODE
 70
     7
  9
$ATTMODE
 70
     1
  9
$TEXTSIZE
 40
0.2
  9
$TRACEWID
 40
0.05
  9
$TEXTSTYLE
  7
STANDARD
  9
$CLAYER
  8
0
  9
$CELTYPE
  6
BYLAYER
  9
$CECOLOR
 62
   256
  9
$DIMSCALE
 40
1.0
  9
$DIMASZ
 40
0.1875
  9
$DIMEXO
 40
0.0625
  9
$DIMDLI
 40
0.4443307087
  9
$DIMRND
 40
0.0
  9
$DIMDLE
 40
0.0
  9
$DIMEXE
 40
0.125
  9
$DIMTP
 40
0.01
  9
$DIMTM
 40
0.01
  9
$DIMTXT
 40
2.0
  9
$DIMCEN
 40
0.1052362205
  9
$DIMTSZ
 40
0.0
  9
$DIMTOL
 70
     1
  9
$DIMLIM
 70
     0
  9
$DIMTIH
 70
     1
  9
$DIMTOH
 70
     1
  9
$DIMSE1
 70
     0
  9
$DIMSE2
 70
     0
  9
$DIMTAD
 70
     0
  9
$DIMZIN
 70
     0
  9
$DIMBLK
  1

  9
$DIMASO
 70
     1
  9
$DIMSHO
 70
     1
  9
$DIMPOST
  1
\X
  9
$DIMAPOST
  1

  9
$DIMALT
 70
     1
  9
$DIMALTD
 70
     2
  9
$DIMALTF
 40
25.3999999999999986
  9
$DIMLFAC
 40
1.0
  9
$DIMTOFL
 70
     0
  9
$DIMTVP
 40
0.0
  9
$DIMTIX
 70
     0
  9
$DIMSOXD
 70
     0
  9
$DIMSAH
 70
     0
  9
$DIMBLK1
  1

  9
$DIMBLK2
  1

  9
$DIMSTYLE
  2
STANDARD
  9
$DIMCLRD
 70
     0
  9
$DIMCLRE
 70
     0
  9
$DIMCLRT
 70
     0
  9
$DIMTFAC
 40
1.0
  9
$DIMGAP
 40
0.09
  9
$LUNITS
 70
     2
  9
$LUPREC
 70
     4
  9
$SKETCHINC
 40
0.1
  9
$FILLETRAD
 40
0.0
  9
$AUNITS
 70
     0
  9
$AUPREC
 70
     0
  9
$MENU
  1
.
  9
$ELEVATION
 40
0.0
  9
$PELEVATION
 40
0.0
  9
$THICKNESS
 40
0.0
  9
$LIMCHECK
 70
     0
  9
$BLIPMODE
 70
     0
  9
$CHAMFERA
 40
0.0
  9
$CHAMFERB
 40
0.0
  9
$SKPOLY
 70
     0
  9
$TDCREATE
 40
2458060.468368056230247
  9
$TDUPDATE
 40
2459579.6350231477990746
  9
$TDINDWG
 40
0.6888728009
  9
$TDUSRTIMER
 40
0.6888728009
  9
$USRTIMER
 70
     1
  9
$ANGBASE
 50
0.0
  9
$ANGDIR
 70
     0
  9
$PDMODE
 70
     0
  9
$PDSIZE
 40
0.3125
  9
$PLINEWID
 40
0.0
  9
$COORDS
 70
     1
  9
$SPLFRAME
 70
     0
  9
$SPLINETYPE
 70
     6
  9
$SPLINESEGS
 70
     8
  9
$ATTDIA
 70
     1
  9
$ATTREQ
 70
     1
  9
$HANDLING
 70
     1
  9
$HANDSEED
  5
23047
  9
$SURFTAB1
 70
     6
  9
$SURFTAB2
 70
     6
  9
$SURFTYPE
 70
     6
  9
$SURFU
 70
     6
  9
$SURFV
 70
     6
  9
$UCSNAME
  2

  9
$UCSORG
 10
0.0
 20
0.0
 30
0.0
  9
$UCSXDIR
 10
1.0
 20
0.0
 30
0.0
  9
$UCSYDIR
 10
0.0
 20
1.0
 30
0.0
  9
$PUCSNAME
  2

  9
$PUCSORG
 10
0.0
 20
0.0
 30
0.0
  9
$PUCSXDIR
 10
1.0
 20
0.0
 30
0.0
  9
$PUCSYDIR
 10
0.0
 20
1.0
 30
0.0
  9
$USERI1
 70
     0
  9
$USERI2
 70
     0
  9
$USERI3
 70
     0
  9
$USERI4
 70
     0
  9
$USERI5
 70
     0
  9
$USERR1
 40
0.0
  9
$USERR2
 40
0.0
  9
$USERR3
 40
0.0
  9
$USERR4
 40
0.0
  9
$USERR5
 40
0.0
  9
$WORLDVIEW
 70
     1
  9
$SHADEDGE
 70
     3
  9
$SHADEDIF
 70
    70
  9
$TILEMODE
 70
     1
  9
$MAXACTVP
 70
    64
  9
$PLIMCHECK
 70
     0
  9
$PEXTMIN
 10
1.0000000000000000E+20
 20
1.0000000000000000E+20
 30
1.0000000000000000E+20
  9
$PEXTMAX
 10
-1.0000000000000000E+20
 20
-1.0000000000000000E+20
 30
-1.0000000000000000E+20
  9
$PLIMMIN
 10
0.0
 20
0.0
  9
$PLIMMAX
 10
12.0
 20
9.0
  9
$UNITMODE
 70
     0
  9
$VISRETAIN
 70
     1
  9
$PLINEGEN
 70
     0
  9
$PSLTSCALE
 70
     1
  0
ENDSEC
  0
SECTION
  2
TABLES
  0
TABLE
  2
VPORT
 70
     1
  0
VPORT
  2
*ACTIVE
 70
     0
 10
0.0
 20
0.0
 11
1.0
 21
1.0
 12
738.9208025947317537
 22
186.5292335494218037
 13
0.0
 23
0.0
 14
1.0
 24
1.0
 15
0.0
 25
0.0
 16
0.0
 26
0.0
 36
60.4960186965801583
 17
3911.3653564453120453
 27
132.5796051025390057
 37
0.0
 40
6.4004622847610424
 41
2.2831541218637992
 42
50.0
 43
0.0
 44
0.0
 50
0.0
 51
0.0
 71
     0
 72
   100
 73
     1
 74
     1
 75
     0
 76
     0
 77
     0
 78
     0
  0
ENDTAB
  0
TABLE
  2
LTYPE
 70
     2
  0
LTYPE
  2
CONTINUOUS
 70
     0
  3
Solid line
 72
    65
 73
     0
 40
0.0
  0
LTYPE
  2
PHANTOM2
 70
     0
  3
___ _ _ ___ _ _ ___ _ _ ___ _ _
 72
    65
 73
     6
 40
1.25
 49
0.625
 49
-0.125
 49
0.125
 49
-0.125
 49
0.125
 49
-0.125
  0
ENDTAB
  0
TABLE
  2
LAYER
 70
     2
  0
LAYER
  2
0
 70
     0
 62
   255
  6
CONTINUOUS
  0
LAYER
  2
DEFPOINTS
 70
     0
 62
     7
  6
CONTINUOUS
  0
ENDTAB
  0
TABLE
  2
STYLE
 70
     1
  0
STYLE
  2
STANDARD
 70
     0
 40
0.0
 41
0.8
 50
0.0
 71
     0
 42
0.2
  3
txt
  4

  0
ENDTAB
  0
TABLE
  2
VIEW
 70
     0
  0
ENDTAB
  0
TABLE
  2
UCS
 70
     0
  0
ENDTAB
  0
TABLE
  2
APPID
 70
    11
  0
APPID
  2
ACAD
 70
     0
  0
APPID
  2
ACAD_MLEADERVER
 70
     0
  0
APPID
  2
ACAD_EXEMPT_FROM_CAD_STANDARDS
 70
     0
  0
APPID
  2
ACAD_NAV_VCDISPLAY
 70
     0
  0
APPID
  2
ACAECLAYERSTANDARD
 70
     0
  0
APPID
  2
ACCMTRANSPARENCY
 70
     0
  0
APPID
  2
ACAD_DSTYLE_DIMJAG
 70
     0
  0
APPID
  2
ACAD_DSTYLE_DIMTALN
 70
     0
  0
APPID
  2
ACDBATTR
 70
     0
  0
APPID
  2
ACADANNOTATIVE
 70
     0
  0
APPID
  2
DCO15
 70
     0
  0
ENDTAB
  0
TABLE
  2
DIMSTYLE
 70
     1
  0
DIMSTYLE
  2
STANDARD
 70
     0
  3

  4

  5

  6

  7

 40
1.0
 41
0.1875
 42
0.0625
 43
0.38
 44
0.125
 45
0.0
 46
0.0
 47
0.01
 48
0.01
140
0.15625
141
0.09
142
0.0
143
25.3999999999999986
144
1.0
145
0.0
146
1.0
147
0.09
 71
     1
 72
     0
 73
     1
 74
     1
 75
     0
 76
     0
 77
     0
 78
     4
170
     0
171
     2
172
     0
173
     0
174
     0
175
     0
176
     0
177
     0
178
     0
  0
ENDTAB
  0
ENDSEC
  0
SECTION
  2
BLOCKS
  0
BLOCK
  8
0
  2
$MODEL_SPACE
 70
     0
 10
0.0
 20
0.0
 30
0.0
  3
$MODEL_SPACE
  1

  0
ENDBLK
  5
21
  8
0
  0
BLOCK
 67
     1
  8
0
  2
$PAPER_SPACE
 70
     0
 10
0.0
 20
0.0
 30
0.0
  3
$PAPER_SPACE
  1

  0
ENDBLK
  5
1D
 67
     1
  8
0
  0
ENDSEC
  0
SECTION
  2
ENTITIES
  0
ATTDEF
  5
211C4
  8
DEFPOINTS
 10
4650.3502910977740612
 20
319.1200038535229737
 30
0.0
 40
0.001
  1
P34702-00
  3

  2
MODELNUMBER
 70
     0
1001
ACDBATTR
1070
     0
1070
     1
  0
ATTDEF
  5
211C5
  8
DEFPOINTS
 10
4650.3502910977740612
 20
319.1183370131437869
 30
0.0
 40
0.001
  1
PER SE
  3

  2
TRADENAME
 70
     0
1001
ACDBATTR
1070
     0
1070
     1
  0
ATTDEF
  5
211C6
  8
DEFPOINTS
 10
4650.3502910977740612
 20
319.1166705201897003
 30
0.0
 40
0.001
  1
TOWEL BAR
  3

  2
PRODUCT
 70
     0
1001
ACDBATTR
1070
     0
1070
     1
  0
LINE
  5
22F01
  8
0
 10
4645.5228688877741661
 20
319.5156330478733935
 30
0.0
 11
4655.177668887573418
 21
319.5156330478733935
 31
0.0
  0
LINE
  5
22F02
  8
0
 10
4645.5228688877741661
 20
318.7176330478733917
 30
0.0
 11
4655.177668887573418
 21
318.7176330478733917
 31
0.0
  0
LINE
  5
22F03
  8
0
 10
4645.5128688877739478
 20
319.5056330478734026
 30
0.0
 11
4645.5128688877739478
 21
318.7276330478733826
 31
0.0
  0
LINE
  5
22F04
  8
0
 10
4645.4716934364241752
 20
319.5067072214408768
 30
0.0
 11
4645.4716934364241752
 21
318.7265588743059084
 31
0.0
  0
ARC
  5
22F05
  8
0
 10
4645.4577982659138797
 20
319.5008479176943865
 30
0.0
 40
0.0150800266542678
 50
22.7948370887610814
 51
88.658117563607334
  0
ARC
  5
22F06
  8
0
 10
4645.4763024842122832
 20
319.5086252607176789
 30
0.0
 40
0.0049922135550118
 50
202.5944675021050898
 51
269.9694282011097926
  0
LINE
  5
22F07
  8
0
 10
4645.4762998204705582
 20
319.503633047873393
 30
0.0
 11
4645.50286888777282
 21
319.503633047873393
 31
0.0
  0
ARC
  5
22F08
  8
0
 10
4645.50286888777282
 20
319.4936330478734021
 30
0.0
 40
0.0099999999999971
 50
0.0
 51
90.0
  0
ARC
  5
22F09
  8
0
 10
4645.5228688877741661
 20
319.5056330478734026
 30
0.0
 40
0.0100000000000016
 50
90.0
 51
179.9999999999934914
  0
ARC
  5
22F0A
  8
0
 10
4644.3507888877729783
 20
310.8841606785857152
 30
0.0
 40
9.135969825787706
 50
93.2717410585478319
 51
95.2842812471025553
  0
ARC
  5
22F0B
  8
0
 10
4643.5434652245476173
 20
319.6128807817113966
 30
0.0
 40
0.3699943446496517
 50
95.2842812471025553
 51
173.032564706262292
  0
ARC
  5
22F0C
  8
0
 10
4644.3507888877729783
 20
327.3491054171611268
 30
0.0
 40
9.135969825787706
 50
264.7157187528973736
 51
266.7282589414522249
  0
ARC
  5
22F0D
  8
0
 10
4643.5434652245476173
 20
318.6203853140355022
 30
0.0
 40
0.3699943446496517
 50
186.967435293737708
 51
264.7157187528973736
  0
ARC
  5
22F0E
  8
0
 10
4647.6042066209856785
 20
319.1166330478733926
 30
0.0
 40
4.4609456401412624
 50
173.0326413942676993
 51
186.9673586057323007
  0
ARC
  5
22F0F
  8
0
 10
4643.6103461624434203
 20
319.5681927037738888
 30
0.0
 40
0.3234809343563868
 50
93.4520996607352288
 51
175.3305934930918113
  0
ARC
  5
22F10
  8
0
 10
4643.6103461624434203
 20
318.6650733919728964
 30
0.0
 40
0.3234809343563868
 50
184.6694065069081887
 51
266.547900339264686
  0
ARC
  5
22F11
  8
0
 10
4649.0296497794633979
 20
319.1166330478733926
 30
0.0
 40
5.7615645466026457
 50
175.2421344937185097
 51
184.7578655062814903
  0
ARC
  5
22F12
  8
0
 10
4644.045657271836717
 20
319.370288378525288
 30
0.0
 40
0.1653722028954362
 50
99.8631650784883931
 51
174.0102396117329988
  0
ARC
  5
22F13
  8
0
 10
4644.045657271836717
 20
318.8629777172214972
 30
0.0
 40
0.1653722028954362
 50
185.9897603882670012
 51
260.1368349215115927
  0
ARC
  5
22F14
  8
0
 10
4646.5020206313020026
 20
319.1166330478733926
 30
0.0
 40
2.6347974294580498
 50
174.0983706885103004
 51
185.9016293114896996
  0
ARC
  5
22F15
  8
0
 10
4644.6559205036119238
 20
319.370288378525288
 30
0.0
 40
0.1653722028954362
 50
70.083106337992561
 51
80.1368349215116069
  0
ARC
  5
22F16
  8
0
 10
4644.6559205036119238
 20
318.8629777172214972
 30
0.0
 40
0.1653722028954362
 50
279.8631650784884073
 51
289.9168936620075101
  0
ARC
  5
22F17
  8
0
 10
4644.3507888877238656
 20
317.3998211467314832
 30
0.0
 40
2.159298496532986
 50
81.1162951745554039
 51
98.8837048254446103
  0
ARC
  5
22F18
  8
0
 10
4641.6529947634980999
 20
59.4960815108034566
 30
0.0
 40
260.0476833309226095
 50
89.1615876197827077
 51
89.3259436914122489
  0
ARC
  5
22F19
  8
0
 10
4644.3507888877238656
 20
320.833444949015302
 30
0.0
 40
2.159298496532986
 50
261.1162951745553755
 51
278.8837048254446245
  0
ARC
  5
22F1A
  8
0
 10
4645.4577982659138797
 20
318.7324181780522849
 30
0.0
 40
0.0150800266542678
 50
271.3418824363927229
 51
337.1358612405563235
  0
ARC
  5
22F1B
  8
0
 10
4645.4763024842122832
 20
318.7246408350289926
 30
0.0
 40
0.0049922135550118
 50
90.0305717988902217
 51
157.4055324978947965
  0
LINE
  5
22F1C
  8
0
 10
4645.4762998204705582
 20
318.7296330478733921
 30
0.0
 11
4645.50286888777282
 21
318.7296330478733921
 31
0.0
  0
ARC
  5
22F1D
  8
0
 10
4645.50286888777282
 20
318.739633047873383
 30
0.0
 40
0.0099999999999971
 50
270.0
 51
0.0
  0
ARC
  5
22F1E
  8
0
 10
4645.5228688877741661
 20
318.7276330478733826
 30
0.0
 40
0.0100000000000016
 50
180.0000000000065086
 51
270.0
  0
ARC
  5
22F1F
  8
0
 10
4641.6529947634980999
 20
578.7371845849434067
 30
0.0
 40
260.0476833309226095
 50
270.6740563085876943
 51
270.838412380217278
  0
ARC
  5
22F20
  8
0
 10
4644.3507888876738434
 20
310.8841606785857152
 30
0.0
 40
9.135969825787706
 50
84.7157187528974447
 51
86.7282589414521681
  0
ARC
  5
22F21
  8
0
 10
4645.158112550900114
 20
319.6128807817113966
 30
0.0
 40
0.3699943446496517
 50
6.967435293737684
 51
84.7157187528974447
  0
ARC
  5
22F22
  8
0
 10
4644.3507888876738434
 20
327.3491054171611268
 30
0.0
 40
9.135969825787706
 50
273.2717410585478888
 51
275.2842812471026264
  0
ARC
  5
22F23
  8
0
 10
4645.158112550900114
 20
318.6203853140355022
 30
0.0
 40
0.3699943446496517
 50
275.2842812471026264
 51
353.032564706262292
  0
ARC
  5
22F24
  8
0
 10
4641.0973711544611433
 20
319.1166330478733926
 30
0.0
 40
4.4609456401412624
 50
353.0326413942677277
 51
354.8684405454292232
  0
ARC
  5
22F25
  8
0
 10
4641.0973711544611433
 20
319.1166330478733926
 30
0.0
 40
4.4609456401412624
 50
5.1315594545708691
 51
6.9673586057322758
  0
ARC
  5
22F26
  8
0
 10
4645.0912316130052204
 20
319.5681927037738888
 30
0.0
 40
0.3234809343563868
 50
4.669406506908226
 51
86.5479003392647712
  0
ARC
  5
22F27
  8
0
 10
4645.0912316130052204
 20
318.6650733919728964
 30
0.0
 40
0.3234809343563868
 50
273.4520996607352004
 51
355.3305934930917829
  0
ARC
  5
22F28
  8
0
 10
4639.6719279959843334
 20
319.1166330478733926
 30
0.0
 40
5.7615645466026457
 50
355.2421344937184244
 51
356.0204792994513809
  0
ARC
  5
22F29
  8
0
 10
4639.6719279959843334
 20
319.1166330478733926
 30
0.0
 40
5.7615645466026457
 50
3.9795207005453781
 51
4.7578655062815276
  0
ARC
  5
22F2A
  8
0
 10
4644.3507888877238656
 20
330.3923935739210265
 30
0.0
 40
12.0741517659590407
 50
266.3915434129455093
 51
273.6084565870544907
  0
ARC
  5
22F2B
  8
0
 10
4644.3507888877238656
 20
327.3489949814539841
 30
0.0
 40
9.1358595700805552
 50
266.7282194139124272
 51
273.271780586087516
  0
ARC
  5
22F2C
  8
0
 10
4644.3507888877238656
 20
310.8842711142933126
 30
0.0
 40
9.1358595700800702
 50
86.728219413912484
 51
93.2717805860875302
  0
ARC
  5
22F2D
  8
0
 10
4644.3507888877238656
 20
307.840872649519099
 30
0.0
 40
12.0741516385188703
 50
86.3915433748293822
 51
93.6084566251706178
  0
ARC
  5
22F2E
  8
0
 10
4643.7482844196129008
 20
317.5941300847482012
 30
0.0
 40
0.6498818364580786
 50
80.676661311451312
 51
91.5010513120344342
  0
ARC
  5
22F2F
  8
0
 10
4643.9202280614799747
 20
320.3092546212329808
 30
0.0
 40
2.082475048441863
 50
264.6964645817805035
 51
267.716951403373514
  0
ARC
  5
22F30
  8
0
 10
4643.8512932044714034
 20
318.5801693217803177
 30
0.0
 40
0.3520161534390734
 50
267.716951403373514
 51
271.8955174250078812
  0
ARC
  5
22F31
  8
0
 10
4643.8622233965415944
 20
318.2499030975661185
 30
0.0
 40
0.021569110850666
 50
271.8955174250078812
 51
293.3967060410158751
  0
ARC
  5
22F32
  8
0
 10
4643.8329342279648699
 20
318.1164446672596
 30
0.0
 40
0.1207582582585487
 50
74.0062963260850637
 51
80.161184773627113
  0
ARC
  5
22F33
  8
0
 10
4643.8627338800006328
 20
318.2204115229355921
 30
0.0
 40
0.0126050043055106
 50
50.2832535216520284
 51
74.0062963260850637
  0
ARC
  5
22F34
  8
0
 10
4643.734274904087215
 20
318.1225891594204995
 30
0.0
 40
0.1212372297537223
 50
91.4246950697531986
 51
100.5345082205636942
  0
ARC
  5
22F35
  8
0
 10
4643.7132190962483946
 20
318.2358155076776143
 30
0.0
 40
0.0060697300700706
 50
100.5345082205636942
 51
131.8218249710737098
  0
ARC
  5
22F36
  8
0
 10
4643.7127252950203911
 20
318.2422335292517914
 30
0.0
 40
0.004027159597649
 50
208.0658914867202895
 51
261.2071220960178266
  0
ARC
  5
22F37
  8
0
 10
4643.7420368132488875
 20
318.3720349593407946
 30
0.0
 40
0.1370877754097448
 50
257.3904280357966741
 51
264.0140490127583917
  0
ARC
  5
22F38
  8
0
 10
4644.9532933558348304
 20
317.5941300847482012
 30
0.0
 40
0.6498818364580786
 50
88.4989486879655942
 51
99.3233386885486738
  0
ARC
  5
22F39
  8
0
 10
4644.7813497139677565
 20
320.3092546212329808
 30
0.0
 40
2.082475048441863
 50
272.283048596626486
 51
275.3035354182194965
  0
ARC
  5
22F3A
  8
0
 10
4644.8502845709772373
 20
318.5801693217803177
 30
0.0
 40
0.3520161534390734
 50
268.1044825749921188
 51
272.283048596626486
  0
ARC
  5
22F3B
  8
0
 10
4644.8393543789052273
 20
318.2499030975661185
 30
0.0
 40
0.021569110850666
 50
246.6032939589840964
 51
268.1044825749921188
  0
ARC
  5
22F3C
  8
0
 10
4644.8686435474819518
 20
318.1164446672596
 30
0.0
 40
0.1207582582585487
 50
99.8388152263729012
 51
105.9937036739148937
  0
ARC
  5
22F3D
  8
0
 10
4644.8388438954452795
 20
318.2204115229355921
 30
0.0
 40
0.0126050043055106
 50
105.9937036739148937
 51
129.7167464783478863
  0
ARC
  5
22F3E
  8
0
 10
4644.9673028713614258
 20
318.1225891594204995
 30
0.0
 40
0.1212372297537223
 50
79.46549177943632
 51
88.5753049302467872
  0
ARC
  5
22F3F
  8
0
 10
4644.9883586792002461
 20
318.2358155076776143
 30
0.0
 40
0.0060697300700706
 50
48.1781750289262618
 51
79.46549177943632
  0
ARC
  5
22F40
  8
0
 10
4644.9888524804291592
 20
318.2422335292517914
 30
0.0
 40
0.004027159597649
 50
278.7928779039821734
 51
331.934108513279682
  0
ARC
  5
22F41
  8
0
 10
4644.9595409621988438
 20
318.3720349593407946
 30
0.0
 40
0.1370877754097448
 50
275.985950987241722
 51
282.6095719642033259
  0
LINE
  5
22F43
  8
0
 10
4655.1876688875736363
 20
319.5056330478734026
 30
0.0
 11
4655.1876688875736363
 21
318.7276330478733826
 31
0.0
  0
LINE
  5
22F44
  8
0
 10
4655.2288443389243184
 20
319.5067072214408768
 30
0.0
 11
4655.2288443389243184
 21
318.7265588743059084
 31
0.0
  0
ARC
  5
22F45
  8
0
 10
4655.2427395094337044
 20
319.5008479176943865
 30
0.0
 40
0.0150800266542678
 50
91.341882436392666
 51
157.2051629112388866
  0
ARC
  5
22F46
  8
0
 10
4655.2242352911362104
 20
319.5086252607176789
 30
0.0
 40
0.0049922135550118
 50
270.0305717988902074
 51
337.4055324978949102
  0
LINE
  5
22F47
  8
0
 10
4655.2242379548761164
 20
319.503633047873393
 30
0.0
 11
4655.1976688875738546
 21
319.503633047873393
 31
0.0
  0
ARC
  5
22F48
  8
0
 10
4655.1976688875738546
 20
319.4936330478734021
 30
0.0
 40
0.0099999999999971
 50
90.0
 51
180.0
  0
ARC
  5
22F49
  8
0
 10
4655.177668887573418
 20
319.5056330478734026
 30
0.0
 40
0.0100000000000016
 50
0.0000000000065138
 51
90.0
  0
ARC
  5
22F4A
  8
0
 10
4656.3497488875746058
 20
310.8841606785857152
 30
0.0
 40
9.135969825787706
 50
84.7157187528974447
 51
86.7282589414521681
  0
ARC
  5
22F4B
  8
0
 10
4657.1570725507999668
 20
319.6128807817113966
 30
0.0
 40
0.3699943446496517
 50
6.967435293737684
 51
84.7157187528974447
  0
ARC
  5
22F4C
  8
0
 10
4656.3497488875746058
 20
327.3491054171611268
 30
0.0
 40
9.135969825787706
 50
273.2717410585478888
 51
275.2842812471026264
  0
ARC
  5
22F4D
  8
0
 10
4657.1570725507999668
 20
318.6203853140355022
 30
0.0
 40
0.3699943446496517
 50
275.2842812471026264
 51
353.032564706262292
  0
ARC
  5
22F4E
  8
0
 10
4653.0963311543619056
 20
319.1166330478733926
 30
0.0
 40
4.4609456401412624
 50
353.0326413942677277
 51
6.9673586057322758
  0
ARC
  5
22F4F
  8
0
 10
4657.0901916129050733
 20
319.5681927037738888
 30
0.0
 40
0.3234809343563868
 50
4.669406506908226
 51
86.5479003392647712
  0
ARC
  5
22F50
  8
0
 10
4657.0901916129050733
 20
318.6650733919728964
 30
0.0
 40
0.3234809343563868
 50
273.4520996607352004
 51
355.3305934930917829
  0
ARC
  5
22F51
  8
0
 10
4651.6708879958850957
 20
319.1166330478733926
 30
0.0
 40
5.7615645466026457
 50
355.2421344937184244
 51
4.7578655062815276
  0
ARC
  5
22F52
  8
0
 10
4656.6548805035117766
 20
319.370288378525288
 30
0.0
 40
0.1653722028954362
 50
5.9897603882669994
 51
80.1368349215116069
  0
ARC
  5
22F53
  8
0
 10
4656.6548805035117766
 20
318.8629777172214972
 30
0.0
 40
0.1653722028954362
 50
279.8631650784884073
 51
354.0102396117330272
  0
ARC
  5
22F54
  8
0
 10
4654.1985171440437625
 20
319.1166330478733926
 30
0.0
 40
2.6347974294580498
 50
354.098370688510272
 51
5.9016293114897369
  0
ARC
  5
22F55
  8
0
 10
4656.0446172717365698
 20
319.370288378525288
 30
0.0
 40
0.1653722028954362
 50
99.8631650784883931
 51
109.9168936620073964
  0
ARC
  5
22F56
  8
0
 10
4656.0446172717365698
 20
318.8629777172214972
 30
0.0
 40
0.1653722028954362
 50
250.0831063379926036
 51
260.1368349215115927
  0
ARC
  5
22F57
  8
0
 10
4656.349748887622809
 20
317.3998211467314832
 30
0.0
 40
2.159298496532986
 50
81.1162951745554039
 51
98.8837048254446103
  0
ARC
  5
22F58
  8
0
 10
4659.0475430118503937
 20
59.4960815108034566
 30
0.0
 40
260.0476833309226095
 50
90.6740563085877369
 51
90.8384123802172923
  0
ARC
  5
22F59
  8
0
 10
4656.349748887622809
 20
320.833444949015302
 30
0.0
 40
2.159298496532986
 50
261.1162951745553755
 51
278.8837048254446245
  0
ARC
  5
22F5A
  8
0
 10
4655.2427395094337044
 20
318.7324181780522849
 30
0.0
 40
0.0150800266542678
 50
202.8641387594437049
 51
268.6581175636073908
  0
ARC
  5
22F5B
  8
0
 10
4655.2242352911362104
 20
318.7246408350289926
 30
0.0
 40
0.0049922135550118
 50
22.5944675021051289
 51
89.9694282011097783
  0
LINE
  5
22F5C
  8
0
 10
4655.2242379548761164
 20
318.7296330478733921
 30
0.0
 11
4655.1976688875738546
 21
318.7296330478733921
 31
0.0
  0
ARC
  5
22F5D
  8
0
 10
4655.1976688875738546
 20
318.739633047873383
 30
0.0
 40
0.0099999999999971
 50
180.0
 51
270.0
  0
ARC
  5
22F5E
  8
0
 10
4655.177668887573418
 20
318.7276330478733826
 30
0.0
 40
0.0100000000000016
 50
270.0
 51
359.9999999999935199
  0
ARC
  5
22F5F
  8
0
 10
4659.0475430118503937
 20
578.7371845849434067
 30
0.0
 40
260.0476833309226095
 50
269.161587619782722
 51
269.325943691412192
  0
ARC
  5
22F60
  8
0
 10
4656.3497488876728312
 20
310.8841606785857152
 30
0.0
 40
9.135969825787706
 50
93.2717410585478319
 51
95.2842812471025553
  0
ARC
  5
22F61
  8
0
 10
4655.5424252244492891
 20
319.6128807817113966
 30
0.0
 40
0.3699943446496517
 50
95.2842812471025553
 51
173.032564706262292
  0
ARC
  5
22F62
  8
0
 10
4656.3497488876728312
 20
327.3491054171611268
 30
0.0
 40
9.135969825787706
 50
264.7157187528973736
 51
266.7282589414522249
  0
ARC
  5
22F63
  8
0
 10
4655.5424252244492891
 20
318.6203853140355022
 30
0.0
 40
0.3699943446496517
 50
186.967435293737708
 51
264.7157187528973736
  0
ARC
  5
22F64
  8
0
 10
4659.6031666208864408
 20
319.1166330478733926
 30
0.0
 40
4.4609456401412624
 50
185.1315594545708052
 51
186.9673586057323007
  0
ARC
  5
22F65
  8
0
 10
4659.6031666208864408
 20
319.1166330478733926
 30
0.0
 40
4.4609456401412624
 50
173.0326413942676993
 51
174.8684405454291095
  0
ARC
  5
22F66
  8
0
 10
4655.6093061623432732
 20
319.5681927037738888
 30
0.0
 40
0.3234809343563868
 50
93.4520996607352288
 51
175.3305934930918113
  0
ARC
  5
22F67
  8
0
 10
4655.6093061623432732
 20
318.6650733919728964
 30
0.0
 40
0.3234809343563868
 50
184.6694065069081887
 51
266.547900339264686
  0
ARC
  5
22F68
  8
0
 10
4661.0286097793632507
 20
319.1166330478733926
 30
0.0
 40
5.7615645466026457
 50
183.9795207005485906
 51
184.7578655062814903
  0
ARC
  5
22F69
  8
0
 10
4661.0286097793632507
 20
319.1166330478733926
 30
0.0
 40
5.7615645466026457
 50
175.2421344937185097
 51
176.0204792994514094
  0
ARC
  5
22F6A
  8
0
 10
4656.349748887622809
 20
330.3923935739210265
 30
0.0
 40
12.0741517659590407
 50
266.3915434129455093
 51
273.6084565870544907
  0
ARC
  5
22F6B
  8
0
 10
4656.349748887622809
 20
327.3489949814534157
 30
0.0
 40
9.1358595700799992
 50
266.7282194139124272
 51
273.271780586087516
  0
ARC
  5
22F6C
  8
0
 10
4656.349748887622809
 20
310.8842711142934263
 30
0.0
 40
9.1358595700800631
 50
86.728219413912484
 51
93.2717805860875302
  0
ARC
  5
22F6D
  8
0
 10
4656.349748887622809
 20
307.840872649519099
 30
0.0
 40
12.0741516385188703
 50
86.3915433748293822
 51
93.6084566251706178
  0
ARC
  5
22F6E
  8
0
 10
4656.9522533557346833
 20
317.5941300847482012
 30
0.0
 40
0.6498818364580786
 50
88.4989486879655942
 51
99.3233386885486738
  0
ARC
  5
22F6F
  8
0
 10
4656.7803097138676094
 20
320.3092546212329808
 30
0.0
 40
2.082475048441863
 50
272.283048596626486
 51
275.3035354182194965
  0
ARC
  5
22F70
  8
0
 10
4656.8492445708770902
 20
318.5801693217803177
 30
0.0
 40
0.3520161534390734
 50
268.1044825749921188
 51
272.283048596626486
  0
ARC
  5
22F71
  8
0
 10
4656.8383143788050802
 20
318.2499030975661185
 30
0.0
 40
0.021569110850666
 50
246.6032939589840964
 51
268.1044825749921188
  0
ARC
  5
22F72
  8
0
 10
4656.8676035473818047
 20
318.1164446672596
 30
0.0
 40
0.1207582582585487
 50
99.8388152263729012
 51
105.9937036739148937
  0
ARC
  5
22F73
  8
0
 10
4656.8378038953460418
 20
318.2204115229355921
 30
0.0
 40
0.0126050043055106
 50
105.9937036739148937
 51
129.7167464783478863
  0
ARC
  5
22F74
  8
0
 10
4656.9662628712612786
 20
318.1225891594204995
 30
0.0
 40
0.1212372297537223
 50
79.46549177943632
 51
88.5753049302467872
  0
ARC
  5
22F75
  8
0
 10
4656.9873186790991895
 20
318.2358155076776143
 30
0.0
 40
0.0060697300700706
 50
48.1781750289262618
 51
79.46549177943632
  0
ARC
  5
22F76
  8
0
 10
4656.987812480329012
 20
318.2422335292517914
 30
0.0
 40
0.004027159597649
 50
278.7928779039821734
 51
331.934108513279682
  0
ARC
  5
22F77
  8
0
 10
4656.9585009620977871
 20
318.3720349593407946
 30
0.0
 40
0.1370877754097448
 50
275.985950987241722
 51
282.6095719642033259
  0
ARC
  5
22F78
  8
0
 10
4655.7472444195118442
 20
317.5941300847482012
 30
0.0
 40
0.6498818364580786
 50
80.676661311451312
 51
91.5010513120344342
  0
ARC
  5
22F79
  8
0
 10
4655.9191880613798276
 20
320.3092546212329808
 30
0.0
 40
2.082475048441863
 50
264.6964645817805035
 51
267.716951403373514
  0
ARC
  5
22F7A
  8
0
 10
4655.8502532043712563
 20
318.5801693217803177
 30
0.0
 40
0.3520161534390734
 50
267.716951403373514
 51
271.8955174250078812
  0
ARC
  5
22F7B
  8
0
 10
4655.8611833964432662
 20
318.2499030975661185
 30
0.0
 40
0.021569110850666
 50
271.8955174250078812
 51
293.3967060410158751
  0
ARC
  5
22F7C
  8
0
 10
4655.8318942278656323
 20
318.1164446672596
 30
0.0
 40
0.1207582582585487
 50
74.0062963260850637
 51
80.161184773627113
  0
ARC
  5
22F7D
  8
0
 10
4655.8616938799023046
 20
318.2204115229355921
 30
0.0
 40
0.0126050043055106
 50
50.2832535216520284
 51
74.0062963260850637
  0
ARC
  5
22F7E
  8
0
 10
4655.7332349039870678
 20
318.1225891594204995
 30
0.0
 40
0.1212372297537223
 50
91.4246950697531986
 51
100.5345082205636942
  0
ARC
  5
22F7F
  8
0
 10
4655.712179096147338
 20
318.2358155076776143
 30
0.0
 40
0.0060697300700706
 50
100.5345082205636942
 51
131.8218249710737098
  0
ARC
  5
22F80
  8
0
 10
4655.7116852949193344
 20
318.2422335292517914
 30
0.0
 40
0.004027159597649
 50
208.0658914867202895
 51
261.2071220960178266
  0
ARC
  5
22F81
  8
0
 10
4655.7409968131496498
 20
318.3720349593407946
 30
0.0
 40
0.1370877754097448
 50
257.3904280357966741
 51
264.0140490127583917
  0
ENDSEC
  0
EOF
