  0
SECTION
  2
HEADER
  9
$ACADVER
  1
AC1009
  9
$INSBASE
 10
4773.4117770002121688
 20
244.1920816148445113
 30
0.0
  9
$EXTMIN
 10
4765.2185817231138572
 20
242.1670730055924139
 30
-0.0000000349181948
  9
$EXTMAX
 10
4781.6345144597144099
 20
246.2246053483742116
 30
0.0000000814935746
  9
$LIMMIN
 10
0.0
 20
0.0
  9
$LIMMAX
 10
11.6929133858000007
 20
8.2677165353999982
  9
$ORTHOMODE
 70
     1
  9
$REGENMODE
 70
     1
  9
$FILLMODE
 70
     1
  9
$QTEXTMODE
 70
     0
  9
$MIRRTEXT
 70
     0
  9
$DRAGMODE
 70
     2
  9
$LTSCALE
 40
0.6431102362
  9
$OSMODE
 70
  4095
  9
$ATTMODE
 70
     1
  9
$TEXTSIZE
 40
0.2
  9
$TRACEWID
 40
0.05
  9
$TEXTSTYLE
  7
STANDARD
  9
$CLAYER
  8
0
  9
$CELTYPE
  6
BYLAYER
  9
$CECOLOR
 62
   256
  9
$DIMSCALE
 40
1.0
  9
$DIMASZ
 40
0.1875
  9
$DIMEXO
 40
0.0625
  9
$DIMDLI
 40
0.4443307087
  9
$DIMRND
 40
0.0
  9
$DIMDLE
 40
0.0
  9
$DIMEXE
 40
0.125
  9
$DIMTP
 40
0.01
  9
$DIMTM
 40
0.01
  9
$DIMTXT
 40
2.0
  9
$DIMCEN
 40
0.1052362205
  9
$DIMTSZ
 40
0.0
  9
$DIMTOL
 70
     1
  9
$DIMLIM
 70
     0
  9
$DIMTIH
 70
     1
  9
$DIMTOH
 70
     1
  9
$DIMSE1
 70
     0
  9
$DIMSE2
 70
     0
  9
$DIMTAD
 70
     0
  9
$DIMZIN
 70
     0
  9
$DIMBLK
  1

  9
$DIMASO
 70
     1
  9
$DIMSHO
 70
     1
  9
$DIMPOST
  1
\X
  9
$DIMAPOST
  1

  9
$DIMALT
 70
     1
  9
$DIMALTD
 70
     2
  9
$DIMALTF
 40
25.3999999999999986
  9
$DIMLFAC
 40
1.0
  9
$DIMTOFL
 70
     0
  9
$DIMTVP
 40
0.0
  9
$DIMTIX
 70
     0
  9
$DIMSOXD
 70
     0
  9
$DIMSAH
 70
     0
  9
$DIMBLK1
  1

  9
$DIMBLK2
  1

  9
$DIMSTYLE
  2
STANDARD
  9
$DIMCLRD
 70
     0
  9
$DIMCLRE
 70
     0
  9
$DIMCLRT
 70
     0
  9
$DIMTFAC
 40
1.0
  9
$DIMGAP
 40
0.09
  9
$LUNITS
 70
     2
  9
$LUPREC
 70
     4
  9
$SKETCHINC
 40
0.1
  9
$FILLETRAD
 40
0.0
  9
$AUNITS
 70
     0
  9
$AUPREC
 70
     0
  9
$MENU
  1
.
  9
$ELEVATION
 40
0.0
  9
$PELEVATION
 40
0.0
  9
$THICKNESS
 40
0.0
  9
$LIMCHECK
 70
     0
  9
$BLIPMODE
 70
     0
  9
$CHAMFERA
 40
0.0
  9
$CHAMFERB
 40
0.0
  9
$SKPOLY
 70
     0
  9
$TDCREATE
 40
2458060.468368056230247
  9
$TDUPDATE
 40
2459865.4964351849630475
  9
$TDINDWG
 40
0.3638728009
  9
$TDUSRTIMER
 40
0.3638728009
  9
$USRTIMER
 70
     1
  9
$ANGBASE
 50
0.0
  9
$ANGDIR
 70
     0
  9
$PDMODE
 70
     0
  9
$PDSIZE
 40
0.3125
  9
$PLINEWID
 40
0.0
  9
$COORDS
 70
     1
  9
$SPLFRAME
 70
     0
  9
$SPLINETYPE
 70
     6
  9
$SPLINESEGS
 70
     8
  9
$ATTDIA
 70
     1
  9
$ATTREQ
 70
     1
  9
$HANDLING
 70
     1
  9
$HANDSEED
  5
CCF1
  9
$SURFTAB1
 70
     6
  9
$SURFTAB2
 70
     6
  9
$SURFTYPE
 70
     6
  9
$SURFU
 70
     6
  9
$SURFV
 70
     6
  9
$UCSNAME
  2

  9
$UCSORG
 10
0.0
 20
0.0
 30
0.0
  9
$UCSXDIR
 10
1.0
 20
0.0
 30
0.0
  9
$UCSYDIR
 10
0.0
 20
1.0
 30
0.0
  9
$PUCSNAME
  2

  9
$PUCSORG
 10
0.0
 20
0.0
 30
0.0
  9
$PUCSXDIR
 10
1.0
 20
0.0
 30
0.0
  9
$PUCSYDIR
 10
0.0
 20
1.0
 30
0.0
  9
$USERI1
 70
     0
  9
$USERI2
 70
     0
  9
$USERI3
 70
     0
  9
$USERI4
 70
     0
  9
$USERI5
 70
     0
  9
$USERR1
 40
0.0
  9
$USERR2
 40
0.0
  9
$USERR3
 40
0.0
  9
$USERR4
 40
0.0
  9
$USERR5
 40
0.0
  9
$WORLDVIEW
 70
     1
  9
$SHADEDGE
 70
     3
  9
$SHADEDIF
 70
    70
  9
$TILEMODE
 70
     1
  9
$MAXACTVP
 70
    64
  9
$PLIMCHECK
 70
     0
  9
$PEXTMIN
 10
1.0000000000000000E+20
 20
1.0000000000000000E+20
 30
1.0000000000000000E+20
  9
$PEXTMAX
 10
-1.0000000000000000E+20
 20
-1.0000000000000000E+20
 30
-1.0000000000000000E+20
  9
$PLIMMIN
 10
0.0
 20
0.0
  9
$PLIMMAX
 10
12.0
 20
9.0
  9
$UNITMODE
 70
     0
  9
$VISRETAIN
 70
     1
  9
$PLINEGEN
 70
     0
  9
$PSLTSCALE
 70
     1
  0
ENDSEC
  0
SECTION
  2
TABLES
  0
TABLE
  2
VPORT
 70
     1
  0
VPORT
  2
*ACTIVE
 70
     0
 10
0.0
 20
0.0
 11
1.0
 21
1.0
 12
0.0146828570395883
 22
0.0037539108700457
 13
0.0
 23
0.0
 14
1.0
 24
1.0
 15
0.0
 25
0.0
 16
0.0
 26
0.0
 36
46.704601305527909
 17
4773.411865234375
 27
244.1920852661133097
 37
0.0
 40
7.8647536616575069
 41
2.095052083333333
 42
50.0
 43
0.0
 44
0.0
 50
0.0
 51
0.0
 71
     0
 72
   100
 73
     1
 74
     1
 75
     0
 76
     0
 77
     0
 78
     0
  0
ENDTAB
  0
TABLE
  2
LTYPE
 70
     2
  0
LTYPE
  2
CONTINUOUS
 70
     0
  3
Solid line
 72
    65
 73
     0
 40
0.0
  0
LTYPE
  2
PHANTOM2
 70
     0
  3
___ _ _ ___ _ _ ___ _ _ ___ _ _
 72
    65
 73
     6
 40
1.25
 49
0.625
 49
-0.125
 49
0.125
 49
-0.125
 49
0.125
 49
-0.125
  0
ENDTAB
  0
TABLE
  2
LAYER
 70
     2
  0
LAYER
  2
0
 70
     0
 62
   255
  6
CONTINUOUS
  0
LAYER
  2
DEFPOINTS
 70
     0
 62
     7
  6
CONTINUOUS
  0
ENDTAB
  0
TABLE
  2
STYLE
 70
     1
  0
STYLE
  2
STANDARD
 70
     0
 40
0.0
 41
0.8
 50
0.0
 71
     0
 42
0.2
  3
txt
  4

  0
ENDTAB
  0
TABLE
  2
VIEW
 70
     0
  0
ENDTAB
  0
TABLE
  2
UCS
 70
     0
  0
ENDTAB
  0
TABLE
  2
APPID
 70
     9
  0
APPID
  2
ACAD
 70
     0
  0
APPID
  2
ACAD_MLEADERVER
 70
     0
  0
APPID
  2
ACAD_EXEMPT_FROM_CAD_STANDARDS
 70
     0
  0
APPID
  2
ACAD_NAV_VCDISPLAY
 70
     0
  0
APPID
  2
ACAECLAYERSTANDARD
 70
     0
  0
APPID
  2
ACCMTRANSPARENCY
 70
     0
  0
APPID
  2
ACAD_DSTYLE_DIMJAG
 70
     0
  0
APPID
  2
ACAD_DSTYLE_DIMTALN
 70
     0
  0
APPID
  2
ACDBATTR
 70
     0
  0
ENDTAB
  0
TABLE
  2
DIMSTYLE
 70
     1
  0
DIMSTYLE
  2
STANDARD
 70
     0
  3

  4

  5

  6

  7

 40
1.0
 41
0.1875
 42
0.0625
 43
0.38
 44
0.125
 45
0.0
 46
0.0
 47
0.01
 48
0.01
140
0.15625
141
0.09
142
0.0
143
25.3999999999999986
144
1.0
145
0.0
146
1.0
147
0.09
 71
     1
 72
     0
 73
     1
 74
     1
 75
     0
 76
     0
 77
     0
 78
     4
170
     0
171
     2
172
     0
173
     0
174
     0
175
     0
176
     0
177
     0
178
     0
  0
ENDTAB
  0
ENDSEC
  0
SECTION
  2
BLOCKS
  0
BLOCK
  8
0
  2
$MODEL_SPACE
 70
     0
 10
0.0
 20
0.0
 30
0.0
  3
$MODEL_SPACE
  1

  0
ENDBLK
  5
21
  8
0
  0
BLOCK
 67
     1
  8
0
  2
$PAPER_SPACE
 70
     0
 10
0.0
 20
0.0
 30
0.0
  3
$PAPER_SPACE
  1

  0
ENDBLK
  5
1D
 67
     1
  8
0
  0
ENDSEC
  0
SECTION
  2
ENTITIES
  0
ATTDEF
  5
3930
  8
DEFPOINTS
 10
4773.4066811126840548
 20
244.190307483432008
 30
0.0
 40
0.001
  1
P34721-00
  3

  2
MODELNUMBER
 70
     0
1001
ACDBATTR
1070
     0
1070
     1
  0
ATTDEF
  5
3931
  8
DEFPOINTS
 10
4773.4066811126840548
 20
244.188640816765286
 30
0.0
 40
0.001
  1
ANTHEM
  3

  2
TRADENAME
 70
     0
1001
ACDBATTR
1070
     0
1070
     1
  0
ATTDEF
  5
3932
  8
DEFPOINTS
 10
4773.4066811126840548
 20
244.1869741500985924
 30
0.0
 40
0.001
  1
VALVE TRIM
  3

  2
PRODUCT
 70
     0
1001
ACDBATTR
1070
     0
1070
     1
  0
LINE
  5
CA71
  8
0
 10
4770.2059531428621995
 20
246.1065668895444958
 30
0.0
 11
4770.2059531428621995
 21
246.1010831833445138
 31
0.0
  0
LINE
  5
CA72
  8
0
 10
4770.2059531428621995
 20
242.283079971344506
 30
0.0
 11
4770.2059531428621995
 21
242.2775963401444983
 31
0.0
  0
LINE
  5
CA73
  8
0
 10
4770.4246874717618994
 20
242.2775963401444983
 30
0.0
 11
4770.4246874717618994
 21
242.283079971344506
 31
0.0
  0
LINE
  5
CA74
  8
0
 10
4770.4246874717618994
 20
246.1010831833445138
 30
0.0
 11
4770.4246874717618994
 21
246.1065668895444958
 31
0.0
  0
LINE
  5
CA75
  8
0
 10
4770.4246874717618994
 20
242.2775963401444983
 30
0.0
 11
4770.2059531428621995
 21
242.2775963401444983
 31
0.0
  0
LINE
  5
CA76
  8
0
 10
4770.2059531428621995
 20
246.1065668895444958
 30
0.0
 11
4770.4246874717618994
 21
246.1065668895444958
 31
0.0
  0
LINE
  5
CA77
  8
0
 10
4765.4808962557617633
 20
246.1015304337445002
 30
0.0
 11
4765.4808962557617633
 21
242.2826327959444939
 31
0.0
  0
LINE
  5
CA78
  8
0
 10
4765.569153642261881
 20
246.1015304337445002
 30
0.0
 11
4765.569153642261881
 21
242.2826327959444939
 31
0.0
  0
LINE
  5
CA79
  8
0
 10
4765.5893894554483268
 20
246.0897194168906879
 30
0.0
 11
4765.5893896045754445
 21
242.2944438994985035
 31
0.0
  0
LINE
  5
CA7A
  8
0
 10
4768.305477787662312
 20
242.9491933454445132
 30
0.0
 11
4768.305477787662312
 21
243.0215250205640984
 31
0.0
  0
LINE
  5
CA7B
  8
0
 10
4768.4531155828608462
 20
245.3573943807444948
 30
0.0
 11
4768.4531155828608462
 21
244.2302015296444893
 31
0.0
  0
LINE
  5
CA7C
  8
0
 10
4770.3290998348620633
 20
246.0932094674444102
 30
0.0
 11
4770.3290998348620633
 21
242.2909538372445866
 31
0.0
  0
LINE
  5
CA7D
  8
0
 10
4770.3374554587608145
 20
242.2905068866444935
 30
0.0
 11
4770.3374554587608145
 21
246.0936564179446009
 31
0.0
  0
LINE
  5
CA7E
  8
0
 10
4771.6013334806630155
 20
244.9102672331445092
 30
0.0
 11
4771.6013334806630155
 21
244.2298158103187973
 31
0.0
  0
LINE
  5
CA7F
  8
0
 10
4771.6027218322624321
 20
244.9182724663444901
 30
0.0
 11
4771.602721882161859
 21
244.2302015296444893
 31
0.0
  0
LINE
  5
CA80
  8
0
 10
4781.2346116458656979
 20
242.1745866971444912
 30
0.0
 11
4774.3724069214622432
 21
242.1745866971444912
 31
0.0
  0
LINE
  5
CA81
  8
0
 10
4773.899965976562271
 20
242.1745866971444912
 30
0.0
 11
4765.5889423545622776
 21
242.1745866971444912
 31
0.0
  0
LINE
  5
CA82
  8
0
 10
4773.899965976562271
 20
242.1773355263445069
 30
0.0
 11
4774.3724069214622432
 21
242.1773355263445069
 31
0.0
  0
LINE
  5
CA83
  8
0
 10
4765.5889423545622776
 20
242.2628440836444952
 30
0.0
 11
4781.23461164586206
 21
242.2628440836444952
 31
0.0
  0
LINE
  5
CA84
  8
0
 10
4768.6042957439358361
 20
242.9298279849444953
 30
0.0
 11
4768.3216296147620596
 21
242.9298279849444953
 31
0.0
  0
LINE
  5
CA85
  8
0
 10
4773.899965976562271
 20
242.1773355263445069
 30
0.0
 11
4773.899965976562271
 21
242.1745866971444912
 31
0.0
  0
LINE
  5
CA86
  8
0
 10
4774.3724069214622432
 20
242.1745866971444912
 30
0.0
 11
4774.3724069214622432
 21
242.1773355263445069
 31
0.0
  0
ARC
  5
CA87
  8
0
 10
4768.4972809718447024
 20
244.0838040455074065
 30
0.0
 40
1.1672678131082701
 50
261.3452112089462958
 51
268.3152309382373915
  0
ARC
  5
CA88
  8
0
 10
4771.6125643717623461
 20
244.1920815843444927
 30
0.0
 40
0.718273457
 50
90.8959107071028427
 51
270.0000024169756898
  0
ARC
  5
CA89
  8
0
 10
4765.5914057457621311
 20
242.2850961871442905
 30
0.0
 40
0.1105369425859355
 50
181.2769812637725977
 51
268.7230187332193054
  0
ARC
  5
CA8A
  8
0
 10
4765.5895158863113465
 20
242.2832063276935912
 30
0.0
 40
0.0203703196190134
 50
181.6133910702091043
 51
268.3866089304058846
  0
ARC
  5
CA8B
  8
0
 10
4768.3261452140786787
 20
242.9500127129402074
 30
0.0
 40
0.0206836621975449
 50
182.2703226497199012
 51
257.3897864563717235
  0
ARC
  5
CA8C
  8
0
 10
4765.6014517187186357
 20
242.2951420759916061
 30
0.0
 40
0.0120823030938492
 50
183.312684824511507
 51
266.6865358579299823
  0
ARC
  5
CA8D
  8
0
 10
4768.46295810256197
 20
244.1920816148445113
 30
0.0
 40
1.1811023622000001
 50
89.9997779726302127
 51
270.0002220273697731
  0
ARC
  5
CA8E
  8
0
 10
4768.46295810256197
 20
244.1920816148445113
 30
0.0
 40
1.1653543306999989
 50
89.9997749722807754
 51
90.4839228102182034
  0
ARC
  5
CA8F
  8
0
 10
4768.46295810256197
 20
244.1920816148445113
 30
0.0
 40
0.0393700787
 50
104.4775121858777993
 51
270.0066608211604944
  0
ARC
  5
CA90
  8
0
 10
4765.5945934422616119
 20
246.0958793460440859
 30
0.0
 40
0.1138375377908765
 50
92.845428774171296
 51
177.1545712229228116
  0
ARC
  5
CA91
  8
0
 10
4765.5895897553446048
 20
246.1008830329616899
 30
0.0
 40
0.0204463650976407
 50
91.8144806298344207
 51
178.1855193707501996
  0
ARC
  5
CA92
  8
0
 10
4765.6014335792042402
 20
246.0890390502351011
 30
0.0
 40
0.0120633252387128
 50
93.232386521523793
 51
176.7668256280977914
  0
ARC
  5
CA93
  8
0
 10
4771.6125644017620289
 20
244.1920816148445113
 30
0.0
 40
0.7440944882
 50
89.9999999769151771
 51
270.0000000230847945
  0
ARC
  5
CA94
  8
0
 10
4771.6125644017620289
 20
244.1920816148445113
 30
0.0
 40
0.7262574118999999
 50
89.9999999763419538
 51
270.0000000236581172
  0
ARC
  5
CA95
  8
0
 10
4771.6125644017620289
 20
244.1920816148445113
 30
0.0
 40
0.0393700787
 50
104.4775121858777993
 51
270.0000004365793984
  0
LINE
  5
CA96
  8
0
 10
4771.6027218322624321
 20
244.9182724663444901
 30
0.0
 11
4771.6013334806630155
 21
244.9102672331445092
 31
0.0
  0
LINE
  5
CA97
  8
0
 10
4781.3426577446607553
 20
246.1015304337445002
 30
0.0
 11
4781.3426577446607553
 21
242.2826327959444939
 31
0.0
  0
LINE
  5
CA98
  8
0
 10
4781.254400358163366
 20
246.1015304337445002
 30
0.0
 11
4781.254400358163366
 21
242.2826327959444939
 31
0.0
  0
ARC
  5
CA99
  8
0
 10
4781.2321482546622065
 20
242.2850961871442905
 30
0.0
 40
0.1105369425859355
 50
271.2769812667806946
 51
358.7230187362274023
  0
ARC
  5
CA9A
  8
0
 10
4781.234038114112991
 20
242.2832063276935912
 30
0.0
 40
0.0203703196190134
 50
271.6133910695941154
 51
358.3866089297908957
  0
ARC
  5
CA9B
  8
0
 10
4781.2289605581618162
 20
246.0958793460440859
 30
0.0
 40
0.1138375377908765
 50
2.8454287770771862
 51
87.1545712258287466
  0
ARC
  5
CA9C
  8
0
 10
4781.2339642450779138
 20
246.1008830329616899
 30
0.0
 40
0.0204463650976407
 50
1.814480629249793
 51
88.1855193701655651
  0
LINE
  5
CA9D
  8
0
 10
4765.5889423545631871
 20
246.2095765325445029
 30
0.0
 11
4781.2346116458611505
 21
246.2095765325445029
 31
0.0
  0
LINE
  5
CA9E
  8
0
 10
4765.5889423545613681
 20
246.1213191460444989
 30
0.0
 11
4781.23461164586206
 21
246.1213191460444989
 31
0.0
  0
LINE
  5
CA9F
  8
0
 10
4768.6204475712620479
 20
242.9491933454445132
 30
0.0
 11
4768.6204475712620479
 21
243.0215250205640984
 31
0.0
  0
LINE
  5
CAA0
  8
0
 10
4768.4728097760616947
 20
245.3573943807444948
 30
0.0
 11
4768.4728097760616947
 21
244.2302015296444893
 31
0.0
  0
ARC
  5
CAA1
  8
0
 10
4768.4286443870778385
 20
244.0838040455074065
 30
0.0
 40
1.1672678131082701
 50
271.6847690617626085
 51
278.6547887910537042
  0
ARC
  5
CAA2
  8
0
 10
4768.5997801448447717
 20
242.9500127129402074
 30
0.0
 40
0.0206836621975449
 50
282.6102135436282197
 51
357.7296773502799851
  0
ARC
  5
CAA3
  8
0
 10
4768.4629672563623899
 20
244.1920816148445113
 30
0.0
 40
1.1811023622000001
 50
269.9997779726302269
 51
90.0002220273697731
  0
ARC
  5
CAA4
  8
0
 10
4768.4629672563623899
 20
244.1920816148445113
 30
0.0
 40
1.1653543306999989
 50
89.5160771897817966
 51
90.0002250277192246
  0
ARC
  5
CAA5
  8
0
 10
4768.4629672563623899
 20
244.1920816148445113
 30
0.0
 40
0.0393700787
 50
269.9933391788395056
 51
75.5224878141222291
  0
ARC
  5
CAA6
  8
0
 10
4770.3208006906752416
 20
242.2913792816189869
 30
0.0
 40
0.0083100419464756
 50
272.932440734033321
 51
357.0653784381977971
  0
ARC
  5
CAA7
  8
0
 10
4770.3207895562318299
 20
246.0927728880971017
 30
0.0
 40
0.0083217385468642
 50
3.0072613544995379
 51
86.994920200901305
  0
ARC
  5
CAA8
  8
0
 10
4770.3458785252150847
 20
242.2910559164878066
 30
0.0
 40
0.0084409408394379
 50
183.7293610503867001
 51
250.8935139519743132
  0
ARC
  5
CAA9
  8
0
 10
4770.345950875041126
 20
246.0930350411381937
 30
0.0
 40
0.0085181105238487
 50
109.1213066882161939
 51
175.8166873136806885
  0
LINE
  5
CAAA
  8
0
 10
4772.8798336868621845
 20
242.2905068866446925
 30
0.0
 11
4772.8798336868621845
 21
246.0936564179444019
 31
0.0
  0
ARC
  5
CAAB
  8
0
 10
4772.8714106204079144
 20
242.2910559164878066
 30
0.0
 40
0.0084409408394379
 50
289.1064860480257153
 51
356.2706389496133284
  0
ARC
  5
CAAC
  8
0
 10
4772.8713382705818731
 20
246.0930350411381937
 30
0.0
 40
0.0085181105238487
 50
4.1833126863192813
 51
70.8786933117837634
  0
LINE
  5
CAAD
  8
0
 10
4772.896510576862056
 20
242.2905068866444935
 30
0.0
 11
4772.896510576862056
 21
246.0936564179446009
 31
0.0
  0
ARC
  5
CAAE
  8
0
 10
4772.9049336433163262
 20
242.2910559164878066
 30
0.0
 40
0.0084409408394379
 50
183.7293610503867001
 51
250.8935139519743132
  0
ARC
  5
CAAF
  8
0
 10
4772.9050059931405485
 20
246.0930350411381937
 30
0.0
 40
0.0085181105238487
 50
109.1213066882161939
 51
175.8166873136806885
  0
LINE
  5
CAB0
  8
0
 10
4775.4388888049616071
 20
242.2905068866444935
 30
0.0
 11
4775.4388888049616071
 21
246.0936564179446009
 31
0.0
  0
ARC
  5
CAB1
  8
0
 10
4775.4304657385082464
 20
242.2910559164878066
 30
0.0
 40
0.0084409408394379
 50
289.1064860480257153
 51
356.2706389496133284
  0
ARC
  5
CAB2
  8
0
 10
4775.4303933886822051
 20
246.0930350411381937
 30
0.0
 40
0.0085181105238487
 50
4.1833126863192813
 51
70.8786933117837634
  0
LINE
  5
CAB3
  8
0
 10
4775.4555656949623881
 20
242.2905068866444935
 30
0.0
 11
4775.4555656949623881
 21
246.0936564179446009
 31
0.0
  0
ARC
  5
CAB4
  8
0
 10
4775.4639887614157487
 20
242.2910559164878066
 30
0.0
 40
0.0084409408394379
 50
183.7293610503867001
 51
250.8935139519743132
  0
ARC
  5
CAB5
  8
0
 10
4775.4640611112417901
 20
246.0930350411381937
 30
0.0
 40
0.0085181105238487
 50
109.1213066882161939
 51
175.8166873136806885
  0
LINE
  5
CAB6
  8
0
 10
4777.9979439230619391
 20
242.2905068866444935
 30
0.0
 11
4777.9979439230619391
 21
246.0936564179446009
 31
0.0
  0
ARC
  5
CAB7
  8
0
 10
4777.9895208566085785
 20
242.2910559164878066
 30
0.0
 40
0.0084409408394379
 50
289.1064860480257153
 51
356.2706389496133284
  0
ARC
  5
CAB8
  8
0
 10
4777.9894485067816277
 20
246.0930350411381937
 30
0.0
 40
0.0085181105238487
 50
4.1833126863192813
 51
70.8786933117837634
  0
LINE
  5
CAB9
  8
0
 10
4778.0146208130618106
 20
242.2905068866444935
 30
0.0
 11
4778.0146208130618106
 21
246.0936564179446009
 31
0.0
  0
ARC
  5
CABA
  8
0
 10
4778.0230438795169903
 20
242.2910559164878066
 30
0.0
 40
0.0084409408394379
 50
183.7293610503867001
 51
250.8935139519743132
  0
ARC
  5
CABB
  8
0
 10
4778.0231162293403031
 20
246.0930350411381937
 30
0.0
 40
0.0085181105238487
 50
109.1213066882161939
 51
175.8166873136806885
  0
LINE
  5
CABC
  8
0
 10
4780.5569990411622712
 20
242.2905068866444935
 30
0.0
 11
4780.5569990411622712
 21
246.0936564179446009
 31
0.0
  0
ARC
  5
CABD
  8
0
 10
4780.548575974708001
 20
242.2910559164878066
 30
0.0
 40
0.0084409408394379
 50
289.1064860480257153
 51
356.2706389496133284
  0
ARC
  5
CABE
  8
0
 10
4780.5485036248828692
 20
246.0930350411381937
 30
0.0
 40
0.0085181105238487
 50
4.1833126863192813
 51
70.8786933117837634
  0
LINE
  5
CABF
  8
0
 10
4780.5736759311621427
 20
242.2905068866446925
 30
0.0
 11
4780.5736759311621427
 21
246.0936564179444019
 31
0.0
  0
ARC
  5
CAC0
  8
0
 10
4780.5820989976145938
 20
242.2910559164878066
 30
0.0
 40
0.0084409408394379
 50
183.7293610503867001
 51
250.8935139519743132
  0
ARC
  5
CAC1
  8
0
 10
4780.5821713474406351
 20
246.0930350411381937
 30
0.0
 40
0.0085181105238487
 50
109.1213066882161939
 51
175.8166873136806885
  0
LINE
  5
CAC2
  8
0
 10
4781.2385486537623365
 20
242.2905068866444935
 30
0.0
 11
4781.2385486537623365
 21
246.0936564179446009
 31
0.0
  0
ARC
  5
CAC3
  8
0
 10
4781.2301255873080663
 20
242.2910559164878066
 30
0.0
 40
0.0084409408394379
 50
289.1064860480257153
 51
356.2706389496133284
  0
ARC
  5
CAC4
  8
0
 10
4781.230053237482025
 20
246.0930350411381937
 30
0.0
 40
0.0085181105238487
 50
4.1833126863192813
 51
70.8786933117837634
  0
LINE
  5
CAC5
  8
0
 10
4771.6237953234631277
 20
244.9102672331445092
 30
0.0
 11
4771.6237953234631277
 21
244.2298158103187973
 31
0.0
  0
LINE
  5
CAC6
  8
0
 10
4771.6224069718618921
 20
244.9182724663444901
 30
0.0
 11
4771.6224069219615558
 21
244.2302015296444893
 31
0.0
  0
ARC
  5
CAC7
  8
0
 10
4771.6125644323619781
 20
244.1920815843444927
 30
0.0
 40
0.718273457
 50
269.9999975830243102
 51
89.1040892928971431
  0
ARC
  5
CAC8
  8
0
 10
4771.6125644023632049
 20
244.1920816148445113
 30
0.0
 40
0.7440944882
 50
269.9999999769150918
 51
90.0000000230847945
  0
ARC
  5
CAC9
  8
0
 10
4771.6125644023632049
 20
244.1920816148445113
 30
0.0
 40
0.7262574118999999
 50
269.9999999763419964
 51
90.000000023658032
  0
ARC
  5
CACA
  8
0
 10
4771.6125644023632049
 20
244.1920816148445113
 30
0.0
 40
0.0393700787
 50
269.9999995634207153
 51
75.5224878141222291
  0
LINE
  5
CACB
  8
0
 10
4771.6224069718618921
 20
244.9182724663444901
 30
0.0
 11
4771.6237953234631277
 21
244.9102672331445092
 31
0.0
  0
LINE
  5
CACC
  8
0
 10
4774.1603885987624381
 20
244.9102672331445092
 30
0.0
 11
4774.1603885987624381
 21
244.2298158103187973
 31
0.0
  0
LINE
  5
CACD
  8
0
 10
4774.1617769503618547
 20
244.9182724663444901
 30
0.0
 11
4774.1617770002612815
 21
244.2302015296444893
 31
0.0
  0
ARC
  5
CACE
  8
0
 10
4774.1716194898617687
 20
244.1920815843444927
 30
0.0
 40
0.718273457
 50
90.8959107071028427
 51
270.0000024169756898
  0
ARC
  5
CACF
  8
0
 10
4774.1716195198623609
 20
244.1920816148445113
 30
0.0
 40
0.7440944882
 50
89.9999999769151771
 51
270.0000000230847945
  0
ARC
  5
CAD0
  8
0
 10
4774.1716195198623609
 20
244.1920816148445113
 30
0.0
 40
0.7262574118999999
 50
89.9999999763419538
 51
270.0000000236581172
  0
ARC
  5
CAD1
  8
0
 10
4774.1716195198623609
 20
244.1920816148445113
 30
0.0
 40
0.0393700787
 50
104.4775121858777993
 51
270.0000004365793984
  0
LINE
  5
CAD2
  8
0
 10
4774.1617769503618547
 20
244.9182724663444901
 30
0.0
 11
4774.1603885987624381
 21
244.9102672331445092
 31
0.0
  0
LINE
  5
CAD3
  8
0
 10
4774.1828504415607313
 20
244.9102672331445092
 30
0.0
 11
4774.1828504415607313
 21
244.2298158103187973
 31
0.0
  0
LINE
  5
CAD4
  8
0
 10
4774.1814620899622241
 20
244.9182724663444901
 30
0.0
 11
4774.1814620400609783
 21
244.2302015296444893
 31
0.0
  0
ARC
  5
CAD5
  8
0
 10
4774.1716195504623101
 20
244.1920815843444927
 30
0.0
 40
0.718273457
 50
269.9999975830243102
 51
89.1040892928971431
  0
ARC
  5
CAD6
  8
0
 10
4774.1716195204608084
 20
244.1920816148445113
 30
0.0
 40
0.7440944882
 50
269.9999999769150918
 51
90.0000000230847945
  0
ARC
  5
CAD7
  8
0
 10
4774.1716195204608084
 20
244.1920816148445113
 30
0.0
 40
0.7262574118999999
 50
269.9999999763419964
 51
90.000000023658032
  0
ARC
  5
CAD8
  8
0
 10
4774.1716195204608084
 20
244.1920816148445113
 30
0.0
 40
0.0393700787
 50
269.9999995634207153
 51
75.5224878141222291
  0
LINE
  5
CAD9
  8
0
 10
4774.1814620899622241
 20
244.9182724663444901
 30
0.0
 11
4774.1828504415607313
 21
244.9102672331445092
 31
0.0
  0
LINE
  5
CADA
  8
0
 10
4776.7194437169118828
 20
244.9102672331445092
 30
0.0
 11
4776.7194437169118828
 21
244.2298158103187973
 31
0.0
  0
LINE
  5
CADB
  8
0
 10
4776.7208320685112994
 20
244.9182724663444901
 30
0.0
 11
4776.7208321184107263
 21
244.2302015296444893
 31
0.0
  0
ARC
  5
CADC
  8
0
 10
4776.7306746080121229
 20
244.1920815843444927
 30
0.0
 40
0.718273457
 50
90.8959107071028427
 51
270.0000024169756898
  0
ARC
  5
CADD
  8
0
 10
4776.7306746380118057
 20
244.1920816148445113
 30
0.0
 40
0.7440944882
 50
89.9999999769151771
 51
270.0000000230847945
  0
ARC
  5
CADE
  8
0
 10
4776.7306746380118057
 20
244.1920816148445113
 30
0.0
 40
0.7262574118999999
 50
89.9999999763419538
 51
270.0000000236581172
  0
ARC
  5
CADF
  8
0
 10
4776.7306746380118057
 20
244.1920816148445113
 30
0.0
 40
0.0393700787
 50
104.4775121858777993
 51
270.0000004365793984
  0
LINE
  5
CAE0
  8
0
 10
4776.7208320685112994
 20
244.9182724663444901
 30
0.0
 11
4776.7194437169118828
 21
244.9102672331445092
 31
0.0
  0
LINE
  5
CAE1
  8
0
 10
4776.741905559711995
 20
244.9102672331445092
 30
0.0
 11
4776.741905559711995
 21
244.2298158103187973
 31
0.0
  0
LINE
  5
CAE2
  8
0
 10
4776.7405172081116689
 20
244.9182724663444901
 30
0.0
 11
4776.7405171582122421
 21
244.2302015296444893
 31
0.0
  0
ARC
  5
CAE3
  8
0
 10
4776.7306746686117549
 20
244.1920815843444927
 30
0.0
 40
0.718273457
 50
269.9999975830243102
 51
89.1040892928971431
  0
ARC
  5
CAE4
  8
0
 10
4776.7306746386120722
 20
244.1920816148445113
 30
0.0
 40
0.7440944882
 50
269.9999999769150918
 51
90.0000000230847945
  0
ARC
  5
CAE5
  8
0
 10
4776.7306746386120722
 20
244.1920816148445113
 30
0.0
 40
0.7262574118999999
 50
269.9999999763419964
 51
90.000000023658032
  0
ARC
  5
CAE6
  8
0
 10
4776.7306746386120722
 20
244.1920816148445113
 30
0.0
 40
0.0393700787
 50
269.9999995634207153
 51
75.5224878141222291
  0
LINE
  5
CAE7
  8
0
 10
4776.7405172081116689
 20
244.9182724663444901
 30
0.0
 11
4776.741905559711995
 21
244.9102672331445092
 31
0.0
  0
LINE
  5
CAE8
  8
0
 10
4779.2784988350122148
 20
244.9102672331445092
 30
0.0
 11
4779.2784988350122148
 21
244.2298158103187973
 31
0.0
  0
LINE
  5
CAE9
  8
0
 10
4779.2798871866116315
 20
244.9182724663444901
 30
0.0
 11
4779.2798872365110583
 21
244.2302015296444893
 31
0.0
  0
ARC
  5
CAEA
  8
0
 10
4779.2897297261115455
 20
244.1920815843444927
 30
0.0
 40
0.718273457
 50
90.8959107071028427
 51
270.0000024169756898
  0
ARC
  5
CAEB
  8
0
 10
4779.2897297561121377
 20
244.1920816148445113
 30
0.0
 40
0.7440944882
 50
89.9999999769151771
 51
270.0000000230847945
  0
ARC
  5
CAEC
  8
0
 10
4779.2897297561121377
 20
244.1920816148445113
 30
0.0
 40
0.7262574118999999
 50
89.9999999763419538
 51
270.0000000236581172
  0
ARC
  5
CAED
  8
0
 10
4779.2897297561121377
 20
244.1920816148445113
 30
0.0
 40
0.0393700787
 50
104.4775121858777993
 51
270.0000004365793984
  0
LINE
  5
CAEE
  8
0
 10
4779.2798871866116315
 20
244.9182724663444901
 30
0.0
 11
4779.2784988350122148
 21
244.9102672331445092
 31
0.0
  0
LINE
  5
CAEF
  8
0
 10
4779.300960677812327
 20
244.9102672331445092
 30
0.0
 11
4779.300960677812327
 21
244.2298158103187973
 31
0.0
  0
LINE
  5
CAF0
  8
0
 10
4779.2995723262120009
 20
244.9182724663444901
 30
0.0
 11
4779.2995722763107551
 21
244.2302015296444893
 31
0.0
  0
ARC
  5
CAF1
  8
0
 10
4779.2897297867120869
 20
244.1920815843444927
 30
0.0
 40
0.718273457
 50
269.9999975830243102
 51
89.1040892928971431
  0
ARC
  5
CAF2
  8
0
 10
4779.2897297567124042
 20
244.1920816148445113
 30
0.0
 40
0.7440944882
 50
269.9999999769150918
 51
90.0000000230847945
  0
ARC
  5
CAF3
  8
0
 10
4779.2897297567124042
 20
244.1920816148445113
 30
0.0
 40
0.7262574118999999
 50
269.9999999763419964
 51
90.000000023658032
  0
ARC
  5
CAF4
  8
0
 10
4779.2897297567124042
 20
244.1920816148445113
 30
0.0
 40
0.0393700787
 50
269.9999995634207153
 51
75.5224878141222291
  0
LINE
  5
CAF5
  8
0
 10
4779.2995723262120009
 20
244.9182724663444901
 30
0.0
 11
4779.300960677812327
 21
244.9102672331445092
 31
0.0
  0
LINE
  5
CAF7
  8
0
 10
4765.6007533781621532
 20
242.283079971344506
 30
0.0
 11
4781.2328885171527872
 21
242.283079971344506
 31
0.0
  0
LINE
  5
CAF8
  8
0
 10
4765.6007533781621532
 20
246.1010831833445138
 30
0.0
 11
4781.2328435087820253
 21
246.1010831833445138
 31
0.0
  0
LINE
  5
CAF9
  8
0
 10
4772.7650082609607125
 20
246.1065668895444958
 30
0.0
 11
4772.7650082609607125
 21
246.1010831833445138
 31
0.0
  0
LINE
  5
CAFA
  8
0
 10
4772.7650082609607125
 20
242.283079971344506
 30
0.0
 11
4772.7650082609607125
 21
242.2775963401444983
 31
0.0
  0
LINE
  5
CAFB
  8
0
 10
4772.9837425898622314
 20
242.2775963401444983
 30
0.0
 11
4772.9837425898622314
 21
242.283079971344506
 31
0.0
  0
LINE
  5
CAFC
  8
0
 10
4772.9837425898622314
 20
246.1010831833445138
 30
0.0
 11
4772.9837425898622314
 21
246.1065668895444958
 31
0.0
  0
LINE
  5
CAFD
  8
0
 10
4772.9837425898622314
 20
242.2775963401444983
 30
0.0
 11
4772.7650082609607125
 21
242.2775963401444983
 31
0.0
  0
LINE
  5
CAFE
  8
0
 10
4772.7650082609607125
 20
246.1065668895444958
 30
0.0
 11
4772.9837425898622314
 21
246.1065668895444958
 31
0.0
  0
LINE
  5
CAFF
  8
0
 10
4775.324063379061954
 20
246.1065668895444958
 30
0.0
 11
4775.324063379061954
 21
246.1010831833445138
 31
0.0
  0
LINE
  5
CB00
  8
0
 10
4775.324063379061954
 20
242.283079971344506
 30
0.0
 11
4775.324063379061954
 21
242.2775963401444983
 31
0.0
  0
LINE
  5
CB01
  8
0
 10
4775.5427977079616539
 20
242.2775963401444983
 30
0.0
 11
4775.5427977079616539
 21
242.283079971344506
 31
0.0
  0
LINE
  5
CB02
  8
0
 10
4775.5427977079616539
 20
246.1010831833445138
 30
0.0
 11
4775.5427977079616539
 21
246.1065668895444958
 31
0.0
  0
LINE
  5
CB03
  8
0
 10
4775.5427977079616539
 20
242.2775963401444983
 30
0.0
 11
4775.324063379061954
 21
242.2775963401444983
 31
0.0
  0
LINE
  5
CB04
  8
0
 10
4775.324063379061954
 20
246.1065668895444958
 30
0.0
 11
4775.5427977079616539
 21
246.1065668895444958
 31
0.0
  0
LINE
  5
CB05
  8
0
 10
4777.8831184971622861
 20
246.1065668895444958
 30
0.0
 11
4777.8831184971622861
 21
246.1010831833445138
 31
0.0
  0
LINE
  5
CB06
  8
0
 10
4777.8831184971622861
 20
242.283079971344506
 30
0.0
 11
4777.8831184971622861
 21
242.2775963401444983
 31
0.0
  0
LINE
  5
CB07
  8
0
 10
4778.101852826061986
 20
242.2775963401444983
 30
0.0
 11
4778.101852826061986
 21
242.283079971344506
 31
0.0
  0
LINE
  5
CB08
  8
0
 10
4778.101852826061986
 20
246.1010831833445138
 30
0.0
 11
4778.101852826061986
 21
246.1065668895444958
 31
0.0
  0
LINE
  5
CB09
  8
0
 10
4778.101852826061986
 20
242.2775963401444983
 30
0.0
 11
4777.8831184971622861
 21
242.2775963401444983
 31
0.0
  0
LINE
  5
CB0A
  8
0
 10
4777.8831184971622861
 20
246.1065668895444958
 30
0.0
 11
4778.101852826061986
 21
246.1065668895444958
 31
0.0
  0
LINE
  5
CB0B
  8
0
 10
4780.4421736152617086
 20
246.1065668895444958
 30
0.0
 11
4780.4421736152617086
 21
246.1010831833445138
 31
0.0
  0
LINE
  5
CB0C
  8
0
 10
4780.4421736152617086
 20
242.283079971344506
 30
0.0
 11
4780.4421736152617086
 21
242.2775963401444983
 31
0.0
  0
LINE
  5
CB0D
  8
0
 10
4780.660907944162318
 20
242.2775963401444983
 30
0.0
 11
4780.660907944162318
 21
242.283079971344506
 31
0.0
  0
LINE
  5
CB0E
  8
0
 10
4780.660907944162318
 20
246.1010831833445138
 30
0.0
 11
4780.660907944162318
 21
246.1065668895444958
 31
0.0
  0
LINE
  5
CB0F
  8
0
 10
4780.660907944162318
 20
242.2775963401444983
 30
0.0
 11
4780.4421736152617086
 21
242.2775963401444983
 31
0.0
  0
LINE
  5
CB10
  8
0
 10
4780.4421736152617086
 20
246.1065668895444958
 30
0.0
 11
4780.660907944162318
 21
246.1065668895444958
 31
0.0
  0
ENDSEC
  0
EOF
