  0
SECTION
  2
HEADER
  9
$ACADVER
  1
AC1009
  9
$INSBASE
 10
6574.4205212153556204
 20
282.1098013059938125
 30
0.0
  9
$EXTMIN
 10
6573.1705212153574394
 20
274.0586213059938245
 30
0.0
  9
$EXTMAX
 10
6575.6705212153556204
 20
283.3598013059936989
 30
0.0
  9
$LIMMIN
 10
0.0
 20
0.0
  9
$LIMMAX
 10
11.6929133858000007
 20
8.2677165353999982
  9
$ORTHOMODE
 70
     0
  9
$REGENMODE
 70
     1
  9
$FILLMODE
 70
     1
  9
$QTEXTMODE
 70
     0
  9
$MIRRTEXT
 70
     0
  9
$DRAGMODE
 70
     2
  9
$LTSCALE
 40
0.6431102362
  9
$OSMODE
 70
  4095
  9
$ATTMODE
 70
     1
  9
$TEXTSIZE
 40
0.2
  9
$TRACEWID
 40
0.05
  9
$TEXTSTYLE
  7
STANDARD
  9
$CLAYER
  8
0
  9
$CELTYPE
  6
BYLAYER
  9
$CECOLOR
 62
   256
  9
$DIMSCALE
 40
1.0
  9
$DIMASZ
 40
0.1875
  9
$DIMEXO
 40
0.0625
  9
$DIMDLI
 40
0.4443307087
  9
$DIMRND
 40
0.0
  9
$DIMDLE
 40
0.0
  9
$DIMEXE
 40
0.125
  9
$DIMTP
 40
0.01
  9
$DIMTM
 40
0.01
  9
$DIMTXT
 40
2.0
  9
$DIMCEN
 40
0.1052362205
  9
$DIMTSZ
 40
0.0
  9
$DIMTOL
 70
     1
  9
$DIMLIM
 70
     0
  9
$DIMTIH
 70
     1
  9
$DIMTOH
 70
     1
  9
$DIMSE1
 70
     0
  9
$DIMSE2
 70
     0
  9
$DIMTAD
 70
     0
  9
$DIMZIN
 70
     0
  9
$DIMBLK
  1

  9
$DIMASO
 70
     1
  9
$DIMSHO
 70
     1
  9
$DIMPOST
  1
\X
  9
$DIMAPOST
  1

  9
$DIMALT
 70
     1
  9
$DIMALTD
 70
     2
  9
$DIMALTF
 40
25.3999999999999986
  9
$DIMLFAC
 40
1.0
  9
$DIMTOFL
 70
     0
  9
$DIMTVP
 40
0.0
  9
$DIMTIX
 70
     0
  9
$DIMSOXD
 70
     0
  9
$DIMSAH
 70
     0
  9
$DIMBLK1
  1

  9
$DIMBLK2
  1

  9
$DIMSTYLE
  2
STANDARD
  9
$DIMCLRD
 70
     0
  9
$DIMCLRE
 70
     0
  9
$DIMCLRT
 70
     0
  9
$DIMTFAC
 40
1.0
  9
$DIMGAP
 40
0.09
  9
$LUNITS
 70
     2
  9
$LUPREC
 70
     4
  9
$SKETCHINC
 40
0.1
  9
$FILLETRAD
 40
0.0
  9
$AUNITS
 70
     0
  9
$AUPREC
 70
     0
  9
$MENU
  1
.
  9
$ELEVATION
 40
0.0
  9
$PELEVATION
 40
0.0
  9
$THICKNESS
 40
0.0
  9
$LIMCHECK
 70
     0
  9
$BLIPMODE
 70
     0
  9
$CHAMFERA
 40
0.0
  9
$CHAMFERB
 40
0.0
  9
$SKPOLY
 70
     0
  9
$TDCREATE
 40
2458060.468368056230247
  9
$TDUPDATE
 40
2460697.5151157411746681
  9
$TDINDWG
 40
0.841222338
  9
$TDUSRTIMER
 40
0.841222338
  9
$USRTIMER
 70
     1
  9
$ANGBASE
 50
0.0
  9
$ANGDIR
 70
     0
  9
$PDMODE
 70
     0
  9
$PDSIZE
 40
0.3125
  9
$PLINEWID
 40
0.0
  9
$COORDS
 70
     1
  9
$SPLFRAME
 70
     0
  9
$SPLINETYPE
 70
     6
  9
$SPLINESEGS
 70
     8
  9
$ATTDIA
 70
     1
  9
$ATTREQ
 70
     1
  9
$HANDLING
 70
     1
  9
$HANDSEED
  5
2EABE
  9
$SURFTAB1
 70
     6
  9
$SURFTAB2
 70
     6
  9
$SURFTYPE
 70
     6
  9
$SURFU
 70
     6
  9
$SURFV
 70
     6
  9
$UCSNAME
  2

  9
$UCSORG
 10
0.0
 20
0.0
 30
0.0
  9
$UCSXDIR
 10
1.0
 20
0.0
 30
0.0
  9
$UCSYDIR
 10
0.0
 20
1.0
 30
0.0
  9
$PUCSNAME
  2

  9
$PUCSORG
 10
0.0
 20
0.0
 30
0.0
  9
$PUCSXDIR
 10
1.0
 20
0.0
 30
0.0
  9
$PUCSYDIR
 10
0.0
 20
1.0
 30
0.0
  9
$USERI1
 70
     0
  9
$USERI2
 70
     0
  9
$USERI3
 70
     0
  9
$USERI4
 70
     0
  9
$USERI5
 70
     0
  9
$USERR1
 40
0.0
  9
$USERR2
 40
0.0
  9
$USERR3
 40
0.0
  9
$USERR4
 40
0.0
  9
$USERR5
 40
0.0
  9
$WORLDVIEW
 70
     1
  9
$SHADEDGE
 70
     3
  9
$SHADEDIF
 70
    70
  9
$TILEMODE
 70
     1
  9
$MAXACTVP
 70
    64
  9
$PLIMCHECK
 70
     0
  9
$PEXTMIN
 10
1.0000000000000000E+20
 20
1.0000000000000000E+20
 30
1.0000000000000000E+20
  9
$PEXTMAX
 10
-1.0000000000000000E+20
 20
-1.0000000000000000E+20
 30
-1.0000000000000000E+20
  9
$PLIMMIN
 10
0.0
 20
0.0
  9
$PLIMMAX
 10
12.0
 20
9.0
  9
$UNITMODE
 70
     0
  9
$VISRETAIN
 70
     1
  9
$PLINEGEN
 70
     0
  9
$PSLTSCALE
 70
     1
  0
ENDSEC
  0
SECTION
  2
TABLES
  0
TABLE
  2
VPORT
 70
     1
  0
VPORT
  2
*ACTIVE
 70
     0
 10
0.0
 20
0.0
 11
1.0
 21
1.0
 12
2663.0551647700440299
 22
146.1296062034546992
 13
0.0
 23
0.0
 14
1.0
 24
1.0
 15
0.0
 25
0.0
 16
0.0
 26
0.0
 36
60.4960186965801583
 17
3911.3653564453120453
 27
132.5796051025390057
 37
0.0
 40
9.364761507466218
 41
2.1449438202247189
 42
50.0
 43
0.0
 44
0.0
 50
0.0
 51
0.0
 71
     0
 72
   100
 73
     1
 74
     1
 75
     0
 76
     0
 77
     0
 78
     0
  0
ENDTAB
  0
TABLE
  2
LTYPE
 70
     2
  0
LTYPE
  2
CONTINUOUS
 70
     0
  3
Solid line
 72
    65
 73
     0
 40
0.0
  0
LTYPE
  2
PHANTOM2
 70
     0
  3
___ _ _ ___ _ _ ___ _ _ ___ _ _
 72
    65
 73
     6
 40
1.25
 49
0.625
 49
-0.125
 49
0.125
 49
-0.125
 49
0.125
 49
-0.125
  0
ENDTAB
  0
TABLE
  2
LAYER
 70
     2
  0
LAYER
  2
0
 70
     0
 62
   255
  6
CONTINUOUS
  0
LAYER
  2
DEFPOINTS
 70
     0
 62
     7
  6
CONTINUOUS
  0
ENDTAB
  0
TABLE
  2
STYLE
 70
     1
  0
STYLE
  2
STANDARD
 70
     0
 40
0.0
 41
0.8
 50
0.0
 71
     0
 42
0.2
  3
txt
  4

  0
ENDTAB
  0
TABLE
  2
VIEW
 70
     0
  0
ENDTAB
  0
TABLE
  2
UCS
 70
     0
  0
ENDTAB
  0
TABLE
  2
APPID
 70
    11
  0
APPID
  2
ACAD
 70
     0
  0
APPID
  2
ACAD_MLEADERVER
 70
     0
  0
APPID
  2
ACAD_EXEMPT_FROM_CAD_STANDARDS
 70
     0
  0
APPID
  2
ACAD_NAV_VCDISPLAY
 70
     0
  0
APPID
  2
ACAECLAYERSTANDARD
 70
     0
  0
APPID
  2
ACCMTRANSPARENCY
 70
     0
  0
APPID
  2
ACAD_DSTYLE_DIMJAG
 70
     0
  0
APPID
  2
ACAD_DSTYLE_DIMTALN
 70
     0
  0
APPID
  2
ACDBATTR
 70
     0
  0
APPID
  2
ACADANNOTATIVE
 70
     0
  0
APPID
  2
DCO15
 70
     0
  0
ENDTAB
  0
TABLE
  2
DIMSTYLE
 70
     1
  0
DIMSTYLE
  2
STANDARD
 70
     0
  3

  4

  5

  6

  7

 40
1.0
 41
0.1875
 42
0.0625
 43
0.38
 44
0.125
 45
0.0
 46
0.0
 47
0.01
 48
0.01
140
0.15625
141
0.09
142
0.0
143
25.3999999999999986
144
1.0
145
0.0
146
1.0
147
0.09
 71
     1
 72
     0
 73
     1
 74
     1
 75
     0
 76
     0
 77
     0
 78
     4
170
     0
171
     2
172
     0
173
     0
174
     0
175
     0
176
     0
177
     0
178
     0
  0
ENDTAB
  0
ENDSEC
  0
SECTION
  2
BLOCKS
  0
BLOCK
  8
0
  2
$MODEL_SPACE
 70
     0
 10
0.0
 20
0.0
 30
0.0
  3
$MODEL_SPACE
  1

  0
ENDBLK
  5
21
  8
0
  0
BLOCK
 67
     1
  8
0
  2
$PAPER_SPACE
 70
     0
 10
0.0
 20
0.0
 30
0.0
  3
$PAPER_SPACE
  1

  0
ENDBLK
  5
1D
 67
     1
  8
0
  0
ENDSEC
  0
SECTION
  2
ENTITIES
  0
ATTDEF
  5
26A5B
  8
DEFPOINTS
 10
6574.4151393264328362
 20
282.1080704159356856
 30
0.0
 40
0.001
  1
P34863-BV
  3

  2
MODELNUMBER
 70
     0
1001
ACDBATTR
1070
     0
1070
     1
  0
ATTDEF
  5
26A5C
  8
DEFPOINTS
 10
6574.4150135167756162
 20
282.1064035755564987
 30
0.0
 40
0.001
  1
VICE
  3

  2
TRADENAME
 70
     0
1001
ACDBATTR
1070
     0
1070
     1
  0
ATTDEF
  5
26A5D
  8
DEFPOINTS
 10
6574.4151393264328362
 20
282.1047370826024121
 30
0.0
 40
0.001
  1
BATHROOM SINK FAUCET
  3

  2
PRODUCT
 70
     0
1001
ACDBATTR
1070
     0
1070
     1
  0
LINE
  5
2E990
  8
0
 10
6573.9273506965455454
 20
279.5461019767075754
 30
0.0
 11
6573.9322654529878491
 21
282.7323621306941277
 31
0.0
  0
ARC
  5
2E991
  8
0
 10
6574.4205212153556204
 20
282.1098013059938125
 30
0.0
 40
1.2500000000000011
 50
294.7142804330410968
 51
245.2857195669589032
  0
LINE
  5
2E992
  8
0
 10
6573.8693412153561439
 20
279.2747172515436773
 30
0.0
 11
6573.8693412153561439
 21
274.579620033093704
 31
0.0
  0
ARC
  5
2E993
  8
0
 10
6574.4210913247006829
 20
274.6112786368319121
 30
0.0
 40
0.5526576248942541
 50
183.2839461852194063
 51
269.9408949344027064
  0
ARC
  5
2E994
  8
0
 10
6574.4205212153556204
 20
282.1113095481936739
 30
0.0
 40
0.7899999998203957
 50
308.3502852956652873
 51
231.6497147043347127
  0
ARC
  5
2E995
  8
0
 10
6574.4205212153556204
 20
282.1113095481936739
 30
0.0
 40
0.8686867630305583
 50
306.9858069599441137
 51
233.0141930400558863
  0
ARC
  5
2E996
  8
0
 10
6574.4262628033611691
 20
279.5517982978670943
 30
0.0
 40
0.4989446245829474
 50
180.6541452409495037
 51
269.3406562471545271
  0
LINE
  5
2E997
  8
0
 10
6573.8979043429562807
 20
279.7460082984936776
 30
0.0
 11
6573.8979043429562807
 21
281.4258827380937191
 31
0.0
  0
ARC
  5
2E998
  8
0
 10
6573.6164954103760465
 20
281.4260477150431257
 30
0.0
 40
0.2814089809397482
 50
359.9664101571098058
 51
24.2972377217456383
  0
ARC
  5
2E999
  8
0
 10
6570.2433291621991884
 20
279.8213706874086029
 30
0.0
 40
3.6553521364538271
 50
354.1126795351660235
 51
358.8186493080918922
  0
ARC
  5
2E99A
  8
0
 10
6575.8208267367508597
 20
279.2465401084733116
 30
0.0
 40
1.9516889331044751
 50
174.1214482509676884
 51
179.1727741860811136
  0
LINE
  5
2E99B
  8
0
 10
6574.0381642413331065
 20
279.5615973942792039
 30
0.0
 11
6574.0381642413331065
 21
282.6861393599970143
 31
0.0
  0
LINE
  5
2E99C
  8
0
 10
6574.7361660432561621
 20
282.503152058197827
 30
0.0
 11
6574.1048763874559882
 21
282.503152058197827
 31
0.0
  0
LINE
  5
2E99D
  8
0
 10
6574.1048763874559882
 20
279.5589837076938124
 30
0.0
 11
6574.1048763874559882
 21
282.503152058197827
 31
0.0
  0
ARC
  5
2E99E
  8
0
 10
6574.1052505664747514
 20
282.5548266246901221
 30
0.0
 40
0.0516759212022221
 50
232.557077367643501
 51
269.5851246502134018
  0
ARC
  5
2E99F
  8
0
 10
6574.8447122980978747
 20
283.2964352654252025
 30
0.0
 40
1.0985334486705169
 50
223.5584731740443942
 51
225.4336441166744009
  0
ARC
  5
2E9A0
  8
0
 10
6574.0765520062359428
 20
282.5659870070988973
 30
0.0
 40
0.0385217071854138
 50
184.779358774375595
 51
223.5584731740443942
  0
ARC
  5
2E9A1
  8
0
 10
6569.4474933643232362
 20
281.9923086347325807
 30
0.0
 40
4.6428073593820427
 50
8.5945948788927282
 51
9.9272083824259862
  0
ARC
  5
2E9A2
  8
0
 10
6574.4289487508558523
 20
279.5599507389252949
 30
0.0
 40
0.3240738062071502
 50
180.17096997471441
 51
268.5098559446643094
  0
ARC
  5
2E9A3
  8
0
 10
6574.4294518450660689
 20
279.563085408363122
 30
0.0
 40
0.3912904330825406
 50
180.2178870862879876
 51
268.6921943853758989
  0
LINE
  5
2E9A4
  8
0
 10
6574.9136917341656954
 20
279.5461019767075754
 30
0.0
 11
6574.9087769777252106
 21
282.7323621306941277
 31
0.0
  0
LINE
  5
2E9A5
  8
0
 10
6574.9717012153569158
 20
279.2747172515436773
 30
0.0
 11
6574.9717012153569158
 21
274.579620033093704
 31
0.0
  0
ARC
  5
2E9A6
  8
0
 10
6574.4199511060096484
 20
274.6112786368319121
 30
0.0
 40
0.5526576248942541
 50
270.0591050655972936
 51
356.71605381478048
  0
ARC
  5
2E9A7
  8
0
 10
6574.4147796273518907
 20
279.5517982978670943
 30
0.0
 40
0.4989446245829474
 50
270.6593437528454729
 51
359.3458547590503827
  0
LINE
  5
2E9A8
  8
0
 10
6574.94313808775496
 20
279.7460082984936776
 30
0.0
 11
6574.94313808775496
 21
281.4258827380937191
 31
0.0
  0
ARC
  5
2E9A9
  8
0
 10
6575.2245470203370132
 20
281.4260477150431257
 30
0.0
 40
0.2814089809397482
 50
155.7027622782543119
 51
180.0335898428901942
  0
ARC
  5
2E9AA
  8
0
 10
6578.5977132685138713
 20
279.8213706874086029
 30
0.0
 40
3.6553521364538271
 50
181.1813506919081078
 51
185.887320464830708
  0
ARC
  5
2E9AB
  8
0
 10
6573.0202156939622
 20
279.2465401084733116
 30
0.0
 40
1.9516889331044751
 50
0.8272258139189265
 51
5.8785517490323338
  0
LINE
  5
2E9AC
  8
0
 10
6574.8028781893790438
 20
279.5615973942792039
 30
0.0
 11
6574.8028781893790438
 21
282.6861393599970143
 31
0.0
  0
LINE
  5
2E9AD
  8
0
 10
6574.7361660432561621
 20
279.5589837076938124
 30
0.0
 11
6574.7361660432561621
 21
282.503152058197827
 31
0.0
  0
ARC
  5
2E9AE
  8
0
 10
6574.7357918642383083
 20
282.5548266246901221
 30
0.0
 40
0.0516759212022221
 50
270.4148753497864845
 51
307.442922632356499
  0
ARC
  5
2E9AF
  8
0
 10
6573.9963301326142755
 20
283.2964352654252025
 30
0.0
 40
1.0985334486705169
 50
314.5663558833256275
 51
316.4415268259555205
  0
ARC
  5
2E9B0
  8
0
 10
6574.7644904244771169
 20
282.5659870070988973
 30
0.0
 40
0.0385217071854138
 50
316.4415268259555205
 51
355.2206412256243198
  0
ARC
  5
2E9B1
  8
0
 10
6579.3935490663880046
 20
281.9923086347325807
 30
0.0
 40
4.6428073593820427
 50
170.072791617574012
 51
171.4054051211072078
  0
ARC
  5
2E9B2
  8
0
 10
6574.4120936798553885
 20
279.5599507389252949
 30
0.0
 40
0.3240738062071502
 50
271.4901440553356906
 51
359.8290300252854763
  0
ARC
  5
2E9B3
  8
0
 10
6574.4115905856460813
 20
279.563085408363122
 30
0.0
 40
0.3912904330825406
 50
271.3078056146242147
 51
359.7821129137120124
  0
ENDSEC
  0
EOF
