  0
SECTION
  2
HEADER
  9
$ACADVER
  1
AC1009
  9
$INSBASE
 10
6585.6127528718598114
 20
280.1716240076610802
 30
0.0
  9
$EXTMIN
 10
6577.5246989906709132
 20
280.1711363799275887
 30
-0.0015258207003583
  9
$EXTMAX
 10
6587.0729217665466422
 20
293.7051075310665169
 30
0.0000000349246037
  9
$LIMMIN
 10
0.0
 20
0.0
  9
$LIMMAX
 10
11.6929133858000007
 20
8.2677165353999982
  9
$ORTHOMODE
 70
     0
  9
$REGENMODE
 70
     1
  9
$FILLMODE
 70
     1
  9
$QTEXTMODE
 70
     0
  9
$MIRRTEXT
 70
     0
  9
$DRAGMODE
 70
     2
  9
$LTSCALE
 40
0.6431102362
  9
$OSMODE
 70
  4095
  9
$ATTMODE
 70
     1
  9
$TEXTSIZE
 40
0.2
  9
$TRACEWID
 40
0.05
  9
$TEXTSTYLE
  7
STANDARD
  9
$CLAYER
  8
0
  9
$CELTYPE
  6
BYLAYER
  9
$CECOLOR
 62
   256
  9
$DIMSCALE
 40
1.0
  9
$DIMASZ
 40
0.1875
  9
$DIMEXO
 40
0.0625
  9
$DIMDLI
 40
0.4443307087
  9
$DIMRND
 40
0.0
  9
$DIMDLE
 40
0.0
  9
$DIMEXE
 40
0.125
  9
$DIMTP
 40
0.01
  9
$DIMTM
 40
0.01
  9
$DIMTXT
 40
2.0
  9
$DIMCEN
 40
0.1052362205
  9
$DIMTSZ
 40
0.0
  9
$DIMTOL
 70
     1
  9
$DIMLIM
 70
     0
  9
$DIMTIH
 70
     1
  9
$DIMTOH
 70
     1
  9
$DIMSE1
 70
     0
  9
$DIMSE2
 70
     0
  9
$DIMTAD
 70
     0
  9
$DIMZIN
 70
     0
  9
$DIMBLK
  1

  9
$DIMASO
 70
     1
  9
$DIMSHO
 70
     1
  9
$DIMPOST
  1
\X
  9
$DIMAPOST
  1

  9
$DIMALT
 70
     1
  9
$DIMALTD
 70
     2
  9
$DIMALTF
 40
25.3999999999999986
  9
$DIMLFAC
 40
1.0
  9
$DIMTOFL
 70
     0
  9
$DIMTVP
 40
0.0
  9
$DIMTIX
 70
     0
  9
$DIMSOXD
 70
     0
  9
$DIMSAH
 70
     0
  9
$DIMBLK1
  1

  9
$DIMBLK2
  1

  9
$DIMSTYLE
  2
STANDARD
  9
$DIMCLRD
 70
     0
  9
$DIMCLRE
 70
     0
  9
$DIMCLRT
 70
     0
  9
$DIMTFAC
 40
1.0
  9
$DIMGAP
 40
0.09
  9
$LUNITS
 70
     2
  9
$LUPREC
 70
     4
  9
$SKETCHINC
 40
0.1
  9
$FILLETRAD
 40
0.0
  9
$AUNITS
 70
     0
  9
$AUPREC
 70
     0
  9
$MENU
  1
.
  9
$ELEVATION
 40
0.0
  9
$PELEVATION
 40
0.0
  9
$THICKNESS
 40
0.0
  9
$LIMCHECK
 70
     0
  9
$BLIPMODE
 70
     0
  9
$CHAMFERA
 40
0.0
  9
$CHAMFERB
 40
0.0
  9
$SKPOLY
 70
     0
  9
$TDCREATE
 40
2458060.468368056230247
  9
$TDUPDATE
 40
2460690.7219212967902422
  9
$TDINDWG
 40
0.8388033565
  9
$TDUSRTIMER
 40
0.8388033565
  9
$USRTIMER
 70
     1
  9
$ANGBASE
 50
0.0
  9
$ANGDIR
 70
     0
  9
$PDMODE
 70
     0
  9
$PDSIZE
 40
0.3125
  9
$PLINEWID
 40
0.0
  9
$COORDS
 70
     1
  9
$SPLFRAME
 70
     0
  9
$SPLINETYPE
 70
     6
  9
$SPLINESEGS
 70
     8
  9
$ATTDIA
 70
     1
  9
$ATTREQ
 70
     1
  9
$HANDLING
 70
     1
  9
$HANDSEED
  5
2EB71
  9
$SURFTAB1
 70
     6
  9
$SURFTAB2
 70
     6
  9
$SURFTYPE
 70
     6
  9
$SURFU
 70
     6
  9
$SURFV
 70
     6
  9
$UCSNAME
  2

  9
$UCSORG
 10
0.0
 20
0.0
 30
0.0
  9
$UCSXDIR
 10
1.0
 20
0.0
 30
0.0
  9
$UCSYDIR
 10
0.0
 20
1.0
 30
0.0
  9
$PUCSNAME
  2

  9
$PUCSORG
 10
0.0
 20
0.0
 30
0.0
  9
$PUCSXDIR
 10
1.0
 20
0.0
 30
0.0
  9
$PUCSYDIR
 10
0.0
 20
1.0
 30
0.0
  9
$USERI1
 70
     0
  9
$USERI2
 70
     0
  9
$USERI3
 70
     0
  9
$USERI4
 70
     0
  9
$USERI5
 70
     0
  9
$USERR1
 40
0.0
  9
$USERR2
 40
0.0
  9
$USERR3
 40
0.0
  9
$USERR4
 40
0.0
  9
$USERR5
 40
0.0
  9
$WORLDVIEW
 70
     1
  9
$SHADEDGE
 70
     3
  9
$SHADEDIF
 70
    70
  9
$TILEMODE
 70
     1
  9
$MAXACTVP
 70
    64
  9
$PLIMCHECK
 70
     0
  9
$PEXTMIN
 10
1.0000000000000000E+20
 20
1.0000000000000000E+20
 30
1.0000000000000000E+20
  9
$PEXTMAX
 10
-1.0000000000000000E+20
 20
-1.0000000000000000E+20
 30
-1.0000000000000000E+20
  9
$PLIMMIN
 10
0.0
 20
0.0
  9
$PLIMMAX
 10
12.0
 20
9.0
  9
$UNITMODE
 70
     0
  9
$VISRETAIN
 70
     1
  9
$PLINEGEN
 70
     0
  9
$PSLTSCALE
 70
     1
  0
ENDSEC
  0
SECTION
  2
TABLES
  0
TABLE
  2
VPORT
 70
     1
  0
VPORT
  2
*ACTIVE
 70
     0
 10
0.0
 20
0.0
 11
1.0
 21
1.0
 12
2670.9334539332958229
 22
154.358516852957905
 13
0.0
 23
0.0
 14
1.0
 24
1.0
 15
0.0
 25
0.0
 16
0.0
 26
0.0
 36
60.4960186965801583
 17
3911.3653564453120453
 27
132.5796051025390057
 37
0.0
 40
13.6251090040084897
 41
2.1449438202247189
 42
50.0
 43
0.0
 44
0.0
 50
0.0
 51
0.0
 71
     0
 72
   100
 73
     1
 74
     1
 75
     0
 76
     0
 77
     0
 78
     0
  0
ENDTAB
  0
TABLE
  2
LTYPE
 70
     2
  0
LTYPE
  2
CONTINUOUS
 70
     0
  3
Solid line
 72
    65
 73
     0
 40
0.0
  0
LTYPE
  2
PHANTOM2
 70
     0
  3
___ _ _ ___ _ _ ___ _ _ ___ _ _
 72
    65
 73
     6
 40
1.25
 49
0.625
 49
-0.125
 49
0.125
 49
-0.125
 49
0.125
 49
-0.125
  0
ENDTAB
  0
TABLE
  2
LAYER
 70
     2
  0
LAYER
  2
0
 70
     0
 62
   255
  6
CONTINUOUS
  0
LAYER
  2
DEFPOINTS
 70
     0
 62
     7
  6
CONTINUOUS
  0
ENDTAB
  0
TABLE
  2
STYLE
 70
     1
  0
STYLE
  2
STANDARD
 70
     0
 40
0.0
 41
0.8
 50
0.0
 71
     0
 42
0.2
  3
txt
  4

  0
ENDTAB
  0
TABLE
  2
VIEW
 70
     0
  0
ENDTAB
  0
TABLE
  2
UCS
 70
     0
  0
ENDTAB
  0
TABLE
  2
APPID
 70
    11
  0
APPID
  2
ACAD
 70
     0
  0
APPID
  2
ACAD_MLEADERVER
 70
     0
  0
APPID
  2
ACAD_EXEMPT_FROM_CAD_STANDARDS
 70
     0
  0
APPID
  2
ACAD_NAV_VCDISPLAY
 70
     0
  0
APPID
  2
ACAECLAYERSTANDARD
 70
     0
  0
APPID
  2
ACCMTRANSPARENCY
 70
     0
  0
APPID
  2
ACAD_DSTYLE_DIMJAG
 70
     0
  0
APPID
  2
ACAD_DSTYLE_DIMTALN
 70
     0
  0
APPID
  2
ACDBATTR
 70
     0
  0
APPID
  2
ACADANNOTATIVE
 70
     0
  0
APPID
  2
DCO15
 70
     0
  0
ENDTAB
  0
TABLE
  2
DIMSTYLE
 70
     1
  0
DIMSTYLE
  2
STANDARD
 70
     0
  3

  4

  5

  6

  7

 40
1.0
 41
0.1875
 42
0.0625
 43
0.38
 44
0.125
 45
0.0
 46
0.0
 47
0.01
 48
0.01
140
0.15625
141
0.09
142
0.0
143
25.3999999999999986
144
1.0
145
0.0
146
1.0
147
0.09
 71
     1
 72
     0
 73
     1
 74
     1
 75
     0
 76
     0
 77
     0
 78
     4
170
     0
171
     2
172
     0
173
     0
174
     0
175
     0
176
     0
177
     0
178
     0
  0
ENDTAB
  0
ENDSEC
  0
SECTION
  2
BLOCKS
  0
BLOCK
  8
0
  2
$MODEL_SPACE
 70
     0
 10
0.0
 20
0.0
 30
0.0
  3
$MODEL_SPACE
  1

  0
ENDBLK
  5
21
  8
0
  0
BLOCK
 67
     1
  8
0
  2
$PAPER_SPACE
 70
     0
 10
0.0
 20
0.0
 30
0.0
  3
$PAPER_SPACE
  1

  0
ENDBLK
  5
1D
 67
     1
  8
0
  0
ENDSEC
  0
SECTION
  2
ENTITIES
  0
ATTDEF
  5
26A5B
  8
DEFPOINTS
 10
6585.6086039846713902
 20
280.1755275895425257
 30
0.0
 40
0.001
  1
P34863-CP
  3

  2
MODELNUMBER
 70
     0
1001
ACDBATTR
1070
     0
1070
     1
  0
ATTDEF
  5
26A5C
  8
DEFPOINTS
 10
6585.6084781750141701
 20
280.173860749163282
 30
0.0
 40
0.001
  1
VICE
  3

  2
TRADENAME
 70
     0
1001
ACDBATTR
1070
     0
1070
     1
  0
ATTDEF
  5
26A5D
  8
DEFPOINTS
 10
6585.6086039846713902
 20
280.1721942562091954
 30
0.0
 40
0.001
  1
BATHROOM SINK FAUCET
  3

  2
PRODUCT
 70
     0
1001
ACDBATTR
1070
     0
1070
     1
  0
LINE
  5
2EA39
  8
0
 10
6584.3627528718607209
 20
280.1716240076610802
 30
0.0
 11
6586.8627528718598114
 21
280.1716240076610802
 31
0.0
  0
LINE
  5
2EA3A
  8
0
 10
6584.761846749533106
 20
280.5666240076611189
 30
0.0
 11
6586.4636589943611398
 21
280.5666240076611189
 31
0.0
  0
LINE
  5
2EA3B
  8
0
 10
6584.3627528718607209
 20
280.4213106805610778
 30
0.0
 11
6584.3627528718607209
 21
280.1716240076610802
 31
0.0
  0
LINE
  5
2EA3C
  8
0
 10
6584.3859742397080481
 20
280.4528285858411891
 30
0.0
 11
6584.7440674183480951
 21
280.5639292899886073
 31
0.0
  0
ARC
  5
2EA3D
  8
0
 10
6584.3957528718619869
 20
280.4213106805610778
 30
0.0
 40
0.033
 50
107.236838399682199
 51
179.9999999999967031
  0
ARC
  5
2EA3E
  8
0
 10
6584.761846749533106
 20
280.5066240076611166
 30
0.0
 40
0.06
 50
90.0
 51
107.2368383996812042
  0
LINE
  5
2EA3F
  8
0
 10
6584.3859742397607988
 20
280.4528285858610843
 30
0.0
 11
6586.8395315040597779
 21
280.4528285858610843
 31
0.0
  0
LINE
  5
2EA40
  8
0
 10
6584.8389321856611787
 20
291.4330903953098755
 30
0.0
 11
6584.8389328718612887
 21
292.3432295750891967
 31
0.0
  0
LINE
  5
2EA41
  8
0
 10
6578.1127728718611252
 20
291.2952040076611979
 30
0.0
 11
6584.7010476283921889
 21
291.2952040076611979
 31
0.0
  0
LINE
  5
2EA42
  8
0
 10
6578.8301029701633524
 20
290.1928440076611082
 30
0.0
 11
6582.0531680537606007
 21
290.1928440076611082
 31
0.0
  0
LINE
  5
2EA43
  8
0
 10
6577.6889992787309893
 20
289.5652040076611797
 30
0.0
 11
6578.5365064650895874
 21
289.5652040076611797
 31
0.0
  0
LINE
  5
2EA44
  8
0
 10
6577.5703596684252261
 20
289.6714172110966956
 30
0.0
 11
6578.6551460752962157
 21
289.671417210996708
 31
0.0
  0
LINE
  5
2EA45
  8
0
 10
6577.5703596684252261
 20
289.6714172110966956
 30
0.0
 11
6577.6677860752970446
 21
289.5739908042255024
 31
0.0
  0
LINE
  5
2EA46
  8
0
 10
6578.6551460752962157
 20
289.671417210996708
 30
0.0
 11
6578.5577196685253512
 21
289.5739908042255024
 31
0.0
  0
LINE
  5
2EA47
  8
0
 10
6577.5615728718612445
 20
290.7440040076610899
 30
0.0
 11
6577.5615728718612445
 21
289.6926304145324025
 31
0.0
  0
ARC
  5
2EA48
  8
0
 10
6578.1127728718611252
 20
290.7440040076610899
 30
0.0
 40
0.5512000000000001
 50
90.0
 51
180.0
  0
ARC
  5
2EA49
  8
0
 10
6577.5915728718609898
 20
289.6926304145324025
 30
0.0
 40
0.03
 50
179.9999999999934914
 51
225.0
  0
ARC
  5
2EA4A
  8
0
 10
6577.6889992787309893
 20
289.5952040076612093
 30
0.0
 40
0.03
 50
224.9999999999976978
 51
270.0
  0
LINE
  5
2EA4B
  8
0
 10
6578.6639328718611068
 20
289.6926304144323012
 30
0.0
 11
6578.6639328718611068
 21
290.0378310744612236
 31
0.0
  0
ARC
  5
2EA4C
  8
0
 10
6578.6339328718613615
 20
289.6926304144323012
 30
0.0
 40
0.03
 50
315.0
 51
0.0000000000097707
  0
ARC
  5
2EA4D
  8
0
 10
6578.5365064650895874
 20
289.5952040076612093
 30
0.0
 40
0.03
 50
270.0
 51
315.0000000000022737
  0
ARC
  5
2EA4E
  8
0
 10
6578.8301483562763678
 20
290.026223734138398
 30
0.0
 40
0.1666202797041087
 50
90.0156069409667623
 51
176.0053439690840946
  0
ARC
  5
2EA4F
  8
0
 10
6584.701867887055414
 20
291.432268317167825
 30
0.0
 40
0.1370667638956067
 50
269.6571186280006032
 51
0.3436419524728123
  0
LINE
  5
2EA50
  8
0
 10
6584.8392611138597204
 20
292.414295312961201
 30
0.0
 11
6586.3892611138608117
 21
292.414295312961201
 31
0.0
  0
LINE
  5
2EA51
  8
0
 10
6584.8242611138603024
 20
292.4292953129611874
 30
0.0
 11
6584.8242611138603024
 21
292.7831204622610812
 31
0.0
  0
ARC
  5
2EA52
  8
0
 10
6584.8392611138597204
 20
292.4292953129611874
 30
0.0
 40
0.015
 50
179.9999999999870113
 51
270.0
  0
ARC
  5
2EA53
  8
0
 10
6584.8539328718597972
 20
292.3432295750891967
 30
0.0
 40
0.015
 50
90.0
 51
180.0
  0
LINE
  5
2EA54
  8
0
 10
6584.8492611138608481
 20
292.8081204622611153
 30
0.0
 11
6586.1016765710055552
 21
292.8081204622611153
 31
0.0
  0
ARC
  5
2EA55
  8
0
 10
6585.4472229160601273
 20
292.290194007661114
 30
0.0
 40
0.4934700442003511
 50
165.4275361312988082
 51
172.0752890558964907
  0
ARC
  5
2EA56
  8
0
 10
6584.8492611138608481
 20
292.7831204622610812
 30
0.0
 40
0.025
 50
90.0
 51
180.0000000000032117
  0
LINE
  5
2EA57
  8
0
 10
6582.5557682307598952
 20
293.6783965346397736
 30
0.0
 11
6582.5557682391599883
 21
293.574224504561073
 31
0.0
  0
LINE
  5
2EA58
  8
0
 10
6582.5696682307598167
 20
293.6922953129611074
 30
0.0
 11
6585.8033732600879375
 21
293.6922951531598756
 31
0.0
  0
LINE
  5
2EA59
  8
0
 10
6586.2033719429609846
 20
293.2922953129610733
 30
0.0
 11
6586.2033722861915521
 21
293.1850536813129224
 31
0.0
  0
LINE
  5
2EA5A
  8
0
 10
6586.3953590705114038
 20
293.040487269861103
 30
0.0
 11
6586.2697352505856543
 21
293.0887191349845011
 31
0.0
  0
LINE
  5
2EA5B
  8
0
 10
6586.4042611060613126
 20
293.0255654642610921
 30
0.0
 11
6586.4042607637611582
 21
292.9020774103610734
 31
0.0
  0
LINE
  5
2EA5C
  8
0
 10
6586.4042611138620487
 20
292.6721132490611126
 30
0.0
 11
6586.4042611138620487
 21
292.4292953129611874
 31
0.0
  0
ARC
  5
2EA5D
  8
0
 10
6586.3892611138608117
 20
292.4292953129611874
 30
0.0
 40
0.015
 50
270.0
 51
0.0000000000065138
  0
ARC
  5
2EA5E
  8
0
 10
6587.2029929488189737
 20
292.7870965457095735
 30
0.0
 40
0.8069657382344855
 50
171.8083066808808894
 51
188.1918677745815103
  0
ARC
  5
2EA5F
  8
0
 10
6586.3873323760262792
 20
293.0255824262202964
 30
0.0
 40
0.0169287385329991
 50
359.9425917746802952
 51
61.6962361005361331
  0
ARC
  5
2EA60
  8
0
 10
6586.306484760456442
 20
293.1850753533656189
 30
0.0
 40
0.1031124765404208
 50
180.0120423561182861
 51
217.9059047073590136
  0
ARC
  5
2EA61
  8
0
 10
6586.3047342228837806
 20
293.1826661675086143
 30
0.0
 40
0.100254540954105
 50
217.4341658605096939
 51
249.5676546853133004
  0
ARC
  5
2EA62
  8
0
 10
6585.8044235812440093
 20
293.2933467884029142
 30
0.0
 40
0.3989497473577002
 50
359.8489905678043215
 51
90.1508436570052254
  0
LINE
  5
2EA63
  8
0
 10
6577.7230156140703912
 20
291.1337612654510849
 30
0.0
 11
6578.7164913211572639
 21
290.1480613144514109
 31
0.0
  0
LINE
  5
2EA64
  8
0
 10
6582.0818468318420855
 20
290.201886459708021
 30
0.0
 11
6582.7972687911478715
 21
290.7027064519012924
 31
0.0
  0
LINE
  5
2EA65
  8
0
 10
6582.3065048808366555
 20
290.32219400766121
 30
0.0
 11
6584.8264037276603631
 21
290.32219400766121
 31
0.0
  0
LINE
  5
2EA66
  8
0
 10
6584.8498843733614194
 20
290.347235089461094
 30
0.0
 11
6584.8642789826071748
 21
290.4077920012505274
 31
0.0
  0
LINE
  5
2EA67
  8
0
 10
6584.8642789826071748
 20
290.4077920012505274
 30
0.0
 11
6584.871427497761033
 21
290.4316620290611013
 31
0.0
  0
LINE
  5
2EA68
  8
0
 10
6584.8763177785758671
 20
290.6198438689946784
 30
0.0
 11
6584.8753630583596532
 21
290.4595335295610994
 31
0.0
  0
ARC
  5
2EA69
  8
0
 10
6584.7818857424053931
 20
290.4585192696002878
 30
0.0
 40
0.0934828183236351
 50
343.3038589699697241
 51
0.6216538645502891
  0
ARC
  5
2EA6A
  8
0
 10
6583.393660644751435
 20
290.2861558344861237
 30
0.0
 40
1.8450660459116279
 50
23.1202929277281797
 51
38.4347147772748627
  0
ARC
  5
2EA6B
  8
0
 10
6584.8496960058510012
 20
290.9089227738497812
 30
0.0
 40
0.2614403524985281
 50
347.5582297854228955
 51
22.8974525933250206
  0
ARC
  5
2EA6C
  8
0
 10
6584.911453696130593
 20
290.8952972579382958
 30
0.0
 40
0.1981974320052136
 50
312.1790206067562963
 51
347.5582297854228955
  0
ARC
  5
2EA6D
  8
0
 10
6585.8836654939750588
 20
290.1511829079709059
 30
0.0
 40
1.0299702131445629
 50
144.5592001411978913
 51
151.9858086690381072
  0
ARC
  5
2EA6E
  8
0
 10
6584.9521483283779162
 20
290.6436580429930245
 30
0.0
 40
0.0238722120854461
 50
273.9960956083098722
 51
338.6057723384914198
  0
LINE
  5
2EA6F
  8
0
 10
6584.9538119469134472
 20
290.6198438689946784
 30
0.0
 11
6584.8763177785758671
 21
290.6198438689946784
 31
0.0
  0
LINE
  5
2EA70
  8
0
 10
6584.8539328718597972
 20
292.3582295750891831
 30
0.0
 11
6586.3715728718598257
 21
292.3582295750891831
 31
0.0
  0
ARC
  5
2EA71
  8
0
 10
6582.5696654150142422
 20
293.6783981289016765
 30
0.0
 40
0.0138971843446538
 50
89.9883911438218149
 51
180.0065728769702105
  0
LINE
  5
2EA72
  8
0
 10
6585.2417528541609499
 20
293.3629192391140919
 30
0.0
 11
6585.2417528718597168
 21
292.831369367261118
 31
0.0
  0
LINE
  5
2EA73
  8
0
 10
6585.2517528522612338
 20
293.3729192376611081
 30
0.0
 11
6585.6026490643607758
 21
293.3667958465611036
 31
0.0
  0
LINE
  5
2EA74
  8
0
 10
6585.2515757868595756
 20
292.8199476340611227
 30
0.0
 11
6584.8492611138608481
 21
292.8081204622611153
 31
0.0
  0
LINE
  5
2EA75
  8
0
 10
6585.5890249000613039
 20
292.8199476340611227
 30
0.0
 11
6585.2515757868595756
 21
292.8199476340611227
 31
0.0
  0
LINE
  5
2EA76
  8
0
 10
6585.684448887288454
 20
292.9160487992194817
 30
0.0
 11
6585.6844910945101219
 21
293.2944309566938728
 31
0.0
  0
ARC
  5
2EA77
  8
0
 10
6585.5981618143714513
 20
293.2792583231466779
 30
0.0
 40
0.0876524581400649
 50
9.9681041562454347
 51
87.0655367208849356
  0
ARC
  5
2EA78
  8
0
 10
6585.2517528522612338
 20
293.3629192395612222
 30
0.0
 40
0.0099999980999961
 50
90.0
 51
180.0000025615846937
  0
ARC
  5
2EA79
  8
0
 10
6585.5634162407131953
 20
292.9408022148049895
 30
0.0
 40
0.1235379825010122
 50
281.9638096940228138
 51
348.441351458405677
  0
ARC
  5
2EA7A
  8
0
 10
6585.2547497111800112
 20
292.8326120879114001
 30
0.0
 40
0.0130561168388263
 50
185.4618539086893065
 51
255.930502612743993
  0
LINE
  5
2EA7B
  8
0
 10
6585.6081869548288523
 20
293.3729490017951775
 30
0.0
 11
6582.6853866028595803
 21
293.4241600743611116
 31
0.0
  0
LINE
  5
2EA7C
  8
0
 10
6582.6403377318611092
 20
293.4458557730611119
 30
0.0
 11
6582.5723571511462069
 21
293.5281171706175201
 31
0.0
  0
ARC
  5
2EA7D
  8
0
 10
6582.627904710166149
 20
293.5741378878784076
 30
0.0
 40
0.0721348579419972
 50
179.9327850499419981
 51
219.6414819596076882
  0
ARC
  5
2EA7E
  8
0
 10
6582.6866400234348475
 20
293.4843922739457867
 30
0.0
 40
0.0602452398944731
 50
219.7664550470780966
 51
268.8078578318986729
  0
LINE
  5
2EA7F
  8
0
 10
6585.3143173829957959
 20
293.3780979596970724
 30
0.0
 11
6585.3205816178297027
 21
293.3717181262327927
 31
0.0
  0
ARC
  5
2EA80
  8
0
 10
6585.5940351671752069
 20
293.2828608883909851
 30
0.0
 40
0.0911928794945812
 50
7.2890296701330781
 51
81.0724610672171053
  0
ARC
  5
2EA81
  8
0
 10
6582.053167720429883
 20
290.242844680354608
 30
0.0
 40
0.0500006726945802
 50
270.0003819639155722
 51
304.9998642683989942
  0
ARC
  5
2EA82
  8
0
 10
6582.306416992279992
 20
290.3419763160425191
 30
0.0
 40
0.0197825036154237
 50
169.853045280923709
 51
270.2545511948998751
  0
LINE
  5
2EA83
  8
0
 10
6583.0033455097600381
 20
290.7448438235610979
 30
0.0
 11
6584.7469862465595725
 21
290.7447779035612143
 31
0.0
  0
ARC
  5
2EA84
  8
0
 10
6584.7554983634217933
 20
290.6241807098418235
 30
0.0
 40
0.1208972260493622
 50
357.9442373690658883
 51
94.037414576300236
  0
LINE
  5
2EA85
  8
0
 10
6586.2096137687940427
 20
293.1497455671678267
 30
0.0
 11
6586.2096192610797516
 21
292.9017851058208066
 31
0.0
  0
ARC
  5
2EA86
  8
0
 10
6586.097918466880401
 20
292.9214823922519031
 30
0.0
 40
0.11342420604899
 50
271.8987386351456053
 51
349.9992922735019079
  0
LINE
  5
2EA87
  8
0
 10
6586.3865728718610626
 20
292.3432295750891967
 30
0.0
 11
6586.3865728718610626
 21
291.0650622698788084
 31
0.0
  0
ARC
  5
2EA88
  8
0
 10
6586.3715728718598257
 20
291.0650622698788084
 30
0.0
 40
0.015
 50
300.0350713419260273
 51
0.0
  0
LINE
  5
2EA89
  8
0
 10
6586.3804899576607568
 20
291.0148933394610822
 30
0.0
 11
6586.3804899576607568
 21
289.7268157339780146
 31
0.0
  0
LINE
  5
2EA8A
  8
0
 10
6586.3865616234561458
 20
289.6813322488367817
 30
0.0
 11
6586.3865616234561458
 21
280.5666240076611189
 31
0.0
  0
ARC
  5
2EA8B
  8
0
 10
6586.3715728718598257
 20
292.3432295750891967
 30
0.0
 40
0.015
 50
0.0
 51
90.0
  0
ARC
  5
2EA8C
  8
0
 10
6585.7782828276613145
 20
292.290194007661114
 30
0.0
 40
0.4934700442003511
 50
7.9247109441035057
 51
14.57246386870119
  0
ARC
  5
2EA8D
  8
0
 10
6586.6457387995496902
 20
290.8991967488285013
 30
0.0
 40
0.3231944936138604
 50
157.7181937102064921
 51
174.003707271847901
  0
ARC
  5
2EA8E
  8
0
 10
6586.8607015504721858
 20
290.8892040800208747
 30
0.0
 40
0.5381705882449422
 50
175.3365326094454986
 51
179.0428520915160107
  0
LINE
  5
2EA8F
  8
0
 10
6586.3226060540609978
 20
290.8981940073610986
 30
0.0
 11
6586.3226060540609978
 21
289.8481940076611068
 31
0.0
  0
ARC
  5
2EA90
  8
0
 10
6586.6694883076652332
 20
289.8477372417655147
 30
0.0
 40
0.3468825543329402
 50
179.924554390875187
 51
190.4972178779069054
  0
ARC
  5
2EA91
  8
0
 10
6586.6006304221582468
 20
289.8349786453968022
 30
0.0
 40
0.2768526308879452
 50
190.4972178779069054
 51
203.6747638115691075
  0
ARC
  5
2EA92
  8
0
 10
6586.4111745377840634
 20
289.7519128337498273
 30
0.0
 40
0.0699868261049268
 50
203.6747638115662085
 51
218.666167757910813
  0
ARC
  5
2EA93
  8
0
 10
6586.3663682365886416
 20
289.7160596359505007
 30
0.0
 40
0.0126016675773009
 50
218.666167757910813
 51
231.9953772902997002
  0
LINE
  5
2EA94
  8
0
 10
6586.358609074173728
 20
289.7061300123747856
 30
0.0
 11
6586.3790611935946799
 21
289.6943228780648951
 31
0.0
  0
ARC
  5
2EA95
  8
0
 10
6586.3715616234549088
 20
289.6813322488367817
 30
0.0
 40
0.015
 50
0.0
 51
60.0018959433120784
  0
LINE
  5
2EA96
  8
0
 10
6586.3585160431593977
 20
291.0401866116611131
 30
0.0
 11
6586.3790808220028339
 21
291.0520764820831801
 31
0.0
  0
ARC
  5
2EA97
  8
0
 10
6586.402991381351967
 20
290.998620515244113
 30
0.0
 40
0.0608752501316341
 50
136.9365529799304966
 51
157.6797257127107059
  0
ARC
  5
2EA98
  8
0
 10
6586.3607725141791889
 20
291.0153598777920934
 30
0.0
 40
0.019722962137592
 50
358.6445661358192183
 51
112.9167238510678004
  0
ARC
  5
2EA99
  8
0
 10
6586.3612951345303372
 20
289.7300206390927997
 30
0.0
 40
0.0194605408918703
 50
246.630808407980993
 51
350.5209269039568198
  0
ARC
  5
2EA9A
  8
0
 10
6582.9992499291838612
 20
290.2946408975627151
 30
0.0
 40
0.4502215547458995
 50
89.4787839102963858
 51
123.8210562989304009
  0
ARC
  5
2EA9B
  8
0
 10
6584.8246741932907753
 20
290.3473450310435169
 30
0.0
 40
0.0252104197965651
 50
273.9338066418671929
 51
359.7501347188468799
  0
LINE
  5
2EA9C
  8
0
 10
6584.8389328718612887
 20
290.3265542794517273
 30
0.0
 11
6584.8389328718612887
 21
280.5666240076611189
 31
0.0
  0
LINE
  5
2EA9D
  8
0
 10
6586.8627528718598114
 20
280.4213106805610778
 30
0.0
 11
6586.8627528718598114
 21
280.1716240076610802
 31
0.0
  0
LINE
  5
2EA9E
  8
0
 10
6586.8395315040133937
 20
280.4528285858411891
 30
0.0
 11
6586.4814383253733467
 21
280.5639292899886073
 31
0.0
  0
ARC
  5
2EA9F
  8
0
 10
6586.8297528718603644
 20
280.4213106805610778
 30
0.0
 40
0.033
 50
0.0000000000032569
 51
72.7631616003178152
  0
ARC
  5
2EAA0
  8
0
 10
6586.4636589941883358
 20
280.5066240076611166
 30
0.0
 40
0.06
 50
72.7631616003187958
 51
90.0
  0
LINE
  5
2EAA1
  8
0
 10
6583.2489598761612797
 20
290.8779867839612052
 30
0.0
 11
6584.8995679127338008
 21
290.8779867839612052
 31
0.0
  0
ARC
  5
2EAA2
  8
0
 10
6583.3491357576467635
 20
289.9502927906368086
 30
0.0
 40
0.933087001560764
 50
96.1631324390340438
 51
126.2585448356233968
  0
ARC
  5
2EAA3
  8
0
 10
6584.8877755870053079
 20
291.355224647824798
 30
0.0
 40
0.4773835330751367
 50
271.4154640439613786
 51
297.7495304467532833
  0
LINE
  5
2EAA5
  8
0
 10
6582.5723571511471164
 20
293.5281171706159853
 30
0.0
 11
6585.610213965859657
 21
293.4767158421611271
 31
0.0
  0
ARC
  5
2EAA6
  8
0
 10
6585.6069347015300082
 20
293.2946590827888258
 30
0.0
 40
0.1820862905539906
 50
0.0028379979033948
 51
88.9680817621449336
  0
LINE
  5
2EAA7
  8
0
 10
6585.7890209918596156
 20
293.2946681019611219
 30
0.0
 11
6585.7884277070861572
 21
292.9121651286915267
 31
0.0
  0
ARC
  5
2EAA8
  8
0
 10
6585.6353364757642339
 20
292.9051536615197051
 30
0.0
 40
0.1532517072670192
 50
320.7161834565964114
 51
2.622272630130638
  0
ENDSEC
  0
EOF
