  0
SECTION
  2
HEADER
  9
$ACADVER
  1
AC1009
  9
$INSBASE
 10
5637.9899226726520283
 20
307.1060418473877007
 30
0.0
  9
$EXTMIN
 10
5630.7037854562731809
 20
300.039322438226975
 30
-0.0015258207003583
  9
$EXTMAX
 10
5645.3484500479280541
 20
308.2466272132210179
 30
0.0000000349246037
  9
$LIMMIN
 10
0.0
 20
0.0
  9
$LIMMAX
 10
11.6929133858000007
 20
8.2677165353999982
  9
$ORTHOMODE
 70
     0
  9
$REGENMODE
 70
     1
  9
$FILLMODE
 70
     1
  9
$QTEXTMODE
 70
     0
  9
$MIRRTEXT
 70
     0
  9
$DRAGMODE
 70
     2
  9
$LTSCALE
 40
0.6431102362
  9
$OSMODE
 70
  4095
  9
$ATTMODE
 70
     1
  9
$TEXTSIZE
 40
0.2
  9
$TRACEWID
 40
0.05
  9
$TEXTSTYLE
  7
STANDARD
  9
$CLAYER
  8
0
  9
$CELTYPE
  6
BYLAYER
  9
$CECOLOR
 62
   256
  9
$DIMSCALE
 40
1.0
  9
$DIMASZ
 40
0.1875
  9
$DIMEXO
 40
0.0625
  9
$DIMDLI
 40
0.4443307087
  9
$DIMRND
 40
0.0
  9
$DIMDLE
 40
0.0
  9
$DIMEXE
 40
0.125
  9
$DIMTP
 40
0.01
  9
$DIMTM
 40
0.01
  9
$DIMTXT
 40
2.0
  9
$DIMCEN
 40
0.1052362205
  9
$DIMTSZ
 40
0.0
  9
$DIMTOL
 70
     1
  9
$DIMLIM
 70
     0
  9
$DIMTIH
 70
     1
  9
$DIMTOH
 70
     1
  9
$DIMSE1
 70
     0
  9
$DIMSE2
 70
     0
  9
$DIMTAD
 70
     0
  9
$DIMZIN
 70
     0
  9
$DIMBLK
  1

  9
$DIMASO
 70
     1
  9
$DIMSHO
 70
     1
  9
$DIMPOST
  1
\X
  9
$DIMAPOST
  1

  9
$DIMALT
 70
     1
  9
$DIMALTD
 70
     2
  9
$DIMALTF
 40
25.3999999999999986
  9
$DIMLFAC
 40
1.0
  9
$DIMTOFL
 70
     0
  9
$DIMTVP
 40
0.0
  9
$DIMTIX
 70
     0
  9
$DIMSOXD
 70
     0
  9
$DIMSAH
 70
     0
  9
$DIMBLK1
  1

  9
$DIMBLK2
  1

  9
$DIMSTYLE
  2
STANDARD
  9
$DIMCLRD
 70
     0
  9
$DIMCLRE
 70
     0
  9
$DIMCLRT
 70
     0
  9
$DIMTFAC
 40
1.0
  9
$DIMGAP
 40
0.09
  9
$LUNITS
 70
     2
  9
$LUPREC
 70
     4
  9
$SKETCHINC
 40
0.1
  9
$FILLETRAD
 40
0.0
  9
$AUNITS
 70
     0
  9
$AUPREC
 70
     0
  9
$MENU
  1
.
  9
$ELEVATION
 40
0.0
  9
$PELEVATION
 40
0.0
  9
$THICKNESS
 40
0.0
  9
$LIMCHECK
 70
     0
  9
$BLIPMODE
 70
     0
  9
$CHAMFERA
 40
0.0
  9
$CHAMFERB
 40
0.0
  9
$SKPOLY
 70
     0
  9
$TDCREATE
 40
2458060.468368056230247
  9
$TDUPDATE
 40
2460735.8058564821258187
  9
$TDINDWG
 40
0.6809677083
  9
$TDUSRTIMER
 40
0.6809677083
  9
$USRTIMER
 70
     1
  9
$ANGBASE
 50
0.0
  9
$ANGDIR
 70
     0
  9
$PDMODE
 70
     0
  9
$PDSIZE
 40
0.3125
  9
$PLINEWID
 40
0.0
  9
$COORDS
 70
     2
  9
$SPLFRAME
 70
     0
  9
$SPLINETYPE
 70
     6
  9
$SPLINESEGS
 70
     8
  9
$ATTDIA
 70
     1
  9
$ATTREQ
 70
     1
  9
$HANDLING
 70
     1
  9
$HANDSEED
  5
28E79
  9
$SURFTAB1
 70
     6
  9
$SURFTAB2
 70
     6
  9
$SURFTYPE
 70
     6
  9
$SURFU
 70
     6
  9
$SURFV
 70
     6
  9
$UCSNAME
  2

  9
$UCSORG
 10
0.0
 20
0.0
 30
0.0
  9
$UCSXDIR
 10
1.0
 20
0.0
 30
0.0
  9
$UCSYDIR
 10
0.0
 20
1.0
 30
0.0
  9
$PUCSNAME
  2

  9
$PUCSORG
 10
0.0
 20
0.0
 30
0.0
  9
$PUCSXDIR
 10
1.0
 20
0.0
 30
0.0
  9
$PUCSYDIR
 10
0.0
 20
1.0
 30
0.0
  9
$USERI1
 70
     0
  9
$USERI2
 70
     0
  9
$USERI3
 70
     0
  9
$USERI4
 70
     0
  9
$USERI5
 70
     0
  9
$USERR1
 40
0.0
  9
$USERR2
 40
0.0
  9
$USERR3
 40
0.0
  9
$USERR4
 40
0.0
  9
$USERR5
 40
0.0
  9
$WORLDVIEW
 70
     1
  9
$SHADEDGE
 70
     3
  9
$SHADEDIF
 70
    70
  9
$TILEMODE
 70
     1
  9
$MAXACTVP
 70
    64
  9
$PLIMCHECK
 70
     0
  9
$PEXTMIN
 10
1.0000000000000000E+20
 20
1.0000000000000000E+20
 30
1.0000000000000000E+20
  9
$PEXTMAX
 10
-1.0000000000000000E+20
 20
-1.0000000000000000E+20
 30
-1.0000000000000000E+20
  9
$PLIMMIN
 10
0.0
 20
0.0
  9
$PLIMMAX
 10
12.0
 20
9.0
  9
$UNITMODE
 70
     0
  9
$VISRETAIN
 70
     1
  9
$PLINEGEN
 70
     0
  9
$PSLTSCALE
 70
     1
  0
ENDSEC
  0
SECTION
  2
TABLES
  0
TABLE
  2
VPORT
 70
     1
  0
VPORT
  2
*ACTIVE
 70
     0
 10
0.0
 20
0.0
 11
1.0
 21
1.0
 12
1726.6607613067878901
 22
171.5633697231849055
 13
0.0
 23
0.0
 14
1.0
 24
1.0
 15
0.0
 25
0.0
 16
0.0
 26
0.0
 36
60.4960186965801583
 17
3911.3653564453120453
 27
132.5796051025390057
 37
0.0
 40
8.2710921178048125
 41
2.4370946822308679
 42
50.0
 43
0.0
 44
0.0
 50
0.0
 51
0.0
 71
     0
 72
   100
 73
     1
 74
     1
 75
     0
 76
     0
 77
     0
 78
     0
  0
ENDTAB
  0
TABLE
  2
LTYPE
 70
     2
  0
LTYPE
  2
CONTINUOUS
 70
     0
  3
Solid line
 72
    65
 73
     0
 40
0.0
  0
LTYPE
  2
PHANTOM2
 70
     0
  3
___ _ _ ___ _ _ ___ _ _ ___ _ _
 72
    65
 73
     6
 40
1.25
 49
0.625
 49
-0.125
 49
0.125
 49
-0.125
 49
0.125
 49
-0.125
  0
ENDTAB
  0
TABLE
  2
LAYER
 70
     2
  0
LAYER
  2
0
 70
     0
 62
   255
  6
CONTINUOUS
  0
LAYER
  2
DEFPOINTS
 70
     0
 62
     7
  6
CONTINUOUS
  0
ENDTAB
  0
TABLE
  2
STYLE
 70
     1
  0
STYLE
  2
STANDARD
 70
     0
 40
0.0
 41
0.8
 50
0.0
 71
     0
 42
0.2
  3
txt
  4

  0
ENDTAB
  0
TABLE
  2
VIEW
 70
     0
  0
ENDTAB
  0
TABLE
  2
UCS
 70
     0
  0
ENDTAB
  0
TABLE
  2
APPID
 70
    11
  0
APPID
  2
ACAD
 70
     0
  0
APPID
  2
ACAD_MLEADERVER
 70
     0
  0
APPID
  2
ACAD_EXEMPT_FROM_CAD_STANDARDS
 70
     0
  0
APPID
  2
ACAD_NAV_VCDISPLAY
 70
     0
  0
APPID
  2
ACAECLAYERSTANDARD
 70
     0
  0
APPID
  2
ACCMTRANSPARENCY
 70
     0
  0
APPID
  2
ACAD_DSTYLE_DIMJAG
 70
     0
  0
APPID
  2
ACAD_DSTYLE_DIMTALN
 70
     0
  0
APPID
  2
ACDBATTR
 70
     0
  0
APPID
  2
ACADANNOTATIVE
 70
     0
  0
APPID
  2
DCO15
 70
     0
  0
ENDTAB
  0
TABLE
  2
DIMSTYLE
 70
     1
  0
DIMSTYLE
  2
STANDARD
 70
     0
  3

  4

  5

  6

  7

 40
1.0
 41
0.1875
 42
0.0625
 43
0.38
 44
0.125
 45
0.0
 46
0.0
 47
0.01
 48
0.01
140
0.15625
141
0.09
142
0.0
143
25.3999999999999986
144
1.0
145
0.0
146
1.0
147
0.09
 71
     1
 72
     0
 73
     1
 74
     1
 75
     0
 76
     0
 77
     0
 78
     4
170
     0
171
     2
172
     0
173
     0
174
     0
175
     0
176
     0
177
     0
178
     0
  0
ENDTAB
  0
ENDSEC
  0
SECTION
  2
BLOCKS
  0
BLOCK
  8
0
  2
$MODEL_SPACE
 70
     0
 10
0.0
 20
0.0
 30
0.0
  3
$MODEL_SPACE
  1

  0
ENDBLK
  5
21
  8
0
  0
BLOCK
 67
     1
  8
0
  2
$PAPER_SPACE
 70
     0
 10
0.0
 20
0.0
 30
0.0
  3
$PAPER_SPACE
  1

  0
ENDBLK
  5
1D
 67
     1
  8
0
  0
BLOCK
  8
0
  2
_FILLED
 70
     0
 10
0.0
 20
0.0
 30
0.0
  3
_FILLED
  1

  0
SOLID
  5
257AF
  8
0
  6
BYBLOCK
 62
     0
 10
0.0
 20
0.0
 30
0.0
 11
-1.0
 21
0.1666666667
 31
0.0
 12
-1.0
 22
-0.1666666667
 32
0.0
 13
-1.0
 23
-0.1666666667
 33
0.0
  0
ENDBLK
  5
257B0
  8
0
  6
BYBLOCK
 62
     0
  0
ENDSEC
  0
SECTION
  2
ENTITIES
  0
ATTDEF
  5
256E4
  8
DEFPOINTS
 10
5637.9808703652743134
 20
307.1104552633566982
 30
0.0
 40
0.001
  1
P34864-BN
  3

  2
MODELNUMBER
 70
     0
1001
ACDBATTR
1070
     0
1070
     1
  0
ATTDEF
  5
256E5
  8
DEFPOINTS
 10
5637.9807445556170933
 20
307.108788422977625
 30
0.0
 40
0.001
  1
VICE
  3

  2
TRADENAME
 70
     0
1001
ACDBATTR
1070
     0
1070
     1
  0
ATTDEF
  5
256E6
  8
DEFPOINTS
 10
5637.9808703652743134
 20
307.1071219300234247
 30
0.0
 40
0.001
  1
BATHROOM SINK FAUCET
  3

  2
PRODUCT
 70
     0
1001
ACDBATTR
1070
     0
1070
     1
  0
LINE
  5
28BDD
  8
0
 10
5635.0008549784379284
 20
306.8145703185683146
 30
0.0
 11
5635.0008549784379284
 21
307.3975133762069731
 31
0.0
  0
LINE
  5
28BDE
  8
0
 10
5637.4387477527170631
 20
300.6060294824222865
 30
0.0
 11
5637.4387477527170631
 21
304.8935577488625199
 31
0.0
  0
LINE
  5
28BDF
  8
0
 10
5631.8420914888865809
 20
307.4060418473877121
 30
0.0
 11
5633.4721331319242381
 21
307.4060418473877121
 31
0.0
  0
LINE
  5
28BE0
  8
0
 10
5634.5077251679786059
 20
307.4060418473877121
 30
0.0
 11
5634.9844719376169451
 21
307.4060418473877121
 31
0.0
  0
LINE
  5
28BE1
  8
0
 10
5631.8420914888865809
 20
306.8060418473875757
 30
0.0
 11
5633.4721331319242381
 21
306.8060418473875757
 31
0.0
  0
LINE
  5
28BE2
  8
0
 10
5634.5077251679786059
 20
306.8060418473875757
 30
0.0
 11
5634.9844719376169451
 21
306.8060418473875757
 31
0.0
  0
CIRCLE
  5
28BE3
  8
0
 10
5631.3340560570522939
 20
307.1060418473877007
 30
0.0
 40
0.5900000000000001
  0
ARC
  5
28BE4
  8
0
 10
5633.9899288551514474
 20
307.1060418473877007
 30
0.0
 40
1.125
 50
195.4660099534254982
 51
164.5339900465745018
  0
CIRCLE
  5
28BE5
  8
0
 10
5633.989929149951422
 20
307.1060418473877007
 30
0.0
 40
0.5984251969000001
  0
ARC
  5
28BE6
  8
0
 10
5633.9899288551514474
 20
307.1060418473877007
 30
0.0
 40
0.7505012725000011
 50
203.5614776576275062
 51
336.4385223423724938
  0
ARC
  5
28BE7
  8
0
 10
5633.9899288551514474
 20
307.1060418473877007
 30
0.0
 40
0.7505012725000011
 50
23.5614776576274991
 51
156.4385223423724938
  0
LINE
  5
28BE8
  8
0
 10
5635.0726063153506402
 20
307.2887358715381083
 30
0.0
 11
5635.0726063153506402
 21
306.9233478232371795
 31
0.0
  0
LINE
  5
28BE9
  8
0
 10
5635.0008549784379284
 20
307.3975133762069731
 30
0.0
 11
5635.0689893562421275
 21
307.3002074002574773
 31
0.0
  0
ARC
  5
28BEA
  8
0
 10
5635.0526063153511132
 20
307.2887358715381083
 30
0.0
 40
0.02
 50
359.9999999999902229
 51
34.9999999731494071
  0
ARC
  5
28BEB
  8
0
 10
5634.9844719376169451
 20
307.3860418473876734
 30
0.0
 40
0.019999999999973
 50
35.0000003227908181
 51
90.0
  0
LINE
  5
28BEC
  8
0
 10
5635.0008549784379284
 20
306.8145703185683146
 30
0.0
 11
5635.0689893562421275
 21
306.9118762945179242
 31
0.0
  0
ARC
  5
28BED
  8
0
 10
5635.0526063153511132
 20
306.9233478232371795
 30
0.0
 40
0.02
 50
325.0000000268506142
 51
0.0000000000097707
  0
ARC
  5
28BEE
  8
0
 10
5634.9844719376169451
 20
306.8260418473876143
 30
0.0
 40
0.019999999999973
 50
270.0
 51
324.9999996772090753
  0
CIRCLE
  5
28BEF
  8
0
 10
5633.9899288551514474
 20
307.1060418473877007
 30
0.0
 40
0.4721608554999999
  0
ARC
  5
28BF0
  8
0
 10
5637.9899226726520283
 20
307.1060418473877007
 30
0.0
 40
1.1249938175000389
 50
297.6860963605967072
 51
242.3139036394032928
  0
ARC
  5
28BF1
  8
0
 10
5637.9899226726520283
 20
307.1060418473877007
 30
0.0
 40
0.5511749199346739
 50
341.5034364977951213
 51
198.4965635022049071
  0
ARC
  5
28BF2
  8
0
 10
5649.5267060232008589
 20
304.0091911328385095
 30
0.0
 40
12.1202656514000395
 50
174.5066761725776132
 51
175.8156408442748102
  0
ARC
  5
28BF3
  8
0
 10
5636.3253087508001045
 20
305.2787886239884187
 30
0.0
 40
1.142040623652409
 50
354.5066761725776132
 51
359.1374648141976991
  0
LINE
  5
28BF4
  8
0
 10
5637.4672199692513459
 20
305.2615969036889965
 30
0.0
 11
5637.4672199692513459
 21
307.2809008655232219
 31
0.0
  0
LINE
  5
28BF5
  8
0
 10
5637.7312775860509646
 20
307.5759266468023725
 30
0.0
 11
5637.7312775860509646
 21
306.3153287790290165
 31
0.0
  0
ARC
  5
28BF6
  8
0
 10
5637.7127113291517162
 20
307.5591461759876211
 30
0.0
 40
0.0200000000000002
 50
21.8266726590400211
 51
120.4998476959662952
  0
ARC
  5
28BF7
  8
0
 10
5637.9899288551523568
 20
307.1015780705877205
 30
0.0
 40
0.5509999999999436
 50
90.0006428877515958
 51
116.7076067551628995
  0
ARC
  5
28BF8
  8
0
 10
5637.7512775860514012
 20
307.5759266468023725
 30
0.0
 40
0.02
 50
116.7075950187165034
 51
180.0000000000098055
  0
ARC
  5
28BF9
  8
0
 10
5637.91670319163768
 20
306.3358466613506152
 30
0.0
 40
0.1865573335532009
 50
186.3142574517137007
 51
204.7015513550726098
  0
ARC
  5
28BFA
  8
0
 10
5637.8854742051771609
 20
306.3227890289064135
 30
0.0
 40
0.1527338380306889
 50
205.1470341620648128
 51
228.2375363704356062
  0
ARC
  5
28BFB
  8
0
 10
5637.8860910781440907
 20
306.3234798741091254
 30
0.0
 40
0.1536600126102765
 50
228.2375363704356062
 51
254.5315170239566953
  0
ARC
  5
28BFC
  8
0
 10
5637.9542506858078923
 20
306.7363251070959222
 30
0.0
 40
0.5714585176998784
 50
258.989522657123814
 51
266.0780234686587278
  0
ARC
  5
28BFD
  8
0
 10
5637.9897889210687936
 20
307.099148086463174
 30
0.0
 40
0.9359230178911127
 50
265.4267270792730073
 51
270.0081880678239941
  0
ARC
  5
28BFE
  8
0
 10
5637.9899226726520283
 20
307.1060418473877007
 30
0.0
 40
0.7042525478999337
 50
317.9199450590667766
 51
222.080054940933195
  0
LINE
  5
28BFF
  8
0
 10
5638.5410975925860839
 20
300.6060294824222865
 30
0.0
 11
5638.5410975925860839
 21
304.8935577488625199
 31
0.0
  0
ARC
  5
28C00
  8
0
 10
5626.4531393221022881
 20
304.0091911328385095
 30
0.0
 40
12.1202656514000395
 50
4.1843591557252333
 51
5.4933238274224081
  0
ARC
  5
28C01
  8
0
 10
5639.6545365945030426
 20
305.2787886239884187
 30
0.0
 40
1.142040623652409
 50
180.862535185799004
 51
185.4933238274223868
  0
LINE
  5
28C02
  8
0
 10
5638.5126253760508916
 20
305.2615969036889965
 30
0.0
 11
5638.5126253760508916
 21
307.2809008655232219
 31
0.0
  0
LINE
  5
28C03
  8
0
 10
5638.2485677592512729
 20
307.5759266468023725
 30
0.0
 11
5638.2485677592512729
 21
306.3153287790290165
 31
0.0
  0
ARC
  5
28C04
  8
0
 10
5638.2671340161514308
 20
307.5591461759876211
 30
0.0
 40
0.0200000000000002
 50
59.5001523040336693
 51
158.173327340959986
  0
ARC
  5
28C05
  8
0
 10
5637.9899164901516997
 20
307.1015780705876068
 30
0.0
 40
0.5510000000000163
 50
63.2924052185243582
 51
89.9993510224410755
  0
ARC
  5
28C06
  8
0
 10
5638.2285677592517459
 20
307.5759266468023725
 30
0.0
 40
0.02
 50
359.9999999999902229
 51
63.292404981283461
  0
ARC
  5
28C07
  8
0
 10
5638.0631421536627386
 20
306.3358466613506152
 30
0.0
 40
0.1865573335532009
 50
335.2984486449274186
 51
353.6857425482863277
  0
ARC
  5
28C08
  8
0
 10
5638.0943711401259861
 20
306.3227890289064135
 30
0.0
 40
0.1527338380306889
 50
311.7624636295644223
 51
334.8529658379351872
  0
ARC
  5
28C09
  8
0
 10
5638.0937542671581468
 20
306.3234798741091254
 30
0.0
 40
0.1536600126102765
 50
285.4684829760432763
 51
311.7624636295644223
  0
ARC
  5
28C0A
  8
0
 10
5638.0255946594943453
 20
306.7363251070959222
 30
0.0
 40
0.5714585176998784
 50
273.9219765313412722
 51
281.010477342876186
  0
ARC
  5
28C0B
  8
0
 10
5637.990056424233444
 20
307.099148086463174
 30
0.0
 40
0.9359230178911127
 50
269.9918119321760059
 51
274.5732729207268221
  0
ARC
  5
28C0C
  8
0
 10
5637.9899226726520283
 20
300.6060294824222865
 30
0.0
 40
0.5511749199346739
 50
180.0
 51
0.0
  0
LINE
  5
28C0D
  8
0
 10
5640.9789903668652187
 20
306.8145703185683146
 30
0.0
 11
5640.9789903668652187
 21
307.3975133762069731
 31
0.0
  0
LINE
  5
28C0E
  8
0
 10
5644.1377538564165661
 20
307.4060418473877121
 30
0.0
 11
5642.5077122133789089
 21
307.4060418473877121
 31
0.0
  0
LINE
  5
28C0F
  8
0
 10
5641.4721201773254506
 20
307.4060418473877121
 30
0.0
 11
5640.9953734076871115
 21
307.4060418473877121
 31
0.0
  0
LINE
  5
28C10
  8
0
 10
5644.1377538564165661
 20
306.8060418473875757
 30
0.0
 11
5642.5077122133789089
 21
306.8060418473875757
 31
0.0
  0
LINE
  5
28C11
  8
0
 10
5641.4721201773254506
 20
306.8060418473875757
 30
0.0
 11
5640.9953734076871115
 21
306.8060418473875757
 31
0.0
  0
CIRCLE
  5
28C12
  8
0
 10
5644.6457892882517626
 20
307.1060418473877007
 30
0.0
 40
0.5900000000000001
  0
ARC
  5
28C13
  8
0
 10
5641.9899164901507902
 20
307.1060418473877007
 30
0.0
 40
1.125
 50
15.4660099534255
 51
344.5339900465745018
  0
CIRCLE
  5
28C14
  8
0
 10
5641.989916195351725
 20
307.1060418473877007
 30
0.0
 40
0.5984251969000001
  0
ARC
  5
28C15
  8
0
 10
5641.9899164901507902
 20
307.1060418473877007
 30
0.0
 40
0.7505012725000011
 50
203.5614776576275062
 51
336.4385223423724938
  0
ARC
  5
28C16
  8
0
 10
5641.9899164901507902
 20
307.1060418473877007
 30
0.0
 40
0.7505012725000011
 50
23.5614776576274991
 51
156.4385223423724938
  0
LINE
  5
28C17
  8
0
 10
5640.9072390299506878
 20
307.2887358715381083
 30
0.0
 11
5640.9072390299506878
 21
306.9233478232371795
 31
0.0
  0
LINE
  5
28C18
  8
0
 10
5640.9789903668652187
 20
307.3975133762069731
 30
0.0
 11
5640.91085598906011
 21
307.3002074002574773
 31
0.0
  0
ARC
  5
28C19
  8
0
 10
5640.9272390299511244
 20
307.2887358715381083
 30
0.0
 40
0.02
 50
145.0000000268506142
 51
180.0000000000098055
  0
ARC
  5
28C1A
  8
0
 10
5640.9953734076871115
 20
307.3860418473876734
 30
0.0
 40
0.019999999999973
 50
90.0
 51
144.999999677209189
  0
LINE
  5
28C1B
  8
0
 10
5640.9789903668652187
 20
306.8145703185683146
 30
0.0
 11
5640.91085598906011
 21
306.9118762945179242
 31
0.0
  0
ARC
  5
28C1C
  8
0
 10
5640.9272390299511244
 20
306.9233478232371795
 30
0.0
 40
0.02
 50
179.9999999999901945
 51
214.9999999731493858
  0
ARC
  5
28C1D
  8
0
 10
5640.9953734076871115
 20
306.8260418473876143
 30
0.0
 40
0.019999999999973
 50
215.0000003227881109
 51
270.0
  0
CIRCLE
  5
28C1E
  8
0
 10
5641.9899164901507902
 20
307.1060418473877007
 30
0.0
 40
0.4721608554999999
  0
CIRCLE
  5
28C1F
  8
0
 10
5637.9899288551523568
 20
306.502137847387587
 30
0.0
 40
0.0468053358999999
  0
CIRCLE
  5
28C20
  8
0
 10
5637.9899288551523568
 20
306.502137847387587
 30
0.0
 40
0.0971351769999998
  0
CIRCLE
  5
28C21
  8
0
 10
5637.9899288551523568
 20
306.502137847387587
 30
0.0
 40
0.1179712312000003
  0
LINE
  5
28C22
  8
0
 10
5637.9899288551523568
 20
306.5489431832875766
 30
0.0
 11
5637.9493611051511834
 21
306.5254830209498778
 31
0.0
  0
LINE
  5
28C23
  8
0
 10
5637.9493611051511834
 20
306.5254830209498778
 30
0.0
 11
5637.9493611051511834
 21
306.4787926738255237
 31
0.0
  0
LINE
  5
28C24
  8
0
 10
5637.9493611051511834
 20
306.4787926738255237
 30
0.0
 11
5637.9899288548049299
 21
306.4553325114875975
 31
0.0
  0
LINE
  5
28C25
  8
0
 10
5637.9899288551523568
 20
306.4553325114875975
 30
0.0
 11
5638.0304634651511151
 21
306.4787352118365789
 31
0.0
  0
LINE
  5
28C26
  8
0
 10
5638.0304634653266476
 20
306.4787352121413733
 30
0.0
 11
5638.030463450406387
 21
306.5255405238045228
 31
0.0
  0
LINE
  5
28C27
  8
0
 10
5637.9899288551523568
 20
306.5489431832875766
 30
0.0
 11
5638.0304634503308989
 21
306.5255405239378774
 31
0.0
  0
ARC
  5
28C28
  8
0
 10
5637.9345162154641002
 20
300.780684190120212
 30
0.0
 40
0.6071360731359724
 50
343.2829327387269132
 51
357.5506254290054926
  0
ARC
  5
28C29
  8
0
 10
5638.2278341576447929
 20
300.5218544055633743
 30
0.0
 40
0.3002054317736423
 50
348.6878277844112972
 51
16.2864705571998307
  0
ENDSEC
  0
EOF
