  0
SECTION
  2
HEADER
  9
$ACADVER
  1
AC1009
  9
$INSBASE
 10
6601.5103211907526202
 20
287.8970977232389146
 30
0.0
  9
$EXTMIN
 10
6591.7203927380842288
 20
286.6316782871427904
 30
-0.0000000000112498
  9
$EXTMAX
 10
6601.7936152514303103
 20
289.1687100245890178
 30
0.0000000000002956
  9
$LIMMIN
 10
0.0
 20
0.0
  9
$LIMMAX
 10
11.6929133858000007
 20
8.2677165353999982
  9
$ORTHOMODE
 70
     0
  9
$REGENMODE
 70
     1
  9
$FILLMODE
 70
     1
  9
$QTEXTMODE
 70
     0
  9
$MIRRTEXT
 70
     0
  9
$DRAGMODE
 70
     2
  9
$LTSCALE
 40
0.6431102362
  9
$OSMODE
 70
  4095
  9
$ATTMODE
 70
     1
  9
$TEXTSIZE
 40
0.2
  9
$TRACEWID
 40
0.05
  9
$TEXTSTYLE
  7
STANDARD
  9
$CLAYER
  8
0
  9
$CELTYPE
  6
BYLAYER
  9
$CECOLOR
 62
   256
  9
$DIMSCALE
 40
1.0
  9
$DIMASZ
 40
0.1875
  9
$DIMEXO
 40
0.0625
  9
$DIMDLI
 40
0.4443307087
  9
$DIMRND
 40
0.0
  9
$DIMDLE
 40
0.0
  9
$DIMEXE
 40
0.125
  9
$DIMTP
 40
0.01
  9
$DIMTM
 40
0.01
  9
$DIMTXT
 40
2.0
  9
$DIMCEN
 40
0.1052362205
  9
$DIMTSZ
 40
0.0
  9
$DIMTOL
 70
     1
  9
$DIMLIM
 70
     0
  9
$DIMTIH
 70
     1
  9
$DIMTOH
 70
     1
  9
$DIMSE1
 70
     0
  9
$DIMSE2
 70
     0
  9
$DIMTAD
 70
     0
  9
$DIMZIN
 70
     0
  9
$DIMBLK
  1

  9
$DIMASO
 70
     1
  9
$DIMSHO
 70
     1
  9
$DIMPOST
  1
\X
  9
$DIMAPOST
  1

  9
$DIMALT
 70
     1
  9
$DIMALTD
 70
     2
  9
$DIMALTF
 40
25.3999999999999986
  9
$DIMLFAC
 40
1.0
  9
$DIMTOFL
 70
     0
  9
$DIMTVP
 40
0.0
  9
$DIMTIX
 70
     0
  9
$DIMSOXD
 70
     0
  9
$DIMSAH
 70
     0
  9
$DIMBLK1
  1

  9
$DIMBLK2
  1

  9
$DIMSTYLE
  2
STANDARD
  9
$DIMCLRD
 70
     0
  9
$DIMCLRE
 70
     0
  9
$DIMCLRT
 70
     0
  9
$DIMTFAC
 40
1.0
  9
$DIMGAP
 40
0.09
  9
$LUNITS
 70
     2
  9
$LUPREC
 70
     4
  9
$SKETCHINC
 40
0.1
  9
$FILLETRAD
 40
0.0
  9
$AUNITS
 70
     0
  9
$AUPREC
 70
     0
  9
$MENU
  1
.
  9
$ELEVATION
 40
0.0
  9
$PELEVATION
 40
0.0
  9
$THICKNESS
 40
0.0
  9
$LIMCHECK
 70
     0
  9
$BLIPMODE
 70
     0
  9
$CHAMFERA
 40
0.0
  9
$CHAMFERB
 40
0.0
  9
$SKPOLY
 70
     0
  9
$TDCREATE
 40
2458060.468368056230247
  9
$TDUPDATE
 40
2460735.8526967591606081
  9
$TDINDWG
 40
0.8260140046
  9
$TDUSRTIMER
 40
0.8260140046
  9
$USRTIMER
 70
     1
  9
$ANGBASE
 50
0.0
  9
$ANGDIR
 70
     0
  9
$PDMODE
 70
     0
  9
$PDSIZE
 40
0.3125
  9
$PLINEWID
 40
0.0
  9
$COORDS
 70
     2
  9
$SPLFRAME
 70
     0
  9
$SPLINETYPE
 70
     6
  9
$SPLINESEGS
 70
     8
  9
$ATTDIA
 70
     1
  9
$ATTREQ
 70
     1
  9
$HANDLING
 70
     1
  9
$HANDSEED
  5
2F817
  9
$SURFTAB1
 70
     6
  9
$SURFTAB2
 70
     6
  9
$SURFTYPE
 70
     6
  9
$SURFU
 70
     6
  9
$SURFV
 70
     6
  9
$UCSNAME
  2

  9
$UCSORG
 10
0.0
 20
0.0
 30
0.0
  9
$UCSXDIR
 10
1.0
 20
0.0
 30
0.0
  9
$UCSYDIR
 10
0.0
 20
1.0
 30
0.0
  9
$PUCSNAME
  2

  9
$PUCSORG
 10
0.0
 20
0.0
 30
0.0
  9
$PUCSXDIR
 10
1.0
 20
0.0
 30
0.0
  9
$PUCSYDIR
 10
0.0
 20
1.0
 30
0.0
  9
$USERI1
 70
     0
  9
$USERI2
 70
     0
  9
$USERI3
 70
     0
  9
$USERI4
 70
     0
  9
$USERI5
 70
     0
  9
$USERR1
 40
0.0
  9
$USERR2
 40
0.0
  9
$USERR3
 40
0.0
  9
$USERR4
 40
0.0
  9
$USERR5
 40
0.0
  9
$WORLDVIEW
 70
     1
  9
$SHADEDGE
 70
     3
  9
$SHADEDIF
 70
    70
  9
$TILEMODE
 70
     1
  9
$MAXACTVP
 70
    64
  9
$PLIMCHECK
 70
     0
  9
$PEXTMIN
 10
1.0000000000000000E+20
 20
1.0000000000000000E+20
 30
1.0000000000000000E+20
  9
$PEXTMAX
 10
-1.0000000000000000E+20
 20
-1.0000000000000000E+20
 30
-1.0000000000000000E+20
  9
$PLIMMIN
 10
0.0
 20
0.0
  9
$PLIMMAX
 10
12.0
 20
9.0
  9
$UNITMODE
 70
     0
  9
$VISRETAIN
 70
     1
  9
$PLINEGEN
 70
     0
  9
$PSLTSCALE
 70
     1
  0
ENDSEC
  0
SECTION
  2
TABLES
  0
TABLE
  2
VPORT
 70
     1
  0
VPORT
  2
*ACTIVE
 70
     0
 10
0.0
 20
0.0
 11
1.0
 21
1.0
 12
2685.39164754944386
 22
155.3205890533268132
 13
0.0
 23
0.0
 14
1.0
 24
1.0
 15
0.0
 25
0.0
 16
0.0
 26
0.0
 36
60.4960186965801583
 17
3911.3653564453120453
 27
132.5796051025390057
 37
0.0
 40
4.1464726887805803
 41
2.4370946822308679
 42
50.0
 43
0.0
 44
0.0
 50
0.0
 51
0.0
 71
     0
 72
   100
 73
     1
 74
     1
 75
     0
 76
     0
 77
     0
 78
     0
  0
ENDTAB
  0
TABLE
  2
LTYPE
 70
     2
  0
LTYPE
  2
CONTINUOUS
 70
     0
  3
Solid line
 72
    65
 73
     0
 40
0.0
  0
LTYPE
  2
PHANTOM2
 70
     0
  3
___ _ _ ___ _ _ ___ _ _ ___ _ _
 72
    65
 73
     6
 40
1.25
 49
0.625
 49
-0.125
 49
0.125
 49
-0.125
 49
0.125
 49
-0.125
  0
ENDTAB
  0
TABLE
  2
LAYER
 70
     2
  0
LAYER
  2
0
 70
     0
 62
   255
  6
CONTINUOUS
  0
LAYER
  2
DEFPOINTS
 70
     0
 62
     7
  6
CONTINUOUS
  0
ENDTAB
  0
TABLE
  2
STYLE
 70
     1
  0
STYLE
  2
STANDARD
 70
     0
 40
0.0
 41
0.8
 50
0.0
 71
     0
 42
0.2
  3
txt
  4

  0
ENDTAB
  0
TABLE
  2
VIEW
 70
     0
  0
ENDTAB
  0
TABLE
  2
UCS
 70
     0
  0
ENDTAB
  0
TABLE
  2
APPID
 70
    11
  0
APPID
  2
ACAD
 70
     0
  0
APPID
  2
ACAD_MLEADERVER
 70
     0
  0
APPID
  2
ACAD_EXEMPT_FROM_CAD_STANDARDS
 70
     0
  0
APPID
  2
ACAD_NAV_VCDISPLAY
 70
     0
  0
APPID
  2
ACAECLAYERSTANDARD
 70
     0
  0
APPID
  2
ACCMTRANSPARENCY
 70
     0
  0
APPID
  2
ACAD_DSTYLE_DIMJAG
 70
     0
  0
APPID
  2
ACAD_DSTYLE_DIMTALN
 70
     0
  0
APPID
  2
ACDBATTR
 70
     0
  0
APPID
  2
ACADANNOTATIVE
 70
     0
  0
APPID
  2
DCO15
 70
     0
  0
ENDTAB
  0
TABLE
  2
DIMSTYLE
 70
     1
  0
DIMSTYLE
  2
STANDARD
 70
     0
  3

  4

  5

  6

  7

 40
1.0
 41
0.1875
 42
0.0625
 43
0.38
 44
0.125
 45
0.0
 46
0.0
 47
0.01
 48
0.01
140
0.15625
141
0.09
142
0.0
143
25.3999999999999986
144
1.0
145
0.0
146
1.0
147
0.09
 71
     1
 72
     0
 73
     1
 74
     1
 75
     0
 76
     0
 77
     0
 78
     4
170
     0
171
     2
172
     0
173
     0
174
     0
175
     0
176
     0
177
     0
178
     0
  0
ENDTAB
  0
ENDSEC
  0
SECTION
  2
BLOCKS
  0
BLOCK
  8
0
  2
$MODEL_SPACE
 70
     0
 10
0.0
 20
0.0
 30
0.0
  3
$MODEL_SPACE
  1

  0
ENDBLK
  5
21
  8
0
  0
BLOCK
 67
     1
  8
0
  2
$PAPER_SPACE
 70
     0
 10
0.0
 20
0.0
 30
0.0
  3
$PAPER_SPACE
  1

  0
ENDBLK
  5
1D
 67
     1
  8
0
  0
BLOCK
  8
0
  2
_FILLED
 70
     0
 10
0.0
 20
0.0
 30
0.0
  3
_FILLED
  1

  0
SOLID
  5
2E9D1
  8
0
  6
BYBLOCK
 62
     0
 10
0.0
 20
0.0
 30
0.0
 11
-1.0
 21
0.1666666667
 31
0.0
 12
-1.0
 22
-0.1666666667
 32
0.0
 13
-1.0
 23
-0.1666666667
 33
0.0
  0
ENDBLK
  5
2E9D2
  8
0
  6
BYBLOCK
 62
     0
  0
ENDSEC
  0
SECTION
  2
ENTITIES
  0
ATTDEF
  5
26A5B
  8
DEFPOINTS
 10
6601.5113070783372677
 20
287.900122225195787
 30
0.0
 40
0.001
  1
P34865-BN
  3

  2
MODELNUMBER
 70
     0
1001
ACDBATTR
1070
     0
1070
     1
  0
ATTDEF
  5
26A5C
  8
DEFPOINTS
 10
6601.5111812686800477
 20
287.8984553848166001
 30
0.0
 40
0.001
  1
VICE
  3

  2
TRADENAME
 70
     0
1001
ACDBATTR
1070
     0
1070
     1
  0
ATTDEF
  5
26A5D
  8
DEFPOINTS
 10
6601.5113070783372677
 20
287.8967888918625135
 30
0.0
 40
0.001
  1
BATHROOM SINK FAUCET
  3

  2
PRODUCT
 70
     0
1001
ACDBATTR
1070
     0
1070
     1
  0
LINE
  5
2F425
  8
0
 10
6597.7762864500891737
 20
287.8970977232389146
 30
0.0
 11
6598.0397792723542807
 21
287.8970977232389146
 31
0.0
  0
ARC
  5
2F426
  8
0
 10
6597.7762864500891737
 20
287.5870977232389123
 30
0.0
 40
0.31
 50
90.0
 51
135.0000000000046043
  0
ARC
  5
2F427
  8
0
 10
6597.8016651298457873
 20
287.5885977232388768
 30
0.0
 40
0.3085
 50
90.0
 51
135.0000000084243084
  0
LINE
  5
2F428
  8
0
 10
6601.1427376525298314
 20
289.0220977232388009
 30
0.0
 11
6601.5003211907542209
 21
289.0220977232388009
 31
0.0
  0
LINE
  5
2F429
  8
0
 10
6599.5965914341322787
 20
288.4955229201389102
 30
0.0
 11
6600.9903211907540026
 21
288.4955229201389102
 31
0.0
  0
LINE
  5
2F42A
  8
0
 10
6599.1378147041887132
 20
288.1970977232389259
 30
0.0
 11
6600.2453211907541117
 21
288.1970977232389259
 31
0.0
  0
LINE
  5
2F42B
  8
0
 10
6599.1378147041887132
 20
287.5970977232387895
 30
0.0
 11
6600.2453211907541117
 21
287.5970977232387895
 31
0.0
  0
LINE
  5
2F42C
  8
0
 10
6601.1882580455394418
 20
289.1569402429387878
 30
0.0
 11
6601.5103211907526202
 21
289.1569402429387878
 31
0.0
  0
LINE
  5
2F42D
  8
0
 10
6592.5778802458544305
 20
288.4470977232389259
 30
0.0
 11
6598.4162377073125754
 21
288.4470977232389259
 31
0.0
  0
LINE
  5
2F42E
  8
0
 10
6598.8433208373953676
 20
288.4470977232389259
 30
0.0
 11
6599.5029979159480717
 21
288.4470977232389259
 31
0.0
  0
ARC
  5
2F42F
  8
0
 10
6599.5029979159480717
 20
288.4273977232389257
 30
0.0
 40
0.0197
 50
29.9999997242603094
 51
90.0
  0
LINE
  5
2F430
  8
0
 10
6592.1810173308431331
 20
286.7170977232389077
 30
0.0
 11
6592.9747431608648185
 21
286.7170977232389077
 31
0.0
  0
LINE
  5
2F431
  8
0
 10
6592.053933429287099
 20
286.8110445398065735
 30
0.0
 11
6593.1018270624217621
 21
286.8110445398065735
 31
0.0
  0
LINE
  5
2F432
  8
0
 10
6592.1252672015179996
 20
286.7397224404053873
 30
0.0
 11
6593.0304932901890425
 21
286.7397224404053873
 31
0.0
  0
LINE
  5
2F433
  8
0
 10
6601.5103211907526202
 20
289.1569402429387878
 30
0.0
 11
6601.5103211907526202
 21
286.6372552035389276
 31
0.0
  0
LINE
  5
2F434
  8
0
 10
6601.1151915915534119
 20
289.0111014217033016
 30
0.0
 11
6601.1505196898988288
 21
289.1288617496213078
 31
0.0
  0
ARC
  5
2F435
  8
0
 10
6601.1882580455394418
 20
289.1175402429387873
 30
0.0
 40
0.0394
 50
90.0
 51
163.3007557793835076
  0
LINE
  5
2F436
  8
0
 10
6601.0232717291719382
 20
288.6110308214203997
 30
0.0
 11
6601.1036054579471966
 21
288.9903845409094743
 31
0.0
  0
ARC
  5
2F437
  8
0
 10
6601.1427376525298314
 20
288.9820977232388941
 30
0.0
 40
0.04
 50
90.0
 51
168.043415765010792
  0
ARC
  5
2F438
  8
0
 10
6601.5003211907542209
 20
289.0120977232389237
 30
0.0
 40
0.01
 50
359.9999999999836859
 51
90.0000000000521254
  0
LINE
  5
2F439
  8
0
 10
6601.0378802458526479
 20
288.7244981521707246
 30
0.0
 11
6601.0378802458526479
 21
288.6800154835817125
 31
0.0
  0
LINE
  5
2F43A
  8
0
 10
6601.0461842502863874
 20
288.7810769508154181
 30
0.0
 11
6601.0907148915448488
 21
288.9295124217414923
 31
0.0
  0
ARC
  5
2F43B
  8
0
 10
6601.2347802458525621
 20
288.7244981521707246
 30
0.0
 40
0.1969
 50
163.300755773082102
 51
179.9999999999934914
  0
LINE
  5
2F43C
  8
0
 10
6601.0203211907537479
 20
288.5828556413403021
 30
0.0
 11
6601.0203211907537479
 21
287.2113398051374134
 31
0.0
  0
ARC
  5
2F43D
  8
0
 10
6601.1563211907532605
 20
288.5828556413403021
 30
0.0
 40
0.136
 50
168.0434157649916926
 51
180.0000000000032117
  0
ARC
  5
2F43E
  8
0
 10
6600.9903211907540026
 20
288.4655229201388238
 30
0.0
 40
0.03
 50
0.0
 51
90.0
  0
LINE
  5
2F43F
  8
0
 10
6601.1036054579471966
 20
288.9903845409094743
 30
0.0
 11
6601.1036054579471966
 21
286.803810905568298
 31
0.0
  0
LINE
  5
2F440
  8
0
 10
6601.1505196898988288
 20
289.1288617496213078
 30
0.0
 11
6601.1505196898988288
 21
289.0220977232388009
 31
0.0
  0
LINE
  5
2F441
  8
0
 10
6601.1427376525298314
 20
286.7720977232389146
 30
0.0
 11
6601.5003211907542209
 21
286.7720977232389146
 31
0.0
  0
LINE
  5
2F442
  8
0
 10
6601.1882580455394418
 20
286.6372552035389276
 30
0.0
 11
6601.5103211907526202
 21
286.6372552035389276
 31
0.0
  0
LINE
  5
2F443
  8
0
 10
6601.1151915915534119
 20
286.7830940247744138
 30
0.0
 11
6601.1505196898988288
 21
286.6653336968564076
 31
0.0
  0
ARC
  5
2F444
  8
0
 10
6601.1882580455394418
 20
286.6766552035389282
 30
0.0
 40
0.0394
 50
196.6992442206164071
 51
270.0
  0
LINE
  5
2F445
  8
0
 10
6601.0232717291719382
 20
287.1831646250573158
 30
0.0
 11
6601.1036054579471966
 21
286.803810905568298
 31
0.0
  0
ARC
  5
2F446
  8
0
 10
6601.1427376525298314
 20
286.8120977232388213
 30
0.0
 40
0.04
 50
191.9565842349890943
 51
270.0
  0
ARC
  5
2F447
  8
0
 10
6601.5003211907542209
 20
286.7820977232387918
 30
0.0
 40
0.01
 50
269.9999999999478746
 51
0.0000000000162844
  0
LINE
  5
2F448
  8
0
 10
6601.0378802458526479
 20
287.0696972943069909
 30
0.0
 11
6601.0378802458526479
 21
287.1141799628958893
 31
0.0
  0
LINE
  5
2F449
  8
0
 10
6601.0461842502863874
 20
287.0131184956622974
 30
0.0
 11
6601.0907148915448488
 21
286.8646830247361095
 31
0.0
  0
ARC
  5
2F44A
  8
0
 10
6601.2347802458525621
 20
287.0696972943069909
 30
0.0
 40
0.1969
 50
180.0000000000032117
 51
196.699244226917898
  0
ARC
  5
2F44B
  8
0
 10
6601.1563211907532605
 20
287.2113398051374134
 30
0.0
 40
0.136
 50
179.9999999999934914
 51
191.9565842350081937
  0
ARC
  5
2F44C
  8
0
 10
6600.9903211907540026
 20
287.328672526338778
 30
0.0
 40
0.03
 50
270.0
 51
0.0
  0
LINE
  5
2F44D
  8
0
 10
6601.1505196898988288
 20
286.6653336968564076
 30
0.0
 11
6601.1505196898988288
 21
286.7720977232389146
 31
0.0
  0
LINE
  5
2F44E
  8
0
 10
6599.5965914341322787
 20
287.2986725263388053
 30
0.0
 11
6600.9903211907540026
 21
287.2986725263388053
 31
0.0
  0
LINE
  5
2F44F
  8
0
 10
6599.5826614305433395
 20
288.4897529237281901
 30
0.0
 11
6599.4760911871653661
 21
288.3831826803494778
 31
0.0
  0
LINE
  5
2F450
  8
0
 10
6599.5826614305433395
 20
287.3044425227495253
 30
0.0
 11
6599.4760911871653661
 21
287.4110127661281808
 31
0.0
  0
LINE
  5
2F451
  8
0
 10
6599.470321190753566
 20
288.3692526767600839
 30
0.0
 11
6599.470321190753566
 21
288.1970977232389259
 31
0.0
  0
LINE
  5
2F452
  8
0
 10
6599.470321190753566
 20
287.5970977232387895
 30
0.0
 11
6599.470321190753566
 21
287.4249427697175747
 31
0.0
  0
ARC
  5
2F453
  8
0
 10
6599.5965914341322787
 20
288.4758229201389099
 30
0.0
 40
0.0197
 50
90.0
 51
135.0000000000092086
  0
ARC
  5
2F454
  8
0
 10
6599.4900211907533958
 20
288.3692526767600839
 30
0.0
 40
0.0197
 50
135.0000000000092086
 51
179.9999999999836859
  0
ARC
  5
2F455
  8
0
 10
6599.5965914341322787
 20
287.3183725263388055
 30
0.0
 40
0.0197
 50
224.9999999999884039
 51
270.0
  0
ARC
  5
2F456
  8
0
 10
6599.4900211907533958
 20
287.4249427697175747
 30
0.0
 40
0.0197
 50
180.0000000000163141
 51
224.9999999999884039
  0
LINE
  5
2F457
  8
0
 10
6599.5200586164501146
 20
288.4372477231567018
 30
0.0
 11
6599.5237545994914399
 21
288.430846092675381
 31
0.0
  0
LINE
  5
2F458
  8
0
 10
6599.5826614305433395
 20
288.4897529237281901
 30
0.0
 11
6599.5826614305433395
 21
288.1970977232389259
 31
0.0
  0
LINE
  5
2F459
  8
0
 10
6599.5826614305433395
 20
287.5970977232387895
 30
0.0
 11
6599.5826614305433395
 21
287.3044425227495253
 31
0.0
  0
CIRCLE
  5
2F45A
  8
0
 10
6598.6297792723544262
 20
287.8970977232389146
 30
0.0
 40
0.589999999999999
  0
ARC
  5
2F45B
  8
0
 10
6600.2453211907541117
 20
287.8970977232389146
 30
0.0
 40
0.2999999999999998
 50
270.0
 51
90.0
  0
ARC
  5
2F45C
  8
0
 10
6600.2453211907541117
 20
287.8970977232389146
 30
0.0
 40
0.3031496062999999
 50
261.7336461454632968
 51
98.2663538545367459
  0
ARC
  5
2F45D
  8
0
 10
6600.2453211907541117
 20
287.8970977232389146
 30
0.0
 40
0.3150000000000013
 50
252.2472098380737862
 51
107.7527901619261996
  0
LINE
  5
2F45E
  8
0
 10
6600.5082468050086391
 20
288.0479943937388043
 30
0.0
 11
6600.5218265158955546
 21
288.0479943937388043
 31
0.0
  0
LINE
  5
2F45F
  8
0
 10
6600.5409514899456553
 20
287.9641977232387831
 30
0.0
 11
6600.5530915434519557
 21
287.9641977232387831
 31
0.0
  0
LINE
  5
2F460
  8
0
 10
6600.5409514899456553
 20
287.8299977232388187
 30
0.0
 11
6600.5530915434519557
 21
287.8299977232388187
 31
0.0
  0
ARC
  5
2F461
  8
0
 10
6600.2453211907541117
 20
287.8970977232389146
 30
0.0
 40
0.3273765070000004
 50
246.4019106412989117
 51
113.5980893587011025
  0
LINE
  5
2F462
  8
0
 10
6592.0278802458542486
 20
287.8970977232389146
 30
0.0
 11
6592.0278802458542486
 21
286.8702348082287017
 31
0.0
  0
ARC
  5
2F463
  8
0
 10
6592.5778802458544305
 20
287.8970977232389146
 30
0.0
 40
0.55
 50
90.0
 51
180.0
  0
LINE
  5
2F464
  8
0
 10
6592.051311703358806
 20
286.8136662657337865
 30
0.0
 11
6592.1244487883477632
 21
286.7405291807439198
 31
0.0
  0
ARC
  5
2F465
  8
0
 10
6592.1078802458541759
 20
286.8702348082287017
 30
0.0
 40
0.08
 50
179.9999999999967031
 51
224.9999999999907914
  0
ARC
  5
2F466
  8
0
 10
6592.1810173308431331
 20
286.7970977232387781
 30
0.0
 40
0.08
 50
224.9999999999907914
 51
270.0
  0
LINE
  5
2F467
  8
0
 10
6593.1278802458527935
 20
287.2056977232389272
 30
0.0
 11
6593.1278802458527935
 21
286.8702348082287017
 31
0.0
  0
ARC
  5
2F468
  8
0
 10
6593.2692802458550432
 20
287.2056977232389272
 30
0.0
 40
0.1414
 50
90.0
 51
180.0
  0
LINE
  5
2F469
  8
0
 10
6593.1044487883491456
 20
286.8136662657337865
 30
0.0
 11
6593.0313117033592789
 21
286.7405291807439198
 31
0.0
  0
ARC
  5
2F46A
  8
0
 10
6593.0478802458537757
 20
286.8702348082287017
 30
0.0
 40
0.08
 50
315.0000000000092086
 51
0.0000000000032569
  0
ARC
  5
2F46B
  8
0
 10
6592.9747431608648185
 20
286.7970977232387781
 30
0.0
 40
0.08
 50
270.0
 51
315.0000000000092086
  0
LINE
  5
2F46C
  8
0
 10
6593.2692802458550432
 20
287.3470977232387895
 30
0.0
 11
6597.0896788172176457
 21
287.3470977232387895
 31
0.0
  0
LINE
  5
2F46D
  8
0
 10
6597.103679531484886
 20
287.3528970089714107
 30
0.0
 11
6597.6571999494890406
 21
287.906417426974599
 31
0.0
  0
ARC
  5
2F46E
  8
0
 10
6597.0896788172176457
 20
287.3668977232388215
 30
0.0
 40
0.0198
 50
270.0
 51
315.0000000000114824
  0
LINE
  5
2F46F
  8
0
 10
6597.7890823065517907
 20
287.9098935797018726
 30
0.0
 11
6598.0399180462527511
 21
287.9098935797018726
 31
0.0
  0
ARC
  5
2F470
  8
0
 10
6597.7890823065517907
 20
287.5998935797019271
 30
0.0
 40
0.31
 50
90.0
 51
135.0000000000092086
  0
LINE
  5
2F471
  8
0
 10
6597.9550333257247985
 20
288.0297840507387832
 30
0.0
 11
6598.0548929022816083
 21
288.0297840507387832
 31
0.0
  0
ARC
  5
2F472
  8
0
 10
6597.9550333257247985
 20
287.6085840507387843
 30
0.0
 40
0.4212
 50
90.0
 51
135.0000000000092086
  0
LINE
  5
2F473
  8
0
 10
6598.1259530363995509
 20
287.5900812351388822
 30
0.0
 11
6597.3910058934361587
 21
287.5900812351388822
 31
0.0
  0
LINE
  5
2F474
  8
0
 10
6599.470321190755385
 20
287.4500977232387982
 30
0.0
 11
6599.0148649770999327
 21
287.4500977232387982
 31
0.0
  0
LINE
  5
2F475
  8
0
 10
6598.2446935676071007
 20
287.4500977232387982
 30
0.0
 11
6597.2510223815770587
 21
287.4500977232387982
 31
0.0
  0
ARC
  5
2F476
  8
0
 10
6597.2510223815770587
 20
287.4600977232387891
 30
0.0
 40
0.01
 50
135.0000000084243084
 51
270.0
  0
ARC
  5
2F477
  8
0
 10
6597.3511564201808142
 20
287.3036199318934223
 30
0.0
 40
0.2102254407614704
 50
110.6020394306463999
 51
131.51527294088541
  0
LINE
  5
2F478
  8
0
 10
6592.1889715161996719
 20
288.2860064528913995
 30
0.0
 11
6593.1692953469946588
 21
287.3056826220985727
 31
0.0
  0
ARC
  5
2F479
  8
0
 10
6597.395810191945202
 20
287.348311911359076
 30
0.0
 40
0.2103655032518567
 50
110.500320178320905
 51
130.8342140127203947
  0
LINE
  5
2F47A
  8
0
 10
6597.243951313764228
 20
287.4671687910496871
 30
0.0
 11
6597.5835226878170943
 21
287.8067401652028252
 31
0.0
  0
ARC
  5
2F47B
  8
0
 10
6597.3910058934361587
 20
287.6000812351388163
 30
0.0
 40
0.01
 50
135.0000000084243084
 51
270.0
  0
ENDSEC
  0
EOF
