  0
SECTION
  2
HEADER
  9
$ACADVER
  1
AC1009
  9
$INSBASE
 10
6614.3487263014003474
 20
284.5930743018778912
 30
0.0
  9
$EXTMIN
 10
6607.0167942136622514
 20
275.1071680003456095
 30
-0.0000000000112498
  9
$EXTMAX
 10
6621.6680594129356905
 20
284.617881447976572
 30
0.0000000000002956
  9
$LIMMIN
 10
0.0
 20
0.0
  9
$LIMMAX
 10
11.6929133858000007
 20
8.2677165353999982
  9
$ORTHOMODE
 70
     0
  9
$REGENMODE
 70
     1
  9
$FILLMODE
 70
     1
  9
$QTEXTMODE
 70
     0
  9
$MIRRTEXT
 70
     0
  9
$DRAGMODE
 70
     2
  9
$LTSCALE
 40
0.6431102362
  9
$OSMODE
 70
  4095
  9
$ATTMODE
 70
     1
  9
$TEXTSIZE
 40
0.2
  9
$TRACEWID
 40
0.05
  9
$TEXTSTYLE
  7
STANDARD
  9
$CLAYER
  8
0
  9
$CELTYPE
  6
BYLAYER
  9
$CECOLOR
 62
   256
  9
$DIMSCALE
 40
1.0
  9
$DIMASZ
 40
0.1875
  9
$DIMEXO
 40
0.0625
  9
$DIMDLI
 40
0.4443307087
  9
$DIMRND
 40
0.0
  9
$DIMDLE
 40
0.0
  9
$DIMEXE
 40
0.125
  9
$DIMTP
 40
0.01
  9
$DIMTM
 40
0.01
  9
$DIMTXT
 40
2.0
  9
$DIMCEN
 40
0.1052362205
  9
$DIMTSZ
 40
0.0
  9
$DIMTOL
 70
     1
  9
$DIMLIM
 70
     0
  9
$DIMTIH
 70
     1
  9
$DIMTOH
 70
     1
  9
$DIMSE1
 70
     0
  9
$DIMSE2
 70
     0
  9
$DIMTAD
 70
     0
  9
$DIMZIN
 70
     0
  9
$DIMBLK
  1

  9
$DIMASO
 70
     1
  9
$DIMSHO
 70
     1
  9
$DIMPOST
  1
\X
  9
$DIMAPOST
  1

  9
$DIMALT
 70
     1
  9
$DIMALTD
 70
     2
  9
$DIMALTF
 40
25.3999999999999986
  9
$DIMLFAC
 40
1.0
  9
$DIMTOFL
 70
     0
  9
$DIMTVP
 40
0.0
  9
$DIMTIX
 70
     0
  9
$DIMSOXD
 70
     0
  9
$DIMSAH
 70
     0
  9
$DIMBLK1
  1

  9
$DIMBLK2
  1

  9
$DIMSTYLE
  2
STANDARD
  9
$DIMCLRD
 70
     0
  9
$DIMCLRE
 70
     0
  9
$DIMCLRT
 70
     0
  9
$DIMTFAC
 40
1.0
  9
$DIMGAP
 40
0.09
  9
$LUNITS
 70
     2
  9
$LUPREC
 70
     4
  9
$SKETCHINC
 40
0.1
  9
$FILLETRAD
 40
0.0
  9
$AUNITS
 70
     0
  9
$AUPREC
 70
     0
  9
$MENU
  1
.
  9
$ELEVATION
 40
0.0
  9
$PELEVATION
 40
0.0
  9
$THICKNESS
 40
0.0
  9
$LIMCHECK
 70
     0
  9
$BLIPMODE
 70
     0
  9
$CHAMFERA
 40
0.0
  9
$CHAMFERB
 40
0.0
  9
$SKPOLY
 70
     0
  9
$TDCREATE
 40
2458060.468368056230247
  9
$TDUPDATE
 40
2460735.8546527777798474
  9
$TDINDWG
 40
0.8226690972
  9
$TDUSRTIMER
 40
0.8226690972
  9
$USRTIMER
 70
     1
  9
$ANGBASE
 50
0.0
  9
$ANGDIR
 70
     0
  9
$PDMODE
 70
     0
  9
$PDSIZE
 40
0.3125
  9
$PLINEWID
 40
0.0
  9
$COORDS
 70
     2
  9
$SPLFRAME
 70
     0
  9
$SPLINETYPE
 70
     6
  9
$SPLINESEGS
 70
     8
  9
$ATTDIA
 70
     1
  9
$ATTREQ
 70
     1
  9
$HANDLING
 70
     1
  9
$HANDSEED
  5
2F857
  9
$SURFTAB1
 70
     6
  9
$SURFTAB2
 70
     6
  9
$SURFTYPE
 70
     6
  9
$SURFU
 70
     6
  9
$SURFV
 70
     6
  9
$UCSNAME
  2

  9
$UCSORG
 10
0.0
 20
0.0
 30
0.0
  9
$UCSXDIR
 10
1.0
 20
0.0
 30
0.0
  9
$UCSYDIR
 10
0.0
 20
1.0
 30
0.0
  9
$PUCSNAME
  2

  9
$PUCSORG
 10
0.0
 20
0.0
 30
0.0
  9
$PUCSXDIR
 10
1.0
 20
0.0
 30
0.0
  9
$PUCSYDIR
 10
0.0
 20
1.0
 30
0.0
  9
$USERI1
 70
     0
  9
$USERI2
 70
     0
  9
$USERI3
 70
     0
  9
$USERI4
 70
     0
  9
$USERI5
 70
     0
  9
$USERR1
 40
0.0
  9
$USERR2
 40
0.0
  9
$USERR3
 40
0.0
  9
$USERR4
 40
0.0
  9
$USERR5
 40
0.0
  9
$WORLDVIEW
 70
     1
  9
$SHADEDGE
 70
     3
  9
$SHADEDIF
 70
    70
  9
$TILEMODE
 70
     1
  9
$MAXACTVP
 70
    64
  9
$PLIMCHECK
 70
     0
  9
$PEXTMIN
 10
1.0000000000000000E+20
 20
1.0000000000000000E+20
 30
1.0000000000000000E+20
  9
$PEXTMAX
 10
-1.0000000000000000E+20
 20
-1.0000000000000000E+20
 30
-1.0000000000000000E+20
  9
$PLIMMIN
 10
0.0
 20
0.0
  9
$PLIMMAX
 10
12.0
 20
9.0
  9
$UNITMODE
 70
     0
  9
$VISRETAIN
 70
     1
  9
$PLINEGEN
 70
     0
  9
$PSLTSCALE
 70
     1
  0
ENDSEC
  0
SECTION
  2
TABLES
  0
TABLE
  2
VPORT
 70
     1
  0
VPORT
  2
*ACTIVE
 70
     0
 10
0.0
 20
0.0
 11
1.0
 21
1.0
 12
2702.9770703679860162
 22
147.2829196216219998
 13
0.0
 23
0.0
 14
1.0
 24
1.0
 15
0.0
 25
0.0
 16
0.0
 26
0.0
 36
60.4960186965801583
 17
3911.3653564453120453
 27
132.5796051025390057
 37
0.0
 40
9.5846309096592677
 41
2.4370946822308679
 42
50.0
 43
0.0
 44
0.0
 50
0.0
 51
0.0
 71
     0
 72
   100
 73
     1
 74
     1
 75
     0
 76
     0
 77
     0
 78
     0
  0
ENDTAB
  0
TABLE
  2
LTYPE
 70
     2
  0
LTYPE
  2
CONTINUOUS
 70
     0
  3
Solid line
 72
    65
 73
     0
 40
0.0
  0
LTYPE
  2
PHANTOM2
 70
     0
  3
___ _ _ ___ _ _ ___ _ _ ___ _ _
 72
    65
 73
     6
 40
1.25
 49
0.625
 49
-0.125
 49
0.125
 49
-0.125
 49
0.125
 49
-0.125
  0
ENDTAB
  0
TABLE
  2
LAYER
 70
     2
  0
LAYER
  2
0
 70
     0
 62
   255
  6
CONTINUOUS
  0
LAYER
  2
DEFPOINTS
 70
     0
 62
     7
  6
CONTINUOUS
  0
ENDTAB
  0
TABLE
  2
STYLE
 70
     1
  0
STYLE
  2
STANDARD
 70
     0
 40
0.0
 41
0.8
 50
0.0
 71
     0
 42
0.2
  3
txt
  4

  0
ENDTAB
  0
TABLE
  2
VIEW
 70
     0
  0
ENDTAB
  0
TABLE
  2
UCS
 70
     0
  0
ENDTAB
  0
TABLE
  2
APPID
 70
    11
  0
APPID
  2
ACAD
 70
     0
  0
APPID
  2
ACAD_MLEADERVER
 70
     0
  0
APPID
  2
ACAD_EXEMPT_FROM_CAD_STANDARDS
 70
     0
  0
APPID
  2
ACAD_NAV_VCDISPLAY
 70
     0
  0
APPID
  2
ACAECLAYERSTANDARD
 70
     0
  0
APPID
  2
ACCMTRANSPARENCY
 70
     0
  0
APPID
  2
ACAD_DSTYLE_DIMJAG
 70
     0
  0
APPID
  2
ACAD_DSTYLE_DIMTALN
 70
     0
  0
APPID
  2
ACDBATTR
 70
     0
  0
APPID
  2
ACADANNOTATIVE
 70
     0
  0
APPID
  2
DCO15
 70
     0
  0
ENDTAB
  0
TABLE
  2
DIMSTYLE
 70
     1
  0
DIMSTYLE
  2
STANDARD
 70
     0
  3

  4

  5

  6

  7

 40
1.0
 41
0.1875
 42
0.0625
 43
0.38
 44
0.125
 45
0.0
 46
0.0
 47
0.01
 48
0.01
140
0.15625
141
0.09
142
0.0
143
25.3999999999999986
144
1.0
145
0.0
146
1.0
147
0.09
 71
     1
 72
     0
 73
     1
 74
     1
 75
     0
 76
     0
 77
     0
 78
     4
170
     0
171
     2
172
     0
173
     0
174
     0
175
     0
176
     0
177
     0
178
     0
  0
ENDTAB
  0
ENDSEC
  0
SECTION
  2
BLOCKS
  0
BLOCK
  8
0
  2
$MODEL_SPACE
 70
     0
 10
0.0
 20
0.0
 30
0.0
  3
$MODEL_SPACE
  1

  0
ENDBLK
  5
21
  8
0
  0
BLOCK
 67
     1
  8
0
  2
$PAPER_SPACE
 70
     0
 10
0.0
 20
0.0
 30
0.0
  3
$PAPER_SPACE
  1

  0
ENDBLK
  5
1D
 67
     1
  8
0
  0
BLOCK
  8
0
  2
_FILLED
 70
     0
 10
0.0
 20
0.0
 30
0.0
  3
_FILLED
  1

  0
SOLID
  5
2EA00
  8
0
  6
BYBLOCK
 62
     0
 10
0.0
 20
0.0
 30
0.0
 11
-1.0
 21
0.1666666667
 31
0.0
 12
-1.0
 22
-0.1666666667
 32
0.0
 13
-1.0
 23
-0.1666666667
 33
0.0
  0
ENDBLK
  5
2EA01
  8
0
  6
BYBLOCK
 62
     0
  0
ENDSEC
  0
SECTION
  2
ENTITIES
  0
ATTDEF
  5
26A5B
  8
DEFPOINTS
 10
6614.3384964441847842
 20
284.5975830915966185
 30
0.0
 40
0.001
  1
P34865-CP
  3

  2
MODELNUMBER
 70
     0
1001
ACDBATTR
1070
     0
1070
     1
  0
ATTDEF
  5
26A5C
  8
DEFPOINTS
 10
6614.3383706345266546
 20
284.5959162512173748
 30
0.0
 40
0.001
  1
VICE
  3

  2
TRADENAME
 70
     0
1001
ACDBATTR
1070
     0
1070
     1
  0
ATTDEF
  5
26A5D
  8
DEFPOINTS
 10
6614.3384964441847842
 20
284.5942497582631745
 30
0.0
 40
0.001
  1
BATHROOM SINK FAUCET
  3

  2
PRODUCT
 70
     0
1001
ACDBATTR
1070
     0
1070
     1
  0
ARC
  5
2F3F5
  8
0
 10
6607.6928532085021288
 20
281.7125323835779227
 30
0.0
 40
0.59
 50
101.6822876629801016
 51
38.3177123370650108
  0
ARC
  5
2F3F6
  8
0
 10
6607.5814866949440329
 20
282.2511393828438031
 30
0.0
 40
0.04
 50
70.0000000000107576
 51
101.6822876629801016
  0
ARC
  5
2F3F7
  8
0
 10
6608.1243748129791129
 20
282.0535442673423745
 30
0.0
 40
0.04
 50
38.3177123370650108
 51
70.0000000000107576
  0
LINE
  5
2F3F8
  8
0
 10
6607.5951675006781443
 20
282.2887270876752268
 30
0.0
 11
6608.1380556187132242
 21
282.0911319721739119
 31
0.0
  0
LINE
  5
2F3F9
  8
0
 10
6607.8575147029941945
 20
283.0420774414985203
 30
0.0
 11
6607.5915441763791023
 21
282.3113294253176946
 31
0.0
  0
LINE
  5
2F3FA
  8
0
 10
6608.4213302755133554
 20
282.8368653555530727
 30
0.0
 11
6608.1553597487891238
 21
282.1061173393438253
 31
0.0
  0
LINE
  5
2F3FB
  8
0
 10
6608.69440495107483
 20
283.6280743018779162
 30
0.0
 11
6609.7615325620927251
 21
283.6280743018779162
 31
0.0
  0
LINE
  5
2F3FC
  8
0
 10
6610.9359200406088348
 20
283.6280743018779162
 30
0.0
 11
6611.3432690889967489
 21
283.6280743018779162
 31
0.0
  0
LINE
  5
2F3FD
  8
0
 10
6608.6944049511048433
 20
283.0280743018778935
 30
0.0
 11
6609.7615325620927251
 21
283.0280743018778935
 31
0.0
  0
LINE
  5
2F3FE
  8
0
 10
6610.9359200406088348
 20
283.0280743018778935
 30
0.0
 11
6611.3432690889967489
 21
283.0280743018778935
 31
0.0
  0
ARC
  5
2F3FF
  8
0
 10
6608.6944049511048433
 20
282.73747430187791
 30
0.0
 40
0.2906
 50
90.0
 51
159.9999999947899028
  0
ARC
  5
2F400
  8
0
 10
6608.69440495107483
 20
282.73747430187791
 30
0.0
 40
0.8905999999999998
 50
90.0
 51
160.0000000017367938
  0
ARC
  5
2F401
  8
0
 10
6607.6103380287950131
 20
282.3044890224517189
 30
0.0
 40
0.02
 50
160.0000000017398065
 51
250.0000000000108002
  0
ARC
  5
2F402
  8
0
 10
6608.136565896375032
 20
282.1129577422119041
 30
0.0
 40
0.02
 50
250.0000000000108002
 51
339.9999999947897891
  0
LINE
  5
2F403
  8
0
 10
6609.2237263013512347
 20
284.2254907637653787
 30
0.0
 11
6609.2237263013512347
 21
284.5830743018779003
 31
0.0
  0
LINE
  5
2F404
  8
0
 10
6609.7503011044509549
 20
282.6794688094752814
 30
0.0
 11
6609.7503011044509549
 21
283.0045052298966084
 31
0.0
  0
LINE
  5
2F405
  8
0
 10
6609.7503011044509549
 20
283.651643373859315
 30
0.0
 11
6609.7503011044509549
 21
284.0730743018779094
 31
0.0
  0
LINE
  5
2F406
  8
0
 10
6611.4314034667022497
 20
283.1453802776846942
 30
0.0
 11
6611.4314034667022497
 21
283.5107683260711724
 31
0.0
  0
LINE
  5
2F407
  8
0
 10
6611.3432690890676895
 20
283.0280743018778935
 30
0.0
 11
6611.3432690890676895
 21
283.6280743018779162
 31
0.0
  0
LINE
  5
2F408
  8
0
 10
6611.3596521298877633
 20
283.6195458305971897
 30
0.0
 11
6611.427786507593737
 21
283.5222398547904845
 31
0.0
  0
LINE
  5
2F409
  8
0
 10
6611.427786507593737
 20
283.1339087489653252
 30
0.0
 11
6611.3596521298877633
 21
283.0366027731585064
 31
0.0
  0
ARC
  5
2F40A
  8
0
 10
6611.3432690889967489
 20
283.6080743018778776
 30
0.0
 40
0.02
 50
34.999999973130727
 51
90.0
  0
ARC
  5
2F40B
  8
0
 10
6611.4114034667009037
 20
283.5107683260711724
 30
0.0
 40
0.02
 50
0.0
 51
34.9999999731280482
  0
ARC
  5
2F40C
  8
0
 10
6611.4114034667009037
 20
283.1453802776846942
 30
0.0
 40
0.02
 50
325.0000000268719873
 51
0.0
  0
ARC
  5
2F40D
  8
0
 10
6611.3432690889967489
 20
283.048074301877989
 30
0.0
 40
0.02
 50
270.0
 51
325.0000000268693157
  0
ARC
  5
2F40E
  8
0
 10
6608.5869206001952989
 20
283.0140396184937117
 30
0.0
 40
1.3254251594986139
 50
26.9058098556430316
 51
28.51923429493662
  0
ARC
  5
2F40F
  8
0
 10
6608.9437979165204524
 20
283.1951393188634256
 30
0.0
 40
0.9252270580790202
 50
23.7365990729213401
 51
26.9058098556430316
  0
ARC
  5
2F410
  8
0
 10
6609.0222757666369944
 20
283.2296484926645235
 30
0.0
 40
0.8394969231471444
 50
20.2103541259078412
 51
23.7365990729213401
  0
ARC
  5
2F411
  8
0
 10
6609.1987917642236425
 20
283.294629953654578
 30
0.0
 40
0.6513999064866259
 50
14.3159826858490309
 51
20.2103541259078412
  0
ARC
  5
2F412
  8
0
 10
6609.2996873700467404
 20
283.3203778967426274
 30
0.0
 40
0.5472707566398421
 50
5.6812752999582221
 51
14.3159826858490309
  0
ARC
  5
2F413
  8
0
 10
6609.2851254686484026
 20
283.3245960721397978
 30
0.0
 40
0.5613718759678878
 50
0.3550038180148844
 51
5.1057270621812432
  0
ARC
  5
2F414
  8
0
 10
6609.7603011044511732
 20
283.651643373859315
 30
0.0
 40
0.01
 50
180.000000000120508
 51
208.5192342946158135
  0
ARC
  5
2F415
  8
0
 10
6608.5869206001952989
 20
283.642108985262098
 30
0.0
 40
1.3254251594986139
 50
331.4807657050633907
 51
333.0941901443570146
  0
ARC
  5
2F416
  8
0
 10
6608.9437979165204524
 20
283.4610092848923841
 30
0.0
 40
0.9252270580790202
 50
333.0941901443570146
 51
336.2634009270786919
  0
ARC
  5
2F417
  8
0
 10
6609.0222757666369944
 20
283.4265001110912863
 30
0.0
 40
0.8394969231471444
 50
336.2634009270786919
 51
339.789645874092173
  0
ARC
  5
2F418
  8
0
 10
6609.1987917642236425
 20
283.3615186501011749
 30
0.0
 40
0.6513999064866259
 50
339.789645874092173
 51
345.684017314147809
  0
ARC
  5
2F419
  8
0
 10
6609.2996873700467404
 20
283.335770707013296
 30
0.0
 40
0.5472707566398421
 50
345.6840173141509922
 51
354.3187247000416846
  0
ARC
  5
2F41A
  8
0
 10
6609.2851254686484026
 20
283.3315525316160119
 30
0.0
 40
0.5613718759678878
 50
354.8942729378186982
 51
359.6449961819851069
  0
ARC
  5
2F41B
  8
0
 10
6609.7603011044511732
 20
283.0045052298966084
 30
0.0
 40
0.01
 50
151.4807657053841012
 51
179.999999999876195
  0
LINE
  5
2F41C
  8
0
 10
6609.8766956119488896
 20
282.5530743018779276
 30
0.0
 11
6610.8207569907526704
 21
282.5530743018779276
 31
0.0
  0
LINE
  5
2F41D
  8
0
 10
6609.8625534763177711
 20
282.5589321662607745
 30
0.0
 11
6609.7561589688211825
 21
282.6653266738582033
 31
0.0
  0
ARC
  5
2F41E
  8
0
 10
6609.8766956119488896
 20
282.5730743018779094
 30
0.0
 40
0.02
 50
224.9999999730943898
 51
270.0
  0
ARC
  5
2F41F
  8
0
 10
6609.7703011044513914
 20
282.6794688094752814
 30
0.0
 40
0.02
 50
180.0
 51
224.9999999730943898
  0
LINE
  5
2F420
  8
0
 10
6609.7561589688211825
 20
282.6653266738582033
 30
0.0
 11
6610.9412936338821964
 21
282.6653266738582033
 31
0.0
  0
LINE
  5
2F421
  8
0
 10
6609.2337263013523625
 20
284.5930743018778912
 30
0.0
 11
6611.4637263013510164
 21
284.5930743018778912
 31
0.0
  0
LINE
  5
2F422
  8
0
 10
6613.0888837817010426
 20
284.5930743018778912
 30
0.0
 11
6615.6085688211023808
 21
284.5930743018778912
 31
0.0
  0
LINE
  5
2F423
  8
0
 10
6609.2554394836706706
 20
284.1863585691842786
 30
0.0
 11
6609.628236451135308
 21
284.1074133289725978
 31
0.0
  0
ARC
  5
2F424
  8
0
 10
6609.2637263013511983
 20
284.2254907637653787
 30
0.0
 40
0.04
 50
179.9999999999934914
 51
258.0434157505429198
  0
ARC
  5
2F425
  8
0
 10
6609.2337263013523625
 20
284.5830743018779003
 30
0.0
 40
0.01
 50
90.0
 51
180.0000000000391083
  0
LINE
  5
2F426
  8
0
 10
6609.6696705395370373
 20
284.1030743018778821
 30
0.0
 11
6611.0277820631654322
 21
284.1030743018778821
 31
0.0
  0
ARC
  5
2F427
  8
0
 10
6609.6696705395370373
 20
284.3030743018779845
 30
0.0
 40
0.2
 50
258.0434157505429198
 51
270.0
  0
ARC
  5
2F428
  8
0
 10
6609.7803011044516097
 20
284.0730743018779094
 30
0.0
 40
0.03
 50
90.0
 51
180.0000000000065086
  0
LINE
  5
2F429
  8
0
 10
6609.2554394836706706
 20
284.1863585691842786
 30
0.0
 11
6611.4420131190308894
 21
284.1863585691842786
 31
0.0
  0
LINE
  5
2F42A
  8
0
 10
6611.4737263013512347
 20
284.2254907637653787
 30
0.0
 11
6611.4737263013512347
 21
284.5830743018779003
 31
0.0
  0
LINE
  5
2F42B
  8
0
 10
6610.9471514982506051
 20
282.6794688094752814
 30
0.0
 11
6610.9471514982506051
 21
283.0045052298966084
 31
0.0
  0
LINE
  5
2F42C
  8
0
 10
6610.9471514982506051
 20
283.651643373859315
 30
0.0
 11
6610.9471514982506051
 21
284.0730743018779094
 31
0.0
  0
ARC
  5
2F42D
  8
0
 10
6612.1105320025071705
 20
283.0140396184937117
 30
0.0
 40
1.3254251594986139
 50
151.4807657050633907
 51
153.0941901443569861
  0
ARC
  5
2F42E
  8
0
 10
6611.753654686182017
 20
283.1951393188634256
 30
0.0
 40
0.9252270580790202
 50
153.0941901443569861
 51
156.2634009270786066
  0
ARC
  5
2F42F
  8
0
 10
6611.6751768360672941
 20
283.2296484926645235
 30
0.0
 40
0.8394969231471444
 50
156.2634009270786066
 51
159.7896458740920878
  0
ARC
  5
2F430
  8
0
 10
6611.4986608384779174
 20
283.294629953654578
 30
0.0
 40
0.6513999064866259
 50
159.7896458740920878
 51
165.6840173141509069
  0
ARC
  5
2F431
  8
0
 10
6611.3977652326557291
 20
283.3203778967426274
 30
0.0
 40
0.5472707566398421
 50
165.6840173141509069
 51
174.318724700041713
  0
ARC
  5
2F432
  8
0
 10
6611.4123271340540668
 20
283.3245960721397978
 30
0.0
 40
0.5613718759678878
 50
174.8942729378186982
 51
179.6449961819851069
  0
ARC
  5
2F433
  8
0
 10
6610.9371514982522058
 20
283.651643373859315
 30
0.0
 40
0.01
 50
331.4807657053841012
 51
359.999999999876195
  0
ARC
  5
2F434
  8
0
 10
6612.1105320025071705
 20
283.642108985262098
 30
0.0
 40
1.3254251594986139
 50
206.9058098556430139
 51
208.5192342949366093
  0
ARC
  5
2F435
  8
0
 10
6611.753654686182017
 20
283.4610092848923841
 30
0.0
 40
0.9252270580790202
 50
203.7365990729213081
 51
206.9058098556430139
  0
ARC
  5
2F436
  8
0
 10
6611.6751768360672941
 20
283.4265001110912863
 30
0.0
 40
0.8394969231471444
 50
200.2103541259077986
 51
203.7365990729213081
  0
ARC
  5
2F437
  8
0
 10
6611.4986608384779174
 20
283.3615186501011749
 30
0.0
 40
0.6513999064866259
 50
194.3159826858490078
 51
200.2103541259077986
  0
ARC
  5
2F438
  8
0
 10
6611.3977652326557291
 20
283.335770707013296
 30
0.0
 40
0.5472707566398421
 50
185.6812752999582017
 51
194.3159826858490078
  0
ARC
  5
2F439
  8
0
 10
6611.4123271340540668
 20
283.3315525316160119
 30
0.0
 40
0.5613718759678878
 50
180.3550038180148931
 51
185.1057270621811881
  0
ARC
  5
2F43A
  8
0
 10
6610.9371514982522058
 20
283.0045052298966084
 30
0.0
 40
0.01
 50
0.0000000001205049
 51
28.519234294615881
  0
LINE
  5
2F43B
  8
0
 10
6610.8348991263837888
 20
282.5589321662607745
 30
0.0
 11
6610.9412936338821964
 21
282.6653266738582033
 31
0.0
  0
ARC
  5
2F43C
  8
0
 10
6610.8207569907526704
 20
282.5730743018779094
 30
0.0
 40
0.02
 50
270.0
 51
315.0000000269055818
  0
ARC
  5
2F43D
  8
0
 10
6610.927151498251078
 20
282.6794688094752814
 30
0.0
 40
0.02
 50
315.0000000269055818
 51
0.0
  0
LINE
  5
2F43E
  8
0
 10
6611.4420131190308894
 20
284.1863585691842786
 30
0.0
 11
6611.0692161515671614
 21
284.1074133289725978
 31
0.0
  0
ARC
  5
2F43F
  8
0
 10
6611.4337263013512711
 20
284.2254907637653787
 30
0.0
 40
0.04
 50
281.9565842494570802
 51
0.0000000000065138
  0
ARC
  5
2F440
  8
0
 10
6611.4637263013510164
 20
284.5830743018779003
 30
0.0
 40
0.01
 50
359.9999999999575948
 51
90.0
  0
ARC
  5
2F441
  8
0
 10
6611.0277820631654322
 20
284.3030743018779845
 30
0.0
 40
0.2
 50
270.0
 51
281.9565842494570802
  0
ARC
  5
2F442
  8
0
 10
6610.9171514982499502
 20
284.0730743018779094
 30
0.0
 40
0.03
 50
359.9999999999935199
 51
90.0
  0
LINE
  5
2F443
  8
0
 10
6613.0888837817010426
 20
284.2710111567930085
 30
0.0
 11
6613.0888837817010426
 21
284.5930743018778912
 31
0.0
  0
LINE
  5
2F444
  8
0
 10
6613.798726301401075
 20
275.6606333569778826
 30
0.0
 11
6613.798726301401075
 21
280.7176868790103867
 31
0.0
  0
LINE
  5
2F445
  8
0
 10
6613.5213405496851919
 20
284.120633356977919
 30
0.0
 11
6615.1761120531164124
 21
284.120633356977919
 31
0.0
  0
LINE
  5
2F446
  8
0
 10
6613.1169622750112467
 20
284.2332728011552945
 30
0.0
 11
6613.4647330162288199
 21
284.1289415787894086
 31
0.0
  0
ARC
  5
2F447
  8
0
 10
6613.1282837817007021
 20
284.2710111567930085
 30
0.0
 40
0.0394
 50
180.0
 51
253.3007557660091891
  0
ARC
  5
2F448
  8
0
 10
6613.5213405496851919
 20
284.3176333569779217
 30
0.0
 40
0.197
 50
253.3007557660091891
 51
270.0
  0
LINE
  5
2F449
  8
0
 10
6613.1169622750112467
 20
284.2332728011552945
 30
0.0
 11
6615.5804903277930862
 21
284.2332728011552945
 31
0.0
  0
LINE
  5
2F44A
  8
0
 10
6614.0763205141010985
 20
282.7622890509666718
 30
0.0
 11
6614.0763205141010985
 21
284.1006333569778803
 31
0.0
  0
ARC
  5
2F44B
  8
0
 10
6614.3644152021815898
 20
283.7157667884459897
 30
0.0
 40
1.0986619663227271
 50
260.6395475115260751
 51
269.1817880467334021
  0
ARC
  5
2F44C
  8
0
 10
6614.2089205141010098
 20
282.7622890509666718
 30
0.0
 40
0.1326
 50
179.9999999999967031
 51
259.9247910673805109
  0
ARC
  5
2F44D
  8
0
 10
6614.0963205141024446
 20
284.1006333569778803
 30
0.0
 40
0.02
 50
90.0
 51
179.9999999999901945
  0
LINE
  5
2F44E
  8
0
 10
6614.0438865963024
 20
282.7336602600570927
 30
0.0
 11
6614.0438865963024
 21
284.120633356977919
 31
0.0
  0
ARC
  5
2F44F
  8
0
 10
6614.3473645330832369
 20
283.541250850421477
 30
0.0
 40
0.9556741929322317
 50
259.4453909949302215
 51
270.0816424721531916
  0
ARC
  5
2F450
  8
0
 10
6614.2067216244031442
 20
282.7637168090843147
 30
0.0
 40
0.1655857557773583
 50
190.4581048812133872
 51
258.0059451662751826
  0
LINE
  5
2F451
  8
0
 10
6613.8172190031136779
 20
280.9336184062257189
 30
0.0
 11
6613.8172190031136779
 21
284.120633356977919
 31
0.0
  0
ARC
  5
2F452
  8
0
 10
6615.4604851770845926
 20
280.6359072856429862
 30
0.0
 40
1.663769954893821
 50
172.5060786850687009
 51
177.1825946466875905
  0
ARC
  5
2F453
  8
0
 10
6603.5529497068419005
 20
281.6932220186524773
 30
0.0
 40
10.2923380159424909
 50
355.316838463308784
 51
355.7675614673768791
  0
LINE
  5
2F454
  8
0
 10
6615.6085688211023808
 20
284.2710111567930085
 30
0.0
 11
6615.6085688211023808
 21
284.5930743018778912
 31
0.0
  0
LINE
  5
2F455
  8
0
 10
6614.8987263014023483
 20
275.6606333569778826
 30
0.0
 11
6614.8987263014023483
 21
280.7176868790103867
 31
0.0
  0
LINE
  5
2F456
  8
0
 10
6615.5804903277930862
 20
284.2332728011552945
 30
0.0
 11
6615.232719586571875
 21
284.1289415787894086
 31
0.0
  0
ARC
  5
2F457
  8
0
 10
6615.5691688210999928
 20
284.2710111567930085
 30
0.0
 40
0.0394
 50
286.6992442339907825
 51
0.0
  0
ARC
  5
2F458
  8
0
 10
6615.1761120531164124
 20
284.3176333569779217
 30
0.0
 40
0.197
 50
270.0
 51
286.6992442339907825
  0
LINE
  5
2F459
  8
0
 10
6614.6211320887023248
 20
282.7622890509666718
 30
0.0
 11
6614.6211320887023248
 21
284.1006333569778803
 31
0.0
  0
ARC
  5
2F45A
  8
0
 10
6614.333037400619105
 20
283.7157667884459897
 30
0.0
 40
1.0986619663227271
 50
270.8182119532665979
 51
279.3604524884739249
  0
ARC
  5
2F45B
  8
0
 10
6614.4885320887005946
 20
282.7622890509666718
 30
0.0
 40
0.1326
 50
280.0752089326194891
 51
0.0000000000032569
  0
ARC
  5
2F45C
  8
0
 10
6614.6011320887009788
 20
284.1006333569778803
 30
0.0
 40
0.02
 50
0.0000000000097707
 51
90.0
  0
LINE
  5
2F45D
  8
0
 10
6614.6535660065010234
 20
282.7336602600570927
 30
0.0
 11
6614.6535660065010234
 21
284.120633356977919
 31
0.0
  0
ARC
  5
2F45E
  8
0
 10
6614.350088069719277
 20
283.541250850421477
 30
0.0
 40
0.9556741929322317
 50
269.9183575278468084
 51
280.5546090050697785
  0
ARC
  5
2F45F
  8
0
 10
6614.4907309783993696
 20
282.7637168090843147
 30
0.0
 40
0.1655857557773583
 50
281.9940548337248174
 51
349.5418951187866128
  0
LINE
  5
2F460
  8
0
 10
6614.8802335996879265
 20
280.9336184062257189
 30
0.0
 11
6614.8802335996879265
 21
284.120633356977919
 31
0.0
  0
ARC
  5
2F461
  8
0
 10
6613.2369674257170118
 20
280.6359072856429862
 30
0.0
 40
1.663769954893821
 50
2.817405353312421
 51
7.4939213149312547
  0
ARC
  5
2F462
  8
0
 10
6625.1445028959606134
 20
281.6932220186524773
 30
0.0
 40
10.2923380159424909
 50
184.2324385326230924
 51
184.6831615366911024
  0
LINE
  5
2F463
  8
0
 10
6614.618726301400784
 20
284.120633356977919
 30
0.0
 11
6614.618726301400784
 21
284.1101435451708994
 31
0.0
  0
LINE
  5
2F464
  8
0
 10
6614.0787263013999109
 20
284.120633356977919
 30
0.0
 11
6614.0787263013999109
 21
284.1101435451708994
 31
0.0
  0
ARC
  5
2F465
  8
0
 10
6621.0045993943012945
 20
281.7125323835779227
 30
0.0
 40
0.59
 50
141.6822876629350105
 51
78.3177123370198558
  0
ARC
  5
2F466
  8
0
 10
6621.1159659078593904
 20
282.2511393828438031
 30
0.0
 40
0.04
 50
78.3177123370198558
 51
109.9999999999891998
  0
ARC
  5
2F467
  8
0
 10
6620.5730777898243105
 20
282.0535442673423745
 30
0.0
 40
0.04
 50
109.9999999999891998
 51
141.6822876629350105
  0
LINE
  5
2F468
  8
0
 10
6621.1022851021252791
 20
282.2887270876752268
 30
0.0
 11
6620.5593969840911086
 21
282.0911319721739119
 31
0.0
  0
LINE
  5
2F469
  8
0
 10
6620.8399378998092288
 20
283.0420774414985203
 30
0.0
 11
6621.1059084264234116
 21
282.3113294253176946
 31
0.0
  0
LINE
  5
2F46A
  8
0
 10
6620.2761223272891584
 20
282.8368653555530727
 30
0.0
 11
6620.54209285401339
 21
282.1061173393438253
 31
0.0
  0
LINE
  5
2F46B
  8
0
 10
6620.0030476517276838
 20
283.6280743018779162
 30
0.0
 11
6618.9359200407088792
 21
283.6280743018779162
 31
0.0
  0
LINE
  5
2F46C
  8
0
 10
6617.7615325621945885
 20
283.6280743018779162
 30
0.0
 11
6617.3541835138048555
 21
283.6280743018779162
 31
0.0
  0
LINE
  5
2F46D
  8
0
 10
6620.003047651696761
 20
283.0280743018778935
 30
0.0
 11
6618.9359200407088792
 21
283.0280743018778935
 31
0.0
  0
LINE
  5
2F46E
  8
0
 10
6617.7615325621945885
 20
283.0280743018778935
 30
0.0
 11
6617.3541835138048555
 21
283.0280743018778935
 31
0.0
  0
ARC
  5
2F46F
  8
0
 10
6620.003047651696761
 20
282.73747430187791
 30
0.0
 40
0.2906
 50
20.0000000052101399
 51
90.0
  0
ARC
  5
2F470
  8
0
 10
6620.0030476517276838
 20
282.73747430187791
 30
0.0
 40
0.8905999999999998
 50
19.9999999982632204
 51
90.0
  0
ARC
  5
2F471
  8
0
 10
6621.0871145740065913
 20
282.3044890224517189
 30
0.0
 40
0.02
 50
289.9999999999891998
 51
19.9999999982601615
  0
ARC
  5
2F472
  8
0
 10
6620.5608867064283913
 20
282.1129577422119041
 30
0.0
 40
0.02
 50
200.0000000052100972
 51
289.9999999999891998
  0
LINE
  5
2F473
  8
0
 10
6619.4737263014521886
 20
284.2254907637653787
 30
0.0
 11
6619.4737263014521886
 21
284.5830743018779003
 31
0.0
  0
LINE
  5
2F474
  8
0
 10
6618.947151498351559
 20
282.6794688094752814
 30
0.0
 11
6618.947151498351559
 21
283.0045052298966084
 31
0.0
  0
LINE
  5
2F475
  8
0
 10
6618.947151498351559
 20
283.651643373859315
 30
0.0
 11
6618.947151498351559
 21
284.0730743018779094
 31
0.0
  0
LINE
  5
2F476
  8
0
 10
6617.2660491361020831
 20
283.1453802776846942
 30
0.0
 11
6617.2660491361020831
 21
283.5107683260711724
 31
0.0
  0
LINE
  5
2F477
  8
0
 10
6617.3541835137357339
 20
283.0280743018778935
 30
0.0
 11
6617.3541835137357339
 21
283.6280743018779162
 31
0.0
  0
LINE
  5
2F478
  8
0
 10
6617.3378004729138411
 20
283.6195458305971897
 30
0.0
 11
6617.2696660952096863
 21
283.5222398547904845
 31
0.0
  0
LINE
  5
2F479
  8
0
 10
6617.2696660952096863
 20
283.1339087489653252
 30
0.0
 11
6617.3378004729138411
 21
283.0366027731585064
 31
0.0
  0
ARC
  5
2F47A
  8
0
 10
6617.3541835138048555
 20
283.6080743018778776
 30
0.0
 40
0.02
 50
90.0
 51
145.000000026869202
  0
ARC
  5
2F47B
  8
0
 10
6617.2860491361016102
 20
283.5107683260711724
 30
0.0
 40
0.02
 50
145.000000026871902
 51
180.0
  0
ARC
  5
2F47C
  8
0
 10
6617.2860491361016102
 20
283.1453802776846942
 30
0.0
 40
0.02
 50
180.0
 51
214.999999973128098
  0
ARC
  5
2F47D
  8
0
 10
6617.3541835138048555
 20
283.048074301877989
 30
0.0
 40
0.02
 50
214.9999999731307128
 51
270.0
  0
ARC
  5
2F47E
  8
0
 10
6620.110532002605396
 20
283.0140396184937117
 30
0.0
 40
1.3254251594986139
 50
151.4807657050633907
 51
153.0941901443569861
  0
ARC
  5
2F47F
  8
0
 10
6619.7536546862838804
 20
283.1951393188634256
 30
0.0
 40
0.9252270580790202
 50
153.0941901443569861
 51
156.2634009270786066
  0
ARC
  5
2F480
  8
0
 10
6619.6751768361673385
 20
283.2296484926645235
 30
0.0
 40
0.8394969231471444
 50
156.2634009270786066
 51
159.7896458740920878
  0
ARC
  5
2F481
  8
0
 10
6619.4986608385788713
 20
283.294629953654578
 30
0.0
 40
0.6513999064866259
 50
159.7896458740920878
 51
165.6840173141509069
  0
ARC
  5
2F482
  8
0
 10
6619.3977652327539545
 20
283.3203778967426274
 30
0.0
 40
0.5472707566398421
 50
165.6840173141509069
 51
174.318724700041713
  0
ARC
  5
2F483
  8
0
 10
6619.4123271341541113
 20
283.3245960721397978
 30
0.0
 40
0.5613718759678878
 50
174.8942729378186982
 51
179.6449961819851069
  0
ARC
  5
2F484
  8
0
 10
6618.9371514983522502
 20
283.651643373859315
 30
0.0
 40
0.01
 50
331.4807657053841012
 51
359.999999999876195
  0
ARC
  5
2F485
  8
0
 10
6620.110532002605396
 20
283.642108985262098
 30
0.0
 40
1.3254251594986139
 50
206.9058098556430139
 51
208.5192342949366093
  0
ARC
  5
2F486
  8
0
 10
6619.7536546862838804
 20
283.4610092848923841
 30
0.0
 40
0.9252270580790202
 50
203.7365990729213081
 51
206.9058098556430139
  0
ARC
  5
2F487
  8
0
 10
6619.6751768361673385
 20
283.4265001110912863
 30
0.0
 40
0.8394969231471444
 50
200.2103541259077986
 51
203.7365990729213081
  0
ARC
  5
2F488
  8
0
 10
6619.4986608385788713
 20
283.3615186501011749
 30
0.0
 40
0.6513999064866259
 50
194.3159826858490078
 51
200.2103541259077986
  0
ARC
  5
2F489
  8
0
 10
6619.3977652327539545
 20
283.335770707013296
 30
0.0
 40
0.5472707566398421
 50
185.6812752999582017
 51
194.3159826858490078
  0
ARC
  5
2F48A
  8
0
 10
6619.4123271341541113
 20
283.3315525316160119
 30
0.0
 40
0.5613718759678878
 50
180.3550038180148931
 51
185.1057270621811881
  0
ARC
  5
2F48B
  8
0
 10
6618.9371514983522502
 20
283.0045052298966084
 30
0.0
 40
0.01
 50
0.0000000001205049
 51
28.519234294615881
  0
LINE
  5
2F48C
  8
0
 10
6618.8207569908536243
 20
282.5530743018779276
 30
0.0
 11
6617.8766956120480245
 21
282.5530743018779276
 31
0.0
  0
LINE
  5
2F48D
  8
0
 10
6618.8348991264838332
 20
282.5589321662607745
 30
0.0
 11
6618.9412936339822409
 21
282.6653266738582033
 31
0.0
  0
ARC
  5
2F48E
  8
0
 10
6618.8207569908536243
 20
282.5730743018779094
 30
0.0
 40
0.02
 50
270.0
 51
315.0000000269055818
  0
ARC
  5
2F48F
  8
0
 10
6618.9271514983511224
 20
282.6794688094752814
 30
0.0
 40
0.02
 50
315.0000000269055818
 51
0.0
  0
LINE
  5
2F490
  8
0
 10
6618.9412936339822409
 20
282.6653266738582033
 30
0.0
 11
6617.7561589689221364
 21
282.6653266738582033
 31
0.0
  0
LINE
  5
2F491
  8
0
 10
6619.4637263014510609
 20
284.5930743018778912
 30
0.0
 11
6617.2337263014505879
 21
284.5930743018778912
 31
0.0
  0
LINE
  5
2F492
  8
0
 10
6619.4420131191318433
 20
284.1863585691842786
 30
0.0
 11
6619.0692161516681153
 21
284.1074133289725978
 31
0.0
  0
ARC
  5
2F493
  8
0
 10
6619.4337263014513155
 20
284.2254907637653787
 30
0.0
 40
0.04
 50
281.9565842494570802
 51
0.0000000000065138
  0
ARC
  5
2F494
  8
0
 10
6619.4637263014510609
 20
284.5830743018779003
 30
0.0
 40
0.01
 50
359.9999999999575948
 51
90.0
  0
LINE
  5
2F495
  8
0
 10
6619.0277820632636576
 20
284.1030743018778821
 30
0.0
 11
6617.6696705396379912
 21
284.1030743018778821
 31
0.0
  0
ARC
  5
2F496
  8
0
 10
6619.0277820632636576
 20
284.3030743018779845
 30
0.0
 40
0.2
 50
270.0
 51
281.9565842494570802
  0
ARC
  5
2F497
  8
0
 10
6618.9171514983509041
 20
284.0730743018779094
 30
0.0
 40
0.03
 50
359.9999999999935199
 51
90.0
  0
LINE
  5
2F498
  8
0
 10
6619.4420131191318433
 20
284.1863585691842786
 30
0.0
 11
6617.2554394837698055
 21
284.1863585691842786
 31
0.0
  0
LINE
  5
2F499
  8
0
 10
6617.2237263014512791
 20
284.2254907637653787
 30
0.0
 11
6617.2237263014512791
 21
284.5830743018779003
 31
0.0
  0
LINE
  5
2F49A
  8
0
 10
6617.7503011045509993
 20
282.6794688094752814
 30
0.0
 11
6617.7503011045509993
 21
283.0045052298966084
 31
0.0
  0
LINE
  5
2F49B
  8
0
 10
6617.7503011045509993
 20
283.651643373859315
 30
0.0
 11
6617.7503011045509993
 21
284.0730743018779094
 31
0.0
  0
ARC
  5
2F49C
  8
0
 10
6616.5869206002971623
 20
283.0140396184937117
 30
0.0
 40
1.3254251594986139
 50
26.9058098556430316
 51
28.51923429493662
  0
ARC
  5
2F49D
  8
0
 10
6616.9437979166186778
 20
283.1951393188634256
 30
0.0
 40
0.9252270580790202
 50
23.7365990729213401
 51
26.9058098556430316
  0
ARC
  5
2F49E
  8
0
 10
6617.0222757667361293
 20
283.2296484926645235
 30
0.0
 40
0.8394969231471444
 50
20.2103541259078412
 51
23.7365990729213401
  0
ARC
  5
2F49F
  8
0
 10
6617.1987917643227775
 20
283.294629953654578
 30
0.0
 40
0.6513999064866259
 50
14.3159826858490309
 51
20.2103541259078412
  0
ARC
  5
2F4A0
  8
0
 10
6617.2996873701476943
 20
283.3203778967426274
 30
0.0
 40
0.5472707566398421
 50
5.6812752999582221
 51
14.3159826858490309
  0
ARC
  5
2F4A1
  8
0
 10
6617.2851254687493565
 20
283.3245960721397978
 30
0.0
 40
0.5613718759678878
 50
0.3550038180148844
 51
5.1057270621812432
  0
ARC
  5
2F4A2
  8
0
 10
6617.7603011045521271
 20
283.651643373859315
 30
0.0
 40
0.01
 50
180.000000000120508
 51
208.5192342946158135
  0
ARC
  5
2F4A3
  8
0
 10
6616.5869206002971623
 20
283.642108985262098
 30
0.0
 40
1.3254251594986139
 50
331.4807657050633907
 51
333.0941901443570146
  0
ARC
  5
2F4A4
  8
0
 10
6616.9437979166186778
 20
283.4610092848923841
 30
0.0
 40
0.9252270580790202
 50
333.0941901443570146
 51
336.2634009270786919
  0
ARC
  5
2F4A5
  8
0
 10
6617.0222757667361293
 20
283.4265001110912863
 30
0.0
 40
0.8394969231471444
 50
336.2634009270786919
 51
339.789645874092173
  0
ARC
  5
2F4A6
  8
0
 10
6617.1987917643227775
 20
283.3615186501011749
 30
0.0
 40
0.6513999064866259
 50
339.789645874092173
 51
345.684017314147809
  0
ARC
  5
2F4A7
  8
0
 10
6617.2996873701476943
 20
283.335770707013296
 30
0.0
 40
0.5472707566398421
 50
345.6840173141509922
 51
354.3187247000416846
  0
ARC
  5
2F4A8
  8
0
 10
6617.2851254687493565
 20
283.3315525316160119
 30
0.0
 40
0.5613718759678878
 50
354.8942729378186982
 51
359.6449961819851069
  0
ARC
  5
2F4A9
  8
0
 10
6617.7603011045521271
 20
283.0045052298966084
 30
0.0
 40
0.01
 50
151.4807657053841012
 51
179.999999999876195
  0
LINE
  5
2F4AA
  8
0
 10
6617.862553476418725
 20
282.5589321662607745
 30
0.0
 11
6617.7561589689221364
 21
282.6653266738582033
 31
0.0
  0
ARC
  5
2F4AB
  8
0
 10
6617.8766956120480245
 20
282.5730743018779094
 30
0.0
 40
0.02
 50
224.9999999730943898
 51
270.0
  0
ARC
  5
2F4AC
  8
0
 10
6617.7703011045514359
 20
282.6794688094752814
 30
0.0
 40
0.02
 50
180.0
 51
224.9999999730943898
  0
LINE
  5
2F4AD
  8
0
 10
6617.2554394837698055
 20
284.1863585691842786
 30
0.0
 11
6617.6282364512362619
 21
284.1074133289725978
 31
0.0
  0
ARC
  5
2F4AE
  8
0
 10
6617.2637263014512428
 20
284.2254907637653787
 30
0.0
 40
0.04
 50
179.9999999999934914
 51
258.0434157505429198
  0
ARC
  5
2F4AF
  8
0
 10
6617.2337263014505879
 20
284.5830743018779003
 30
0.0
 40
0.01
 50
90.0
 51
180.0000000000391083
  0
ARC
  5
2F4B0
  8
0
 10
6617.6696705396379912
 20
284.3030743018779845
 30
0.0
 40
0.2
 50
258.0434157505429198
 51
270.0
  0
ARC
  5
2F4B1
  8
0
 10
6617.7803011045507446
 20
284.0730743018779094
 30
0.0
 40
0.03
 50
90.0
 51
180.0000000000065086
  0
ARC
  5
2F4B2
  8
0
 10
6614.3487263014003474
 20
275.6606333569778826
 30
0.0
 40
0.5500000000000007
 50
180.0
 51
0.0
  0
CIRCLE
  5
2F4B3
  8
0
 10
6614.3487263014521886
 20
283.0036333569779003
 30
0.0
 40
0.0468053358999999
  0
CIRCLE
  5
2F4B4
  8
0
 10
6614.3487263014521886
 20
283.0036333569779003
 30
0.0
 40
0.0971351769999998
  0
CIRCLE
  5
2F4B5
  8
0
 10
6614.3487263014521886
 20
283.0036333569779003
 30
0.0
 40
0.1179712312000003
  0
LINE
  5
2F4B6
  8
0
 10
6614.3487263014521886
 20
283.0504386928778899
 30
0.0
 11
6614.3081585514519247
 21
283.0269785305400205
 31
0.0
  0
LINE
  5
2F4B7
  8
0
 10
6614.3081585514519247
 20
283.0269785305400205
 30
0.0
 11
6614.3081585514519247
 21
282.9802881834157233
 31
0.0
  0
LINE
  5
2F4B8
  8
0
 10
6614.3081585514519247
 20
282.9802881834157233
 30
0.0
 11
6614.3487263011056712
 21
282.9568280210779108
 31
0.0
  0
LINE
  5
2F4B9
  8
0
 10
6614.3487263014521886
 20
282.9568280210779108
 30
0.0
 11
6614.3892609114509469
 21
282.9802307214267785
 31
0.0
  0
LINE
  5
2F4BA
  8
0
 10
6614.3892609116282983
 20
282.9802307217315729
 30
0.0
 11
6614.3892608967071283
 21
283.0270360333947224
 31
0.0
  0
LINE
  5
2F4BB
  8
0
 10
6614.3487263014521886
 20
283.0504386928778899
 30
0.0
 11
6614.3892608966289117
 21
283.027036033528077
 31
0.0
  0
ENDSEC
  0
EOF
