  0
SECTION
  2
HEADER
  9
$ACADVER
  1
AC1009
  9
$INSBASE
 10
6706.0202333310589893
 20
298.0112711794100733
 30
0.0
  9
$EXTMIN
 10
6703.3627530160547394
 20
295.3537908644050844
 30
0.0
  9
$EXTMAX
 10
6709.2661064239591724
 20
300.6687515008035803
 30
0.0
  9
$LIMMIN
 10
0.0
 20
0.0
  9
$LIMMAX
 10
11.6929133858000007
 20
8.2677165353999982
  9
$ORTHOMODE
 70
     0
  9
$REGENMODE
 70
     1
  9
$FILLMODE
 70
     1
  9
$QTEXTMODE
 70
     0
  9
$MIRRTEXT
 70
     0
  9
$DRAGMODE
 70
     2
  9
$LTSCALE
 40
0.6431102362
  9
$OSMODE
 70
  4095
  9
$ATTMODE
 70
     1
  9
$TEXTSIZE
 40
0.2
  9
$TRACEWID
 40
0.05
  9
$TEXTSTYLE
  7
STANDARD
  9
$CLAYER
  8
0
  9
$CELTYPE
  6
BYLAYER
  9
$CECOLOR
 62
   256
  9
$DIMSCALE
 40
1.0
  9
$DIMASZ
 40
0.1875
  9
$DIMEXO
 40
0.0625
  9
$DIMDLI
 40
0.4443307087
  9
$DIMRND
 40
0.0
  9
$DIMDLE
 40
0.0
  9
$DIMEXE
 40
0.125
  9
$DIMTP
 40
0.01
  9
$DIMTM
 40
0.01
  9
$DIMTXT
 40
2.0
  9
$DIMCEN
 40
0.1052362205
  9
$DIMTSZ
 40
0.0
  9
$DIMTOL
 70
     1
  9
$DIMLIM
 70
     0
  9
$DIMTIH
 70
     1
  9
$DIMTOH
 70
     1
  9
$DIMSE1
 70
     0
  9
$DIMSE2
 70
     0
  9
$DIMTAD
 70
     0
  9
$DIMZIN
 70
     0
  9
$DIMBLK
  1

  9
$DIMASO
 70
     1
  9
$DIMSHO
 70
     1
  9
$DIMPOST
  1
\X
  9
$DIMAPOST
  1

  9
$DIMALT
 70
     1
  9
$DIMALTD
 70
     2
  9
$DIMALTF
 40
25.3999999999999986
  9
$DIMLFAC
 40
1.0
  9
$DIMTOFL
 70
     0
  9
$DIMTVP
 40
0.0
  9
$DIMTIX
 70
     0
  9
$DIMSOXD
 70
     0
  9
$DIMSAH
 70
     0
  9
$DIMBLK1
  1

  9
$DIMBLK2
  1

  9
$DIMSTYLE
  2
STANDARD
  9
$DIMCLRD
 70
     0
  9
$DIMCLRE
 70
     0
  9
$DIMCLRT
 70
     0
  9
$DIMTFAC
 40
1.0
  9
$DIMGAP
 40
0.09
  9
$LUNITS
 70
     2
  9
$LUPREC
 70
     4
  9
$SKETCHINC
 40
0.1
  9
$FILLETRAD
 40
0.0
  9
$AUNITS
 70
     0
  9
$AUPREC
 70
     0
  9
$MENU
  1
.
  9
$ELEVATION
 40
0.0
  9
$PELEVATION
 40
0.0
  9
$THICKNESS
 40
0.0
  9
$LIMCHECK
 70
     0
  9
$BLIPMODE
 70
     0
  9
$CHAMFERA
 40
0.0
  9
$CHAMFERB
 40
0.0
  9
$SKPOLY
 70
     0
  9
$TDCREATE
 40
2458060.468368056230247
  9
$TDUPDATE
 40
2460333.4239930561743677
  9
$TDINDWG
 40
0.965284838
  9
$TDUSRTIMER
 40
0.965284838
  9
$USRTIMER
 70
     1
  9
$ANGBASE
 50
0.0
  9
$ANGDIR
 70
     0
  9
$PDMODE
 70
     0
  9
$PDSIZE
 40
0.3125
  9
$PLINEWID
 40
0.0
  9
$COORDS
 70
     1
  9
$SPLFRAME
 70
     0
  9
$SPLINETYPE
 70
     6
  9
$SPLINESEGS
 70
     8
  9
$ATTDIA
 70
     1
  9
$ATTREQ
 70
     1
  9
$HANDLING
 70
     1
  9
$HANDSEED
  5
3E1FC
  9
$SURFTAB1
 70
     6
  9
$SURFTAB2
 70
     6
  9
$SURFTYPE
 70
     6
  9
$SURFU
 70
     6
  9
$SURFV
 70
     6
  9
$UCSNAME
  2

  9
$UCSORG
 10
0.0
 20
0.0
 30
0.0
  9
$UCSXDIR
 10
1.0
 20
0.0
 30
0.0
  9
$UCSYDIR
 10
0.0
 20
1.0
 30
0.0
  9
$PUCSNAME
  2

  9
$PUCSORG
 10
0.0
 20
0.0
 30
0.0
  9
$PUCSXDIR
 10
1.0
 20
0.0
 30
0.0
  9
$PUCSYDIR
 10
0.0
 20
1.0
 30
0.0
  9
$USERI1
 70
     0
  9
$USERI2
 70
     0
  9
$USERI3
 70
     0
  9
$USERI4
 70
     0
  9
$USERI5
 70
     0
  9
$USERR1
 40
0.0
  9
$USERR2
 40
0.0
  9
$USERR3
 40
0.0
  9
$USERR4
 40
0.0
  9
$USERR5
 40
0.0
  9
$WORLDVIEW
 70
     1
  9
$SHADEDGE
 70
     3
  9
$SHADEDIF
 70
    70
  9
$TILEMODE
 70
     1
  9
$MAXACTVP
 70
    64
  9
$PLIMCHECK
 70
     0
  9
$PEXTMIN
 10
1.0000000000000000E+20
 20
1.0000000000000000E+20
 30
1.0000000000000000E+20
  9
$PEXTMAX
 10
-1.0000000000000000E+20
 20
-1.0000000000000000E+20
 30
-1.0000000000000000E+20
  9
$PLIMMIN
 10
0.0
 20
0.0
  9
$PLIMMAX
 10
12.0
 20
9.0
  9
$UNITMODE
 70
     0
  9
$VISRETAIN
 70
     1
  9
$PLINEGEN
 70
     0
  9
$PSLTSCALE
 70
     1
  0
ENDSEC
  0
SECTION
  2
TABLES
  0
TABLE
  2
VPORT
 70
     1
  0
VPORT
  2
*ACTIVE
 70
     0
 10
0.0
 20
0.0
 11
1.0
 21
1.0
 12
2794.9490732746940012
 22
165.4316660800652983
 13
0.0
 23
0.0
 14
1.0
 24
1.0
 15
0.0
 25
0.0
 16
0.0
 26
0.0
 36
60.4960186965801583
 17
3911.3653564453120453
 27
132.5796051025390057
 37
0.0
 40
5.3540424433433316
 41
2.1211111111111101
 42
50.0
 43
0.0
 44
0.0
 50
0.0
 51
0.0
 71
     0
 72
   100
 73
     1
 74
     1
 75
     0
 76
     0
 77
     0
 78
     0
  0
ENDTAB
  0
TABLE
  2
LTYPE
 70
     2
  0
LTYPE
  2
CONTINUOUS
 70
     0
  3
Solid line
 72
    65
 73
     0
 40
0.0
  0
LTYPE
  2
PHANTOM2
 70
     0
  3
___ _ _ ___ _ _ ___ _ _ ___ _ _
 72
    65
 73
     6
 40
1.25
 49
0.625
 49
-0.125
 49
0.125
 49
-0.125
 49
0.125
 49
-0.125
  0
ENDTAB
  0
TABLE
  2
LAYER
 70
     2
  0
LAYER
  2
0
 70
     0
 62
   255
  6
CONTINUOUS
  0
LAYER
  2
DEFPOINTS
 70
     0
 62
     7
  6
CONTINUOUS
  0
ENDTAB
  0
TABLE
  2
STYLE
 70
     1
  0
STYLE
  2
STANDARD
 70
     0
 40
0.0
 41
0.8
 50
0.0
 71
     0
 42
0.2
  3
txt
  4

  0
ENDTAB
  0
TABLE
  2
VIEW
 70
     0
  0
ENDTAB
  0
TABLE
  2
UCS
 70
     0
  0
ENDTAB
  0
TABLE
  2
APPID
 70
    11
  0
APPID
  2
ACAD
 70
     0
  0
APPID
  2
ACAD_MLEADERVER
 70
     0
  0
APPID
  2
ACAD_EXEMPT_FROM_CAD_STANDARDS
 70
     0
  0
APPID
  2
ACAD_NAV_VCDISPLAY
 70
     0
  0
APPID
  2
ACAECLAYERSTANDARD
 70
     0
  0
APPID
  2
ACCMTRANSPARENCY
 70
     0
  0
APPID
  2
ACAD_DSTYLE_DIMJAG
 70
     0
  0
APPID
  2
ACAD_DSTYLE_DIMTALN
 70
     0
  0
APPID
  2
ACDBATTR
 70
     0
  0
APPID
  2
ACADANNOTATIVE
 70
     0
  0
APPID
  2
DCO15
 70
     0
  0
ENDTAB
  0
TABLE
  2
DIMSTYLE
 70
     1
  0
DIMSTYLE
  2
STANDARD
 70
     0
  3

  4

  5

  6

  7

 40
1.0
 41
0.1875
 42
0.0625
 43
0.38
 44
0.125
 45
0.0
 46
0.0
 47
0.01
 48
0.01
140
0.15625
141
0.09
142
0.0
143
25.3999999999999986
144
1.0
145
0.0
146
1.0
147
0.09
 71
     1
 72
     0
 73
     1
 74
     1
 75
     0
 76
     0
 77
     0
 78
     4
170
     0
171
     2
172
     0
173
     0
174
     0
175
     0
176
     0
177
     0
178
     0
  0
ENDTAB
  0
ENDSEC
  0
SECTION
  2
BLOCKS
  0
BLOCK
  8
0
  2
$MODEL_SPACE
 70
     0
 10
0.0
 20
0.0
 30
0.0
  3
$MODEL_SPACE
  1

  0
ENDBLK
  5
21
  8
0
  0
BLOCK
 67
     1
  8
0
  2
$PAPER_SPACE
 70
     0
 10
0.0
 20
0.0
 30
0.0
  3
$PAPER_SPACE
  1

  0
ENDBLK
  5
1D
 67
     1
  8
0
  0
ENDSEC
  0
SECTION
  2
ENTITIES
  0
ATTDEF
  5
3DC04
  8
DEFPOINTS
 10
6706.0164746201880916
 20
298.0152811914227868
 30
0.0
 40
0.001
  1
P34866-BN
  3

  2
MODELNUMBER
 70
     0
1001
ACDBATTR
1070
     0
1070
     1
  0
ATTDEF
  5
3DC05
  8
DEFPOINTS
 10
6706.0163488105299621
 20
298.0136143510437137
 30
0.0
 40
0.001
  1
VICE
  3

  2
TRADENAME
 70
     0
1001
ACDBATTR
1070
     0
1070
     1
  0
ATTDEF
  5
3DC06
  8
DEFPOINTS
 10
6706.0164746201880916
 20
298.0119478580895134
 30
0.0
 40
0.001
  1
VALVE TRIM
  3

  2
PRODUCT
 70
     0
1001
ACDBATTR
1070
     0
1070
     1
  0
LINE
  5
3E0C0
  8
0
 10
6704.1127530160583774
 20
300.6687514943100723
 30
0.0
 11
6707.9277136460586917
 21
300.6687514943100723
 31
0.0
  0
LINE
  5
3E0C1
  8
0
 10
6704.1127530160583774
 20
295.3537908644100867
 30
0.0
 11
6707.9277136460586917
 21
295.3537908644100867
 31
0.0
  0
LINE
  5
3E0C2
  8
0
 10
6703.3627530160583774
 20
299.9187514943100723
 30
0.0
 11
6703.3627530160583774
 21
296.1037908644100867
 31
0.0
  0
ARC
  5
3E0C3
  8
0
 10
6704.1127530160583774
 20
299.9187514943100723
 30
0.0
 40
0.7500000000000027
 50
90.0
 51
180.0
  0
ARC
  5
3E0C4
  8
0
 10
6704.1127502943272702
 20
296.1037881426780132
 30
0.0
 40
0.7499972782728057
 50
179.9997920742256952
 51
270.0002079257743048
  0
ARC
  5
3E0C5
  8
0
 10
6704.1127530161684263
 20
299.9187514942997268
 30
0.0
 40
0.4930688495104199
 50
90.0000000128191147
 51
179.9999999987884109
  0
LINE
  5
3E0C6
  8
0
 10
6704.1127530160583774
 20
300.4118203438101204
 30
0.0
 11
6704.4589398566577074
 21
300.411820343887598
 31
0.0
  0
ARC
  5
3E0C7
  8
0
 10
6704.4332333072261463
 20
300.6239001965632838
 30
0.0
 40
0.2136321384872816
 50
276.9112006599617075
 51
323.8111861874838837
  0
LINE
  5
3E0C8
  8
0
 10
6704.6056505944588935
 20
300.4977615044101071
 30
0.0
 11
6704.6848005014599039
 21
300.6096963762100813
 31
0.0
  0
LINE
  5
3E0C9
  8
0
 10
6704.6848005014599039
 20
300.6096963762100813
 30
0.0
 11
6707.3556659756586669
 21
300.6096966379100763
 31
0.0
  0
LINE
  5
3E0CA
  8
0
 10
6703.6196841666587716
 20
299.9187514942997268
 30
0.0
 11
6703.6196841666587716
 21
296.1037908644058234
 31
0.0
  0
ARC
  5
3E0CB
  8
0
 10
6704.1127530160547394
 20
296.1037908644058234
 30
0.0
 40
0.4930688493956974
 50
180.0
 51
270.0
  0
LINE
  5
3E0CC
  8
0
 10
6704.1127530160547394
 20
295.6107220150100829
 30
0.0
 11
6704.4589398551588602
 21
295.6107220150100829
 31
0.0
  0
ARC
  5
3E0CD
  8
0
 10
6704.4494046177087512
 20
295.4262483159729982
 30
0.0
 40
0.1847199674903717
 50
32.2365346439456602
 51
87.041079056741026
  0
LINE
  5
3E0CE
  8
0
 10
6704.605650594358849
 20
295.5247808546101282
 30
0.0
 11
6704.6848005420170011
 21
295.4128456187755205
 31
0.0
  0
LINE
  5
3E0CF
  8
0
 10
6704.6848005420170011
 20
295.4128456187755205
 30
0.0
 11
6707.3556661606580747
 21
295.4128459825100776
 31
0.0
  0
ARC
  5
3E0D0
  8
0
 10
6708.6761064239590269
 20
298.0112711794100733
 30
0.0
 40
0.5899999999999999
 50
4.9200011562065464
 51
180.0
  0
ARC
  5
3E0D1
  8
0
 10
6708.6761064239590269
 20
298.0112711794100733
 30
0.0
 40
0.5899999999999987
 50
180.0
 51
4.9200011562065464
  0
CIRCLE
  5
3E0D2
  8
0
 10
6706.0202333310589893
 20
298.0112711794100733
 30
0.0
 40
0.4860805751999996
  0
CIRCLE
  5
3E0D3
  8
0
 10
6706.0202333310589893
 20
298.0112711794100733
 30
0.0
 40
0.5984251968999996
  0
LINE
  5
3E0D4
  8
0
 10
6705.5024407433593296
 20
298.3112711794100846
 30
0.0
 11
6705.0256905434589498
 21
298.3112711794100846
 31
0.0
  0
ARC
  5
3E0D5
  8
0
 10
6705.0256905434589498
 20
298.2912711794101028
 30
0.0
 40
0.0200000000000014
 50
90.0
 51
145.0000000004087042
  0
LINE
  5
3E0D6
  8
0
 10
6705.0093075025733924
 20
298.3027427081369751
 30
0.0
 11
6704.9411731247937496
 21
298.205436732321516
 31
0.0
  0
ARC
  5
3E0D7
  8
0
 10
6704.9575561657820799
 20
298.1939652035243853
 30
0.0
 40
0.020000000122392
 50
145.0000000004087042
 51
179.9999997544827011
  0
LINE
  5
3E0D8
  8
0
 10
6704.9375561656588616
 20
298.1939652036101052
 30
0.0
 11
6704.9375561640927117
 21
297.8285771552100982
 31
0.0
  0
ARC
  5
3E0D9
  8
0
 10
6704.9575561567289697
 20
297.8285771551243784
 30
0.0
 40
0.0199999926362269
 50
179.9999997544827011
 51
215.0000144712097949
  0
LINE
  5
3E0DA
  8
0
 10
6704.9411731247728312
 20
297.8171056264832259
 30
0.0
 11
6705.0093075271151974
 21
297.7197996678971208
 31
0.0
  0
ARC
  5
3E0DB
  8
0
 10
6705.0256906061185873
 20
297.7312712294822745
 30
0.0
 40
0.020000050072266
 50
215.0000144712097949
 51
269.9998204917458793
  0
LINE
  5
3E0DC
  8
0
 10
6705.0256905434589498
 20
297.7112711794100051
 30
0.0
 11
6705.5024381784260186
 21
297.7112696857550986
 31
0.0
  0
ARC
  5
3E0DD
  8
0
 10
6706.0202333310589893
 20
298.0112711794100733
 30
0.0
 40
1.0629921259999999
 50
194.4397516144605902
 51
343.6071212512517263
  0
ARC
  5
3E0DE
  8
0
 10
6706.0202333310589893
 20
298.0112711794100733
 30
0.0
 40
1.0629921259999999
 50
16.3928787487483589
 51
165.5602483879247018
  0
ARC
  5
3E0DF
  8
0
 10
6706.0202333310589893
 20
298.0112711794100733
 30
0.0
 40
0.6884179245000003
 50
205.835051251139987
 51
334.1649487488598993
  0
ARC
  5
3E0E0
  8
0
 10
6706.0202333310589893
 20
298.0112711794100733
 30
0.0
 40
0.6884179245000003
 50
25.8350512511400616
 51
154.1649487488598993
  0
LINE
  5
3E0E1
  8
0
 10
6706.5380293490861732
 20
298.3112711794100846
 30
0.0
 11
6708.1680709921238304
 21
298.3112711794100846
 31
0.0
  0
LINE
  5
3E0E2
  8
0
 10
6706.5380293490861732
 20
297.7112711794100051
 30
0.0
 11
6708.1680709921238304
 21
297.7112711794100051
 31
0.0
  0
LINE
  5
3E0E3
  8
0
 10
6705.0256905434589498
 20
298.3112711794100846
 30
0.0
 11
6705.0256905434589498
 21
297.7112711794100051
 31
0.0
  0
LINE
  5
3E0E4
  8
0
 10
6708.6777136460577822
 20
299.9187514943100723
 30
0.0
 11
6708.6777136460577822
 21
298.601268990285007
 31
0.0
  0
LINE
  5
3E0E5
  8
0
 10
6708.6777136460577822
 20
297.4212733685351964
 30
0.0
 11
6708.6777136460577822
 21
296.1037908644100867
 31
0.0
  0
ARC
  5
3E0E6
  8
0
 10
6707.9278123321546445
 20
299.9188501804051157
 30
0.0
 40
0.7499013203984385
 50
359.992459945588223
 51
90.0075400544020141
  0
ARC
  5
3E0E7
  8
0
 10
6707.9277140999220137
 20
296.1037904105454004
 30
0.0
 40
0.7499995461354785
 50
269.9999653272747082
 51
0.0000346727253618
  0
ARC
  5
3E0E8
  8
0
 10
6707.9277136459477333
 20
299.9187514942997268
 30
0.0
 40
0.4930688495104199
 50
0.0000000012115623
 51
89.9999999871808853
  0
LINE
  5
3E0E9
  8
0
 10
6707.9277136460586917
 20
300.4118203438101204
 30
0.0
 11
6707.5815268054593616
 21
300.411820343887598
 31
0.0
  0
ARC
  5
3E0EA
  8
0
 10
6707.6072333548909228
 20
300.6239001965632838
 30
0.0
 40
0.2136321384872816
 50
216.1888138125160879
 51
263.0887993400382925
  0
LINE
  5
3E0EB
  8
0
 10
6707.4348160676590851
 20
300.4977615044101071
 30
0.0
 11
6707.3556659756586669
 21
300.6096966379100763
 31
0.0
  0
LINE
  5
3E0EC
  8
0
 10
6708.4207824954582975
 20
299.9187514942997268
 30
0.0
 11
6708.4207824954582975
 21
298.5431637357928025
 31
0.0
  0
LINE
  5
3E0ED
  8
0
 10
6708.4207824954582975
 20
297.4793786230274009
 30
0.0
 11
6708.4207824954582975
 21
296.1037908644058234
 31
0.0
  0
ARC
  5
3E0EE
  8
0
 10
6707.9277136460632391
 20
296.1037908644058234
 30
0.0
 40
0.4930688493956974
 50
270.0
 51
0.0
  0
LINE
  5
3E0EF
  8
0
 10
6707.9277136460632391
 20
295.6107220150100829
 30
0.0
 11
6707.5815268069591184
 21
295.6107220150100829
 31
0.0
  0
ARC
  5
3E0F0
  8
0
 10
6707.5910620444092274
 20
295.4262483159729982
 30
0.0
 40
0.1847199674903717
 50
92.958920943258974
 51
147.7634653560542972
  0
LINE
  5
3E0F1
  8
0
 10
6707.4348160677591295
 20
295.5247808546101282
 30
0.0
 11
6707.3556661606580747
 21
295.4128459825100776
 31
0.0
  0
ENDSEC
  0
EOF
