  0
SECTION
  2
HEADER
  9
$ACADVER
  1
AC1009
  9
$INSBASE
 10
6714.0369576556686297
 20
299.3591693297933034
 30
0.0
  9
$EXTMIN
 10
6711.3794773402250939
 20
293.5938243429934005
 30
0.0
  9
$EXTMAX
 10
6717.2828307485688129
 20
299.3640526578462868
 30
0.0
  9
$LIMMIN
 10
0.0
 20
0.0
  9
$LIMMAX
 10
11.6929133858000007
 20
8.2677165353999982
  9
$ORTHOMODE
 70
     0
  9
$REGENMODE
 70
     1
  9
$FILLMODE
 70
     1
  9
$QTEXTMODE
 70
     0
  9
$MIRRTEXT
 70
     0
  9
$DRAGMODE
 70
     2
  9
$LTSCALE
 40
0.6431102362
  9
$OSMODE
 70
  4095
  9
$ATTMODE
 70
     1
  9
$TEXTSIZE
 40
0.2
  9
$TRACEWID
 40
0.05
  9
$TEXTSTYLE
  7
STANDARD
  9
$CLAYER
  8
0
  9
$CELTYPE
  6
BYLAYER
  9
$CECOLOR
 62
   256
  9
$DIMSCALE
 40
1.0
  9
$DIMASZ
 40
0.1875
  9
$DIMEXO
 40
0.0625
  9
$DIMDLI
 40
0.4443307087
  9
$DIMRND
 40
0.0
  9
$DIMDLE
 40
0.0
  9
$DIMEXE
 40
0.125
  9
$DIMTP
 40
0.01
  9
$DIMTM
 40
0.01
  9
$DIMTXT
 40
2.0
  9
$DIMCEN
 40
0.1052362205
  9
$DIMTSZ
 40
0.0
  9
$DIMTOL
 70
     1
  9
$DIMLIM
 70
     0
  9
$DIMTIH
 70
     1
  9
$DIMTOH
 70
     1
  9
$DIMSE1
 70
     0
  9
$DIMSE2
 70
     0
  9
$DIMTAD
 70
     0
  9
$DIMZIN
 70
     0
  9
$DIMBLK
  1

  9
$DIMASO
 70
     1
  9
$DIMSHO
 70
     1
  9
$DIMPOST
  1
\X
  9
$DIMAPOST
  1

  9
$DIMALT
 70
     1
  9
$DIMALTD
 70
     2
  9
$DIMALTF
 40
25.3999999999999986
  9
$DIMLFAC
 40
1.0
  9
$DIMTOFL
 70
     0
  9
$DIMTVP
 40
0.0
  9
$DIMTIX
 70
     0
  9
$DIMSOXD
 70
     0
  9
$DIMSAH
 70
     0
  9
$DIMBLK1
  1

  9
$DIMBLK2
  1

  9
$DIMSTYLE
  2
STANDARD
  9
$DIMCLRD
 70
     0
  9
$DIMCLRE
 70
     0
  9
$DIMCLRT
 70
     0
  9
$DIMTFAC
 40
1.0
  9
$DIMGAP
 40
0.09
  9
$LUNITS
 70
     2
  9
$LUPREC
 70
     4
  9
$SKETCHINC
 40
0.1
  9
$FILLETRAD
 40
0.0
  9
$AUNITS
 70
     0
  9
$AUPREC
 70
     0
  9
$MENU
  1
.
  9
$ELEVATION
 40
0.0
  9
$PELEVATION
 40
0.0
  9
$THICKNESS
 40
0.0
  9
$LIMCHECK
 70
     0
  9
$BLIPMODE
 70
     0
  9
$CHAMFERA
 40
0.0
  9
$CHAMFERB
 40
0.0
  9
$SKPOLY
 70
     0
  9
$TDCREATE
 40
2458060.468368056230247
  9
$TDUPDATE
 40
2460333.4240740737877786
  9
$TDINDWG
 40
0.9653658565
  9
$TDUSRTIMER
 40
0.9653658565
  9
$USRTIMER
 70
     1
  9
$ANGBASE
 50
0.0
  9
$ANGDIR
 70
     0
  9
$PDMODE
 70
     0
  9
$PDSIZE
 40
0.3125
  9
$PLINEWID
 40
0.0
  9
$COORDS
 70
     1
  9
$SPLFRAME
 70
     0
  9
$SPLINETYPE
 70
     6
  9
$SPLINESEGS
 70
     8
  9
$ATTDIA
 70
     1
  9
$ATTREQ
 70
     1
  9
$HANDLING
 70
     1
  9
$HANDSEED
  5
3E307
  9
$SURFTAB1
 70
     6
  9
$SURFTAB2
 70
     6
  9
$SURFTYPE
 70
     6
  9
$SURFU
 70
     6
  9
$SURFV
 70
     6
  9
$UCSNAME
  2

  9
$UCSORG
 10
0.0
 20
0.0
 30
0.0
  9
$UCSXDIR
 10
1.0
 20
0.0
 30
0.0
  9
$UCSYDIR
 10
0.0
 20
1.0
 30
0.0
  9
$PUCSNAME
  2

  9
$PUCSORG
 10
0.0
 20
0.0
 30
0.0
  9
$PUCSXDIR
 10
1.0
 20
0.0
 30
0.0
  9
$PUCSYDIR
 10
0.0
 20
1.0
 30
0.0
  9
$USERI1
 70
     0
  9
$USERI2
 70
     0
  9
$USERI3
 70
     0
  9
$USERI4
 70
     0
  9
$USERI5
 70
     0
  9
$USERR1
 40
0.0
  9
$USERR2
 40
0.0
  9
$USERR3
 40
0.0
  9
$USERR4
 40
0.0
  9
$USERR5
 40
0.0
  9
$WORLDVIEW
 70
     1
  9
$SHADEDGE
 70
     3
  9
$SHADEDIF
 70
    70
  9
$TILEMODE
 70
     1
  9
$MAXACTVP
 70
    64
  9
$PLIMCHECK
 70
     0
  9
$PEXTMIN
 10
1.0000000000000000E+20
 20
1.0000000000000000E+20
 30
1.0000000000000000E+20
  9
$PEXTMAX
 10
-1.0000000000000000E+20
 20
-1.0000000000000000E+20
 30
-1.0000000000000000E+20
  9
$PLIMMIN
 10
0.0
 20
0.0
  9
$PLIMMAX
 10
12.0
 20
9.0
  9
$UNITMODE
 70
     0
  9
$VISRETAIN
 70
     1
  9
$PLINEGEN
 70
     0
  9
$PSLTSCALE
 70
     1
  0
ENDSEC
  0
SECTION
  2
TABLES
  0
TABLE
  2
VPORT
 70
     1
  0
VPORT
  2
*ACTIVE
 70
     0
 10
0.0
 20
0.0
 11
1.0
 21
1.0
 12
2802.9657975990839986
 22
163.8993333978806959
 13
0.0
 23
0.0
 14
1.0
 24
1.0
 15
0.0
 25
0.0
 16
0.0
 26
0.0
 36
60.4960186965801583
 17
3911.3653564453120453
 27
132.5796051025390057
 37
0.0
 40
5.8134270395242966
 41
2.1211111111111101
 42
50.0
 43
0.0
 44
0.0
 50
0.0
 51
0.0
 71
     0
 72
   100
 73
     1
 74
     1
 75
     0
 76
     0
 77
     0
 78
     0
  0
ENDTAB
  0
TABLE
  2
LTYPE
 70
     2
  0
LTYPE
  2
CONTINUOUS
 70
     0
  3
Solid line
 72
    65
 73
     0
 40
0.0
  0
LTYPE
  2
PHANTOM2
 70
     0
  3
___ _ _ ___ _ _ ___ _ _ ___ _ _
 72
    65
 73
     6
 40
1.25
 49
0.625
 49
-0.125
 49
0.125
 49
-0.125
 49
0.125
 49
-0.125
  0
ENDTAB
  0
TABLE
  2
LAYER
 70
     2
  0
LAYER
  2
0
 70
     0
 62
   255
  6
CONTINUOUS
  0
LAYER
  2
DEFPOINTS
 70
     0
 62
     7
  6
CONTINUOUS
  0
ENDTAB
  0
TABLE
  2
STYLE
 70
     1
  0
STYLE
  2
STANDARD
 70
     0
 40
0.0
 41
0.8
 50
0.0
 71
     0
 42
0.2
  3
txt
  4

  0
ENDTAB
  0
TABLE
  2
VIEW
 70
     0
  0
ENDTAB
  0
TABLE
  2
UCS
 70
     0
  0
ENDTAB
  0
TABLE
  2
APPID
 70
    11
  0
APPID
  2
ACAD
 70
     0
  0
APPID
  2
ACAD_MLEADERVER
 70
     0
  0
APPID
  2
ACAD_EXEMPT_FROM_CAD_STANDARDS
 70
     0
  0
APPID
  2
ACAD_NAV_VCDISPLAY
 70
     0
  0
APPID
  2
ACAECLAYERSTANDARD
 70
     0
  0
APPID
  2
ACCMTRANSPARENCY
 70
     0
  0
APPID
  2
ACAD_DSTYLE_DIMJAG
 70
     0
  0
APPID
  2
ACAD_DSTYLE_DIMTALN
 70
     0
  0
APPID
  2
ACDBATTR
 70
     0
  0
APPID
  2
ACADANNOTATIVE
 70
     0
  0
APPID
  2
DCO15
 70
     0
  0
ENDTAB
  0
TABLE
  2
DIMSTYLE
 70
     1
  0
DIMSTYLE
  2
STANDARD
 70
     0
  3

  4

  5

  6

  7

 40
1.0
 41
0.1875
 42
0.0625
 43
0.38
 44
0.125
 45
0.0
 46
0.0
 47
0.01
 48
0.01
140
0.15625
141
0.09
142
0.0
143
25.3999999999999986
144
1.0
145
0.0
146
1.0
147
0.09
 71
     1
 72
     0
 73
     1
 74
     1
 75
     0
 76
     0
 77
     0
 78
     4
170
     0
171
     2
172
     0
173
     0
174
     0
175
     0
176
     0
177
     0
178
     0
  0
ENDTAB
  0
ENDSEC
  0
SECTION
  2
BLOCKS
  0
BLOCK
  8
0
  2
$MODEL_SPACE
 70
     0
 10
0.0
 20
0.0
 30
0.0
  3
$MODEL_SPACE
  1

  0
ENDBLK
  5
21
  8
0
  0
BLOCK
 67
     1
  8
0
  2
$PAPER_SPACE
 70
     0
 10
0.0
 20
0.0
 30
0.0
  3
$PAPER_SPACE
  1

  0
ENDBLK
  5
1D
 67
     1
  8
0
  0
ENDSEC
  0
SECTION
  2
ENTITIES
  0
ATTDEF
  5
3DC04
  8
DEFPOINTS
 10
6714.0334191936017305
 20
299.3630526578463105
 30
0.0
 40
0.001
  1
P34866-BN
  3

  2
MODELNUMBER
 70
     0
1001
ACDBATTR
1070
     0
1070
     1
  0
ATTDEF
  5
3DC05
  8
DEFPOINTS
 10
6714.0332933839454199
 20
299.3613858174671805
 30
0.0
 40
0.001
  1
VICE
  3

  2
TRADENAME
 70
     0
1001
ACDBATTR
1070
     0
1070
     1
  0
ATTDEF
  5
3DC06
  8
DEFPOINTS
 10
6714.0334191936017305
 20
299.3597193245129802
 30
0.0
 40
0.001
  1
VALVE TRIM
  3

  2
PRODUCT
 70
     0
1001
ACDBATTR
1070
     0
1070
     1
  0
LINE
  5
3E1E1
  8
0
 10
6711.3794773402250939
 20
299.3591693297933034
 30
0.0
 11
6716.694437971113075
 21
299.3591693297933034
 31
0.0
  0
LINE
  5
3E1E2
  8
0
 10
6711.6364084912693215
 20
298.7491693297932898
 30
0.0
 11
6716.437506820067938
 21
298.7491693297932898
 31
0.0
  0
LINE
  5
3E1E3
  8
0
 10
6713.3835619823912566
 20
296.5743662612932781
 30
0.0
 11
6714.6903533289460029
 21
296.5743662612932781
 31
0.0
  0
LINE
  5
3E1E4
  8
0
 10
6713.0020226995684425
 20
296.6840593465933011
 30
0.0
 11
6715.071892611768817
 21
296.6840593465933011
 31
0.0
  0
LINE
  5
3E1E5
  8
0
 10
6712.9824911503555995
 20
297.2249174423932914
 30
0.0
 11
6715.0914241609807505
 21
297.2249174423932914
 31
0.0
  0
LINE
  5
3E1E6
  8
0
 10
6712.9939655296675483
 20
297.2549174612933029
 30
0.0
 11
6715.0799497816688017
 21
297.2549174612933029
 31
0.0
  0
LINE
  5
3E1E7
  8
0
 10
6713.5647965052676227
 20
295.0243662612933235
 30
0.0
 11
6714.509118806119659
 21
295.0243662612933235
 31
0.0
  0
LINE
  5
3E1E8
  8
0
 10
6713.4442980756903125
 20
295.1367108829933272
 30
0.0
 11
6714.6296172356478564
 21
295.1367108829933272
 31
0.0
  0
ARC
  5
3E1E9
  8
0
 10
6713.564796505216691
 20
295.0440513003385945
 30
0.0
 40
0.0196850390452852
 50
224.9999993761583141
 51
270.00000015018162
  0
LINE
  5
3E1EA
  8
0
 10
6713.5508770804681262
 20
295.0301318758932894
 30
0.0
 11
6713.4442980756903125
 21
295.1367108829933272
 31
0.0
  0
ARC
  5
3E1EB
  8
0
 10
6713.4582175028108395
 20
295.1506303121324208
 30
0.0
 40
0.0196850440422219
 50
180.0000126294754921
 51
225.0000041527916892
  0
LINE
  5
3E1EC
  8
0
 10
6713.4385324587683499
 20
295.1506303077932785
 30
0.0
 11
6713.4385323869682907
 21
295.4763663168932908
 31
0.0
  0
ARC
  5
3E1ED
  8
0
 10
6713.4465314710887469
 20
295.4763663186565168
 30
0.0
 40
0.0079990841205701
 50
151.3241810031263128
 51
180.0000126294592917
  0
ARC
  5
3E1EE
  8
0
 10
6712.5804661409329128
 20
295.9500482757832742
 30
0.0
 40
0.9791400917828307
 50
331.3241810031263981
 51
341.5797993586696748
  0
ARC
  5
3E1EF
  8
0
 10
6713.0393492113744287
 20
295.7972184838106955
 30
0.0
 40
0.4954763473784698
 50
341.5797993586696748
 51
3.3934843365930352
  0
ARC
  5
3E1F0
  8
0
 10
6712.984857481794279
 20
295.7939872971671207
 30
0.0
 40
0.5500637924539779
 50
3.3934843365930352
 51
21.4354923855848014
  0
ARC
  5
3E1F1
  8
0
 10
6712.4477926740819385
 20
295.5831300224509732
 30
0.0
 40
1.127038140222544
 50
21.4354923855848014
 51
28.1499206209443287
  0
ARC
  5
3E1F2
  8
0
 10
6712.473361637877133
 20
295.596811220135919
 30
0.0
 40
1.098039052655819
 50
28.1499206209443287
 51
28.3926035665502603
  0
ARC
  5
3E1F3
  8
0
 10
6713.4467995486711516
 20
296.1224574408041121
 30
0.0
 40
0.0082673774540211
 50
180.4778728885252121
 51
205.1761018340380929
  0
LINE
  5
3E1F4
  8
0
 10
6713.4385324587683499
 20
296.1223884879112802
 30
0.0
 11
6713.4385324587683499
 21
296.5443662612933053
 31
0.0
  0
ARC
  5
3E1F5
  8
0
 10
6713.4686413783811076
 20
296.5443662612933053
 30
0.0
 40
0.030108919612216
 50
94.8749941256934051
 51
180.0
  0
ARC
  5
3E1F6
  8
0
 10
6713.389040256152839
 20
296.7166205383641113
 30
0.0
 40
0.1423597233361494
 50
253.6912056068283903
 51
267.7946045484275146
  0
LINE
  5
3E1F7
  8
0
 10
6713.3490636489332246
 20
296.5799890569865056
 30
0.0
 11
6713.0020226995684425
 21
296.6840593465933011
 31
0.0
  0
ARC
  5
3E1F8
  8
0
 10
6713.0133356088126675
 20
296.7217690431750157
 30
0.0
 40
0.0393700791447689
 50
180.000000409976991
 51
253.3007553893087049
  0
LINE
  5
3E1F9
  8
0
 10
6712.9739655296689307
 20
296.7217690428932997
 30
0.0
 11
6712.9739655296689307
 21
297.2149174423933005
 31
0.0
  0
ARC
  5
3E1FA
  8
0
 10
6712.9841215867672872
 20
297.2148930837490752
 30
0.0
 40
0.0101560863090255
 50
99.2381171857401654
 51
179.8625800528546961
  0
ARC
  5
3E1FB
  8
0
 10
6712.9939655296675483
 20
297.2749174612932848
 30
0.0
 40
0.0199999999999978
 50
179.9999999999934914
 51
270.0
  0
LINE
  5
3E1FC
  8
0
 10
6712.9739655296689307
 20
297.2749174612932848
 30
0.0
 11
6712.9739655296689307
 21
298.7441693297932943
 31
0.0
  0
ARC
  5
3E1FD
  8
0
 10
6712.9789868467869383
 20
298.7441693297932943
 30
0.0
 40
0.0050213171175821
 50
95.2813726100747971
 51
179.9999999999967031
  0
ARC
  5
3E1FE
  8
0
 10
6711.6364084912693215
 20
298.7991693297933011
 30
0.0
 40
0.0500000000000096
 50
225.0000000005896084
 51
270.000000000469015
  0
LINE
  5
3E1FF
  8
0
 10
6711.6010531522088058
 20
298.7638139907335812
 30
0.0
 11
6711.3941220016567968
 21
298.9707451412817818
 31
0.0
  0
ARC
  5
3E200
  8
0
 10
6711.4294773408319088
 20
299.006100480456098
 30
0.0
 40
0.0500000001620325
 50
180.0000000719315949
 51
225.0000000005896084
  0
LINE
  5
3E201
  8
0
 10
6711.3794773406698368
 20
299.006100480393286
 30
0.0
 11
6711.3794773402250939
 21
299.3591693297933034
 31
0.0
  0
LINE
  5
3E202
  8
0
 10
6711.3941220016067746
 20
298.9707451413314061
 30
0.0
 11
6712.4756641812682574
 21
298.9707450237933131
 31
0.0
  0
ARC
  5
3E203
  8
0
 10
6712.4756641702688285
 20
298.8695264668021991
 30
0.0
 40
0.1012185569911252
 50
57.0099887173282767
 51
89.9999937732991526
  0
ARC
  5
3E204
  8
0
 10
6712.4374943027187328
 20
298.810727585917391
 30
0.0
 40
0.1713202487115324
 50
37.3541330730793604
 51
57.0099887173282767
  0
ARC
  5
3E205
  8
0
 10
6712.393739059219115
 20
298.7773296448060023
 30
0.0
 40
0.2263651740382724
 50
31.3677535825671399
 51
37.354133073081961
  0
LINE
  5
3E206
  8
0
 10
6712.5870195798679561
 20
298.8951593199932972
 30
0.0
 11
6712.6661694869681014
 21
298.7741693297933807
 31
0.0
  0
ARC
  5
3E207
  8
0
 10
6712.7078757366462014
 20
298.7935794025984251
 30
0.0
 40
0.0460017628843537
 50
204.9572507467964044
 51
254.8838947838239051
  0
ARC
  5
3E208
  8
0
 10
6713.2625094495206213
 20
297.1949174614339881
 30
0.0
 40
0.059999999859329
 50
44.9999999157482335
 51
90.0000000151640762
  0
LINE
  5
3E209
  8
0
 10
6713.3049358563548594
 20
297.2373438681432845
 30
0.0
 11
6713.3173622820686433
 21
297.2249174423932914
 31
0.0
  0
ARC
  5
3E20A
  8
0
 10
6714.509118806119659
 20
295.0440513003385945
 30
0.0
 40
0.0196850390452852
 50
269.99999984981838
 51
315.0000006238416859
  0
LINE
  5
3E20B
  8
0
 10
6714.5230382308682238
 20
295.0301318758932894
 30
0.0
 11
6714.6296172356478564
 21
295.1367108829933272
 31
0.0
  0
ARC
  5
3E20C
  8
0
 10
6714.615697808524601
 20
295.1506303121324208
 30
0.0
 40
0.0196850440421873
 50
314.9999958471391892
 51
359.9999873705505138
  0
LINE
  5
3E20D
  8
0
 10
6714.6353828525689096
 20
295.1506303077932785
 30
0.0
 11
6714.6353829243689688
 21
295.4763663168932908
 31
0.0
  0
ARC
  5
3E20E
  8
0
 10
6714.6273838402494221
 20
295.4763663186565168
 30
0.0
 40
0.0079990841205701
 50
359.9999873705406799
 51
28.6758189968486192
  0
ARC
  5
3E20F
  8
0
 10
6715.4934491704043467
 20
295.9500482757832742
 30
0.0
 40
0.9791400917828307
 50
198.4202006413302115
 51
208.6758189968736019
  0
ARC
  5
3E210
  8
0
 10
6715.0345660999628308
 20
295.7972184838106955
 30
0.0
 40
0.4954763473784698
 50
176.6065156634070092
 51
198.4202006413302115
  0
ARC
  5
3E211
  8
0
 10
6715.08905782954389
 20
295.7939872971671207
 30
0.0
 40
0.5500637924539779
 50
158.5645076144151915
 51
176.6065156634070092
  0
ARC
  5
3E212
  8
0
 10
6715.626122637255321
 20
295.5831300224509732
 30
0.0
 40
1.127038140222544
 50
151.8500793790556997
 51
158.5645076144151915
  0
ARC
  5
3E213
  8
0
 10
6715.6005536734601264
 20
295.596811220135919
 30
0.0
 40
1.098039052655819
 50
151.6073964334497077
 51
151.8500793790556997
  0
ARC
  5
3E214
  8
0
 10
6714.6271157626661079
 20
296.1224574408041121
 30
0.0
 40
0.0082673774540211
 50
334.8238981659619071
 51
359.5221271114747879
  0
LINE
  5
3E215
  8
0
 10
6714.6353828525689096
 20
296.1223884879112802
 30
0.0
 11
6714.6353828525689096
 21
296.5443662612933053
 31
0.0
  0
ARC
  5
3E216
  8
0
 10
6714.6052739329561518
 20
296.5443662612933053
 30
0.0
 40
0.030108919612216
 50
0.0
 51
85.1250058743066234
  0
ARC
  5
3E217
  8
0
 10
6714.6848750551826015
 20
296.7166205383641113
 30
0.0
 40
0.1423597233361494
 50
272.2053954515723717
 51
286.3087943931715813
  0
LINE
  5
3E218
  8
0
 10
6714.7248516624040349
 20
296.5799890569865056
 30
0.0
 11
6715.071892611768817
 21
296.6840593465933011
 31
0.0
  0
ARC
  5
3E219
  8
0
 10
6715.060579702522773
 20
296.7217690431750157
 30
0.0
 40
0.0393700791447689
 50
286.6992446106912098
 51
359.9999995900229237
  0
LINE
  5
3E21A
  8
0
 10
6715.0999497816683288
 20
296.7217690428932997
 30
0.0
 11
6715.0999497816683288
 21
297.2149174423933005
 31
0.0
  0
ARC
  5
3E21B
  8
0
 10
6715.0897937245717912
 20
297.2148930837490752
 30
0.0
 40
0.0101560863090255
 50
0.1374199471453257
 51
80.761882814259863
  0
ARC
  5
3E21C
  8
0
 10
6715.0799497816688017
 20
297.2749174612932848
 30
0.0
 40
0.0199999999999978
 50
270.0
 51
0.0000000000065138
  0
LINE
  5
3E21D
  8
0
 10
6715.0999497816683288
 20
297.2749174612932848
 30
0.0
 11
6715.0999497816683288
 21
298.7441693297932943
 31
0.0
  0
ARC
  5
3E21E
  8
0
 10
6715.0949284645521402
 20
298.7441693297932943
 30
0.0
 40
0.0050213171175821
 50
0.0000000000032569
 51
84.7186273899251745
  0
ARC
  5
3E21F
  8
0
 10
6716.437506820067938
 20
298.7991693297933011
 30
0.0
 40
0.0500000000000096
 50
269.999999999530985
 51
314.9999999994104769
  0
LINE
  5
3E220
  8
0
 10
6716.4728621591284536
 20
298.7638139907335812
 30
0.0
 11
6716.6797933096795532
 21
298.9707451412817818
 31
0.0
  0
ARC
  5
3E221
  8
0
 10
6716.6444379705071697
 20
299.006100480456098
 30
0.0
 40
0.0500000001620325
 50
314.9999999994104769
 51
359.9999999280682914
  0
LINE
  5
3E222
  8
0
 10
6716.6944379706683321
 20
299.006100480393286
 30
0.0
 11
6716.694437971113075
 21
299.3591693297933034
 31
0.0
  0
LINE
  5
3E223
  8
0
 10
6716.6797933097286659
 20
298.9707451413314061
 30
0.0
 11
6715.5982511300690021
 21
298.9707450237933131
 31
0.0
  0
ARC
  5
3E224
  8
0
 10
6715.598251141068431
 20
298.8695264668021991
 30
0.0
 40
0.1012185569911252
 50
90.0000062267008332
 51
122.990011282671702
  0
ARC
  5
3E225
  8
0
 10
6715.6364210086176172
 20
298.810727585917391
 30
0.0
 40
0.1713202487115324
 50
122.990011282671702
 51
142.6458669269206041
  0
ARC
  5
3E226
  8
0
 10
6715.6801762521181445
 20
298.7773296448060023
 30
0.0
 40
0.2263651740382724
 50
142.6458669269179893
 51
148.6322464174328957
  0
LINE
  5
3E227
  8
0
 10
6715.4868957314693034
 20
298.8951593199932972
 30
0.0
 11
6715.4077458243682486
 21
298.7741693297933807
 31
0.0
  0
ARC
  5
3E228
  8
0
 10
6715.3660395746910581
 20
298.7935794025984251
 30
0.0
 40
0.0460017628843537
 50
285.1161052161759812
 51
335.0427492532035103
  0
ARC
  5
3E229
  8
0
 10
6714.8138679907588084
 20
297.1949174614339881
 30
0.0
 40
0.059999999859329
 50
89.9999999848359238
 51
135.0000000842518091
  0
LINE
  5
3E22A
  8
0
 10
6714.7714415839236608
 20
297.2373438681432845
 30
0.0
 11
6714.7590151582107865
 21
297.2249174423932914
 31
0.0
  0
LINE
  5
3E22B
  8
0
 10
6713.449648509628787
 20
296.0993662612933122
 30
0.0
 11
6713.0424148680685903
 21
296.0993662612933122
 31
0.0
  0
ARC
  5
3E22C
  8
0
 10
6713.0424148680685903
 20
296.0793662611678201
 30
0.0
 40
0.020000000125485
 50
90.0
 51
144.9999997324013918
  0
LINE
  5
3E22D
  8
0
 10
6713.0260318271330107
 20
296.0908377900433948
 30
0.0
 11
6712.9578974489686516
 21
295.9935318146435179
 31
0.0
  0
ARC
  5
3E22E
  8
0
 10
6712.9742804876814262
 20
295.982060287323975
 30
0.0
 40
0.0199999974126178
 50
144.9999997324013918
 51
180.0000066769883915
  0
LINE
  5
3E22F
  8
0
 10
6712.9542804902694115
 20
295.9820602849932811
 30
0.0
 11
6712.9542805328501345
 21
295.6166722370933257
 31
0.0
  0
ARC
  5
3E230
  8
0
 10
6712.9742807326392722
 20
295.6166722394240196
 30
0.0
 40
0.0200001997898457
 50
180.0000066769850946
 51
214.9996072937485962
  0
LINE
  5
3E231
  8
0
 10
6712.9578974494688737
 20
295.6052007083932835
 30
0.0
 11
6713.0260311602769434
 21
295.5078942656334107
 31
0.0
  0
ARC
  5
3E232
  8
0
 10
6713.0424131672580188
 20
295.5193649030809979
 30
0.0
 40
0.0199986418600061
 50
214.9996072937485962
 51
270.0048727921441127
  0
LINE
  5
3E233
  8
0
 10
6713.0424148680685903
 20
295.4993662612932894
 30
0.0
 11
6713.4497192922954127
 21
295.4993662612932894
 31
0.0
  0
LINE
  5
3E234
  8
0
 10
6714.6241960190418467
 20
295.4993662612932894
 30
0.0
 11
6715.6913131893688842
 21
295.4993662612932894
 31
0.0
  0
ARC
  5
3E235
  8
0
 10
6715.6913131893688842
 20
295.2088150802525774
 30
0.0
 40
0.2905511810407457
 50
19.99999999422214
 51
90.0
  0
LINE
  5
3E236
  8
0
 10
6715.964341990162211
 20
295.3081894368079929
 30
0.0
 11
6716.2303242081297867
 21
294.5774092987423955
 31
0.0
  0
ARC
  5
3E237
  8
0
 10
6716.2491180605093177
 20
294.5842497015937056
 30
0.0
 40
0.0199999999611391
 50
199.9999999942220938
 51
290.0000005288013085
  0
LINE
  5
3E238
  8
0
 10
6716.2476283384357885
 20
294.5624239316247213
 30
0.0
 11
6716.7905164562353093
 21
294.7600190471246719
 31
0.0
  0
ARC
  5
3E239
  8
0
 10
6716.7753459284513156
 20
294.7757809818509145
 30
0.0
 40
0.0199999998400422
 50
289.9999995590733874
 51
20.0000002907348318
  0
LINE
  5
3E23A
  8
0
 10
6716.7941397806807799
 20
294.7826213847581016
 30
0.0
 11
6716.5281575589506247
 21
295.5134015214053989
 31
0.0
  0
ARC
  5
3E23B
  8
0
 10
6715.6913131791388878
 20
295.2088150716323867
 30
0.0
 40
0.8905511896608688
 50
20.0000002907348318
 51
89.999999341848067
  0
LINE
  5
3E23C
  8
0
 10
6715.6913131893688842
 20
296.0993662612933122
 30
0.0
 11
6714.6242668080230942
 21
296.0993662735507996
 31
0.0
  0
ARC
  5
3E23D
  8
0
 10
6716.6928307485686673
 20
294.1838243429933186
 30
0.0
 40
0.5900000000000003
 50
141.6822876519028114
 51
78.3177123537293767
  0
ARC
  5
3E23E
  8
0
 10
6716.2613091441689903
 20
294.5248362267932976
 30
0.0
 40
0.039999999999989
 50
110.0000000078114937
 51
141.6822875179570929
  0
ARC
  5
3E23F
  8
0
 10
6716.8041972619066655
 20
294.7224313441042227
 30
0.0
 40
0.0399999982370578
 50
78.3177117447644235
 51
110.0000007777390039
  0
LINE
  5
3E240
  8
0
 10
6713.0260318271675715
 20
296.0908377900933033
 30
0.0
 11
6713.0260318271675715
 21
295.5078933132567727
 31
0.0
  0
ENDSEC
  0
EOF
