  0
SECTION
  2
HEADER
  9
$ACADVER
  1
AC1009
  9
$INSBASE
 10
6715.8534532281855718
 20
306.671486646433209
 30
0.0
  9
$EXTMIN
 10
6710.088108241385271
 20
304.0140063314831878
 30
0.0
  9
$EXTMAX
 10
6715.864701234569111
 20
309.3289669613831734
 30
0.0
  9
$LIMMIN
 10
0.0
 20
0.0
  9
$LIMMAX
 10
11.6929133858000007
 20
8.2677165353999982
  9
$ORTHOMODE
 70
     0
  9
$REGENMODE
 70
     1
  9
$FILLMODE
 70
     1
  9
$QTEXTMODE
 70
     0
  9
$MIRRTEXT
 70
     0
  9
$DRAGMODE
 70
     2
  9
$LTSCALE
 40
0.6431102362
  9
$OSMODE
 70
  4095
  9
$ATTMODE
 70
     1
  9
$TEXTSIZE
 40
0.2
  9
$TRACEWID
 40
0.05
  9
$TEXTSTYLE
  7
STANDARD
  9
$CLAYER
  8
0
  9
$CELTYPE
  6
BYLAYER
  9
$CECOLOR
 62
   256
  9
$DIMSCALE
 40
1.0
  9
$DIMASZ
 40
0.1875
  9
$DIMEXO
 40
0.0625
  9
$DIMDLI
 40
0.4443307087
  9
$DIMRND
 40
0.0
  9
$DIMDLE
 40
0.0
  9
$DIMEXE
 40
0.125
  9
$DIMTP
 40
0.01
  9
$DIMTM
 40
0.01
  9
$DIMTXT
 40
2.0
  9
$DIMCEN
 40
0.1052362205
  9
$DIMTSZ
 40
0.0
  9
$DIMTOL
 70
     1
  9
$DIMLIM
 70
     0
  9
$DIMTIH
 70
     1
  9
$DIMTOH
 70
     1
  9
$DIMSE1
 70
     0
  9
$DIMSE2
 70
     0
  9
$DIMTAD
 70
     0
  9
$DIMZIN
 70
     0
  9
$DIMBLK
  1

  9
$DIMASO
 70
     1
  9
$DIMSHO
 70
     1
  9
$DIMPOST
  1
\X
  9
$DIMAPOST
  1

  9
$DIMALT
 70
     1
  9
$DIMALTD
 70
     2
  9
$DIMALTF
 40
25.3999999999999986
  9
$DIMLFAC
 40
1.0
  9
$DIMTOFL
 70
     0
  9
$DIMTVP
 40
0.0
  9
$DIMTIX
 70
     0
  9
$DIMSOXD
 70
     0
  9
$DIMSAH
 70
     0
  9
$DIMBLK1
  1

  9
$DIMBLK2
  1

  9
$DIMSTYLE
  2
STANDARD
  9
$DIMCLRD
 70
     0
  9
$DIMCLRE
 70
     0
  9
$DIMCLRT
 70
     0
  9
$DIMTFAC
 40
1.0
  9
$DIMGAP
 40
0.09
  9
$LUNITS
 70
     2
  9
$LUPREC
 70
     4
  9
$SKETCHINC
 40
0.1
  9
$FILLETRAD
 40
0.0
  9
$AUNITS
 70
     0
  9
$AUPREC
 70
     0
  9
$MENU
  1
.
  9
$ELEVATION
 40
0.0
  9
$PELEVATION
 40
0.0
  9
$THICKNESS
 40
0.0
  9
$LIMCHECK
 70
     0
  9
$BLIPMODE
 70
     0
  9
$CHAMFERA
 40
0.0
  9
$CHAMFERB
 40
0.0
  9
$SKPOLY
 70
     0
  9
$TDCREATE
 40
2458060.468368056230247
  9
$TDUPDATE
 40
2460333.4241550927981734
  9
$TDINDWG
 40
0.9654353009
  9
$TDUSRTIMER
 40
0.9654353009
  9
$USRTIMER
 70
     1
  9
$ANGBASE
 50
0.0
  9
$ANGDIR
 70
     0
  9
$PDMODE
 70
     0
  9
$PDSIZE
 40
0.3125
  9
$PLINEWID
 40
0.0
  9
$COORDS
 70
     1
  9
$SPLFRAME
 70
     0
  9
$SPLINETYPE
 70
     6
  9
$SPLINESEGS
 70
     8
  9
$ATTDIA
 70
     1
  9
$ATTREQ
 70
     1
  9
$HANDLING
 70
     1
  9
$HANDSEED
  5
3E2CB
  9
$SURFTAB1
 70
     6
  9
$SURFTAB2
 70
     6
  9
$SURFTYPE
 70
     6
  9
$SURFU
 70
     6
  9
$SURFV
 70
     6
  9
$UCSNAME
  2

  9
$UCSORG
 10
0.0
 20
0.0
 30
0.0
  9
$UCSXDIR
 10
1.0
 20
0.0
 30
0.0
  9
$UCSYDIR
 10
0.0
 20
1.0
 30
0.0
  9
$PUCSNAME
  2

  9
$PUCSORG
 10
0.0
 20
0.0
 30
0.0
  9
$PUCSXDIR
 10
1.0
 20
0.0
 30
0.0
  9
$PUCSYDIR
 10
0.0
 20
1.0
 30
0.0
  9
$USERI1
 70
     0
  9
$USERI2
 70
     0
  9
$USERI3
 70
     0
  9
$USERI4
 70
     0
  9
$USERI5
 70
     0
  9
$USERR1
 40
0.0
  9
$USERR2
 40
0.0
  9
$USERR3
 40
0.0
  9
$USERR4
 40
0.0
  9
$USERR5
 40
0.0
  9
$WORLDVIEW
 70
     1
  9
$SHADEDGE
 70
     3
  9
$SHADEDIF
 70
    70
  9
$TILEMODE
 70
     1
  9
$MAXACTVP
 70
    64
  9
$PLIMCHECK
 70
     0
  9
$PEXTMIN
 10
1.0000000000000000E+20
 20
1.0000000000000000E+20
 30
1.0000000000000000E+20
  9
$PEXTMAX
 10
-1.0000000000000000E+20
 20
-1.0000000000000000E+20
 30
-1.0000000000000000E+20
  9
$PLIMMIN
 10
0.0
 20
0.0
  9
$PLIMMAX
 10
12.0
 20
9.0
  9
$UNITMODE
 70
     0
  9
$VISRETAIN
 70
     1
  9
$PLINEGEN
 70
     0
  9
$PSLTSCALE
 70
     1
  0
ENDSEC
  0
SECTION
  2
TABLES
  0
TABLE
  2
VPORT
 70
     1
  0
VPORT
  2
*ACTIVE
 70
     0
 10
0.0
 20
0.0
 11
1.0
 21
1.0
 12
2801.6110482926651457
 22
174.0918815438940896
 13
0.0
 23
0.0
 14
1.0
 24
1.0
 15
0.0
 25
0.0
 16
0.0
 26
0.0
 36
60.4960186965801583
 17
3911.3653564453120453
 27
132.5796051025390057
 37
0.0
 40
5.3555440208932348
 41
2.1211111111111101
 42
50.0
 43
0.0
 44
0.0
 50
0.0
 51
0.0
 71
     0
 72
   100
 73
     1
 74
     1
 75
     0
 76
     0
 77
     0
 78
     0
  0
ENDTAB
  0
TABLE
  2
LTYPE
 70
     2
  0
LTYPE
  2
CONTINUOUS
 70
     0
  3
Solid line
 72
    65
 73
     0
 40
0.0
  0
LTYPE
  2
PHANTOM2
 70
     0
  3
___ _ _ ___ _ _ ___ _ _ ___ _ _
 72
    65
 73
     6
 40
1.25
 49
0.625
 49
-0.125
 49
0.125
 49
-0.125
 49
0.125
 49
-0.125
  0
ENDTAB
  0
TABLE
  2
LAYER
 70
     2
  0
LAYER
  2
0
 70
     0
 62
   255
  6
CONTINUOUS
  0
LAYER
  2
DEFPOINTS
 70
     0
 62
     7
  6
CONTINUOUS
  0
ENDTAB
  0
TABLE
  2
STYLE
 70
     1
  0
STYLE
  2
STANDARD
 70
     0
 40
0.0
 41
0.8
 50
0.0
 71
     0
 42
0.2
  3
txt
  4

  0
ENDTAB
  0
TABLE
  2
VIEW
 70
     0
  0
ENDTAB
  0
TABLE
  2
UCS
 70
     0
  0
ENDTAB
  0
TABLE
  2
APPID
 70
    11
  0
APPID
  2
ACAD
 70
     0
  0
APPID
  2
ACAD_MLEADERVER
 70
     0
  0
APPID
  2
ACAD_EXEMPT_FROM_CAD_STANDARDS
 70
     0
  0
APPID
  2
ACAD_NAV_VCDISPLAY
 70
     0
  0
APPID
  2
ACAECLAYERSTANDARD
 70
     0
  0
APPID
  2
ACCMTRANSPARENCY
 70
     0
  0
APPID
  2
ACAD_DSTYLE_DIMJAG
 70
     0
  0
APPID
  2
ACAD_DSTYLE_DIMTALN
 70
     0
  0
APPID
  2
ACDBATTR
 70
     0
  0
APPID
  2
ACADANNOTATIVE
 70
     0
  0
APPID
  2
DCO15
 70
     0
  0
ENDTAB
  0
TABLE
  2
DIMSTYLE
 70
     1
  0
DIMSTYLE
  2
STANDARD
 70
     0
  3

  4

  5

  6

  7

 40
1.0
 41
0.1875
 42
0.0625
 43
0.38
 44
0.125
 45
0.0
 46
0.0
 47
0.01
 48
0.01
140
0.15625
141
0.09
142
0.0
143
25.3999999999999986
144
1.0
145
0.0
146
1.0
147
0.09
 71
     1
 72
     0
 73
     1
 74
     1
 75
     0
 76
     0
 77
     0
 78
     4
170
     0
171
     2
172
     0
173
     0
174
     0
175
     0
176
     0
177
     0
178
     0
  0
ENDTAB
  0
ENDSEC
  0
SECTION
  2
BLOCKS
  0
BLOCK
  8
0
  2
$MODEL_SPACE
 70
     0
 10
0.0
 20
0.0
 30
0.0
  3
$MODEL_SPACE
  1

  0
ENDBLK
  5
21
  8
0
  0
BLOCK
 67
     1
  8
0
  2
$PAPER_SPACE
 70
     0
 10
0.0
 20
0.0
 30
0.0
  3
$PAPER_SPACE
  1

  0
ENDBLK
  5
1D
 67
     1
  8
0
  0
ENDSEC
  0
SECTION
  2
ENTITIES
  0
ATTDEF
  5
3DC04
  8
DEFPOINTS
 10
6715.8540345679011807
 20
306.6720679006267005
 30
0.0
 40
0.001
  1
P34866-BN
  3

  2
MODELNUMBER
 70
     0
1001
ACDBATTR
1070
     0
1070
     1
  0
ATTDEF
  5
3DC05
  8
DEFPOINTS
 10
6715.8539087582439606
 20
306.6704010602476274
 30
0.0
 40
0.001
  1
VICE
  3

  2
TRADENAME
 70
     0
1001
ACDBATTR
1070
     0
1070
     1
  0
ATTDEF
  5
3DC06
  8
DEFPOINTS
 10
6715.8540345679011807
 20
306.6687345672934271
 30
0.0
 40
0.001
  1
VALVE TRIM
  3

  2
PRODUCT
 70
     0
1001
ACDBATTR
1070
     0
1070
     1
  0
LINE
  5
3E1C3
  8
0
 10
6715.3025083462853217
 20
309.3289669613831734
 30
0.0
 11
6715.8534532281855718
 21
309.3289669613831734
 31
0.0
  0
LINE
  5
3E1C4
  8
0
 10
6715.3025080735696974
 20
304.0140063314831878
 30
0.0
 11
6715.8534532281855718
 21
304.0140063314831878
 31
0.0
  0
ARC
  5
3E1C5
  8
0
 10
6710.678108241386326
 20
306.6714866464831744
 30
0.0
 40
0.5900000000000003
 50
25.0975281876312089
 51
334.902472331390527
  0
LINE
  5
3E1C6
  8
0
 10
6711.1861065006869467
 20
306.9714866464831857
 30
0.0
 11
6712.2936501596850576
 21
306.9714866464831857
 31
0.0
  0
ARC
  5
3E1C7
  8
0
 10
6712.2936501596850576
 20
306.6714866464831744
 30
0.0
 40
0.3000000000000003
 50
270.000000000104194
 51
89.9999999998957776
  0
LINE
  5
3E1C8
  8
0
 10
6712.2936501596850576
 20
306.3714866464831061
 30
0.0
 11
6711.186143673220613
 21
306.3714866464831061
 31
0.0
  0
LINE
  5
3E1C9
  8
0
 10
6711.5186501596854214
 20
306.3714866464831061
 30
0.0
 11
6711.5186501596854214
 21
306.1993254960831905
 31
0.0
  0
ARC
  5
3E1CA
  8
0
 10
6711.53833519908585
 20
306.1993254960831905
 30
0.0
 40
0.0196850394000059
 50
180.0000000000032117
 51
224.9999997845688995
  0
LINE
  5
3E1CB
  8
0
 10
6711.5244157741853996
 20
306.1854060712879004
 30
0.0
 11
6711.6309947809859295
 21
306.078827063687072
 31
0.0
  0
ARC
  5
3E1CC
  8
0
 10
6711.6449142046758425
 20
306.0927464872734731
 30
0.0
 40
0.0196850376903016
 50
224.9999997845712016
 51
270.0000043941411718
  0
LINE
  5
3E1CD
  8
0
 10
6711.6449142061856037
 20
306.0730614495831787
 30
0.0
 11
6713.0386501596858579
 21
306.0730615564719983
 31
0.0
  0
ARC
  5
3E1CE
  8
0
 10
6713.0386501573848363
 20
306.1030615587728789
 30
0.0
 40
0.03000000230097
 50
270.0000043941411718
 51
359.9997914629794877
  0
LINE
  5
3E1CF
  8
0
 10
6713.0686501725858761
 20
306.0220766536832002
 30
0.0
 11
6713.0687438455861411
 21
307.32589807368322
 31
0.0
  0
ARC
  5
3E1D0
  8
0
 10
6713.1741452784717694
 20
307.3258905011213074
 30
0.0
 40
0.1054014331578152
 50
161.1779547114321076
 51
179.9958835869202005
  0
LINE
  5
3E1D1
  8
0
 10
6713.0743801664857529
 20
307.3598961556832023
 30
0.0
 11
6713.1783432449847169
 21
307.7064216026524832
 31
0.0
  0
ARC
  5
3E1D2
  8
0
 10
6713.216052941342241
 20
307.6951086936114734
 30
0.0
 40
0.0393700788716419
 50
90.0000002294933665
 51
163.3007555763176128
  0
LINE
  5
3E1D3
  8
0
 10
6713.2160529411858079
 20
307.7344787724832145
 30
0.0
 11
6713.7092013407846025
 21
307.7344787744585801
 31
0.0
  0
ARC
  5
3E1D4
  8
0
 10
6713.7092013408246203
 20
307.7244787744987207
 30
0.0
 40
0.0099999999599429
 50
359.9999878791492733
 51
90.0000002294933665
  0
LINE
  5
3E1D5
  8
0
 10
6713.7192013407857303
 20
307.7244787723831791
 30
0.0
 11
6713.7192008952679316
 21
305.6184945204832957
 31
0.0
  0
ARC
  5
3E1D6
  8
0
 10
6713.7092008931413147
 20
305.6184945225987235
 30
0.0
 40
0.0100000021255531
 50
270.0025648098222746
 51
359.9999878791460901
  0
LINE
  5
3E1D7
  8
0
 10
6713.7092013407846025
 20
305.6084945204831911
 30
0.0
 11
6713.216052941678754
 21
305.6084724450026897
 31
0.0
  0
ARC
  5
3E1D8
  8
0
 10
6713.2160511798056177
 20
305.6478312727867888
 30
0.0
 40
0.039358827823535
 50
196.6535127599800887
 51
270.0025648098222746
  0
LINE
  5
3E1D9
  8
0
 10
6713.1783432449847169
 20
305.6365516903832145
 30
0.0
 11
6713.0743768949860169
 21
305.9831061902831948
 31
0.0
  0
ARC
  5
3E1DA
  8
0
 10
6713.2055748736047462
 20
306.0222917799142124
 30
0.0
 40
0.1369248700144205
 50
180.0900189291184006
 51
196.6295836987110874
  0
LINE
  5
3E1DB
  8
0
 10
6713.1783432449847169
 20
307.7064216026524832
 30
0.0
 11
6713.1783432449847169
 21
305.6365516902138779
 31
0.0
  0
LINE
  5
3E1DC
  8
0
 10
6713.749201359685685
 20
307.7144787723831882
 30
0.0
 11
6713.749201359685685
 21
305.6284945204831729
 31
0.0
  0
ARC
  5
3E1DD
  8
0
 10
6713.7692013596861216
 20
305.6284945204831729
 30
0.0
 40
0.0200000000000014
 50
179.9999999999967031
 51
270.0
  0
LINE
  5
3E1DE
  8
0
 10
6713.7692013596861216
 20
305.6084945204831911
 30
0.0
 11
6715.2384532281848806
 21
305.6084945204830206
 31
0.0
  0
ARC
  5
3E1DF
  8
0
 10
6715.2384532281848806
 20
305.613494520483016
 30
0.0
 40
0.0049999999999981
 50
270.0
 51
0.0000000020974359
  0
LINE
  5
3E1E0
  8
0
 10
6715.8534532281855718
 20
304.0140063314831878
 30
0.0
 11
6715.8534532281855718
 21
309.3289669613831734
 31
0.0
  0
ARC
  5
3E1E1
  8
0
 10
6715.3025083462871407
 20
309.2699118432831824
 30
0.0
 40
0.0590551181000079
 50
90.0000000003126672
 51
180.00000002749141
  0
LINE
  5
3E1E2
  8
0
 10
6715.2434532281858992
 20
309.2699118432548175
 30
0.0
 11
6715.2434532306797337
 21
304.0730614495831787
 31
0.0
  0
ARC
  5
3E1E3
  8
0
 10
6715.3025083445254495
 20
304.073061445326573
 30
0.0
 40
0.0590551138440604
 50
179.9999958702497054
 51
269.9997371186440773
  0
LINE
  5
3E1E4
  8
0
 10
6715.4650290396857599
 20
304.0286509924832217
 30
0.0
 11
6715.4650290396857599
 21
309.3143223004030915
 31
0.0
  0
ARC
  5
3E1E5
  8
0
 10
6715.2384532281848806
 20
307.729478772483219
 30
0.0
 40
0.004999999999999
 50
359.999999999970612
 51
90.0
  0
LINE
  5
3E1E6
  8
0
 10
6715.2384532281848806
 20
307.7344787724832145
 30
0.0
 11
6713.7692013596861216
 21
307.7344787724832145
 31
0.0
  0
ARC
  5
3E1E7
  8
0
 10
6713.7692013596861216
 20
307.7144787724831758
 30
0.0
 40
0.0199999999999978
 50
90.0
 51
180.0000000000065086
  0
ARC
  5
3E1E8
  8
0
 10
6713.6892013596861943
 20
307.4458753344364936
 30
0.0
 40
0.0600000000000041
 50
315.0000000389109118
 51
359.9999999999968168
  0
LINE
  5
3E1E9
  8
0
 10
6713.7316277665859161
 20
307.4034489275940132
 30
0.0
 11
6713.7192012702444117
 21
307.3910224312348873
 31
0.0
  0
LINE
  5
3E1EA
  8
0
 10
6713.7192009656873779
 20
305.9513740879011721
 30
0.0
 11
6713.7316277665859161
 21
305.9389472870030886
 31
0.0
  0
ARC
  5
3E1EB
  8
0
 10
6713.6892013607421177
 20
305.8965208805984162
 30
0.0
 40
0.059999998943276
 50
359.9999995270021032
 51
45.0000003790776688
  0
ARC
  5
3E1EC
  8
0
 10
6713.0386501596858579
 20
307.239911843283096
 30
0.0
 40
0.0300000000000029
 50
0.0
 51
90.0
  0
LINE
  5
3E1ED
  8
0
 10
6713.0386501596858579
 20
307.2699118432831824
 30
0.0
 11
6711.6449142061856037
 21
307.2699118432832961
 31
0.0
  0
ARC
  5
3E1EE
  8
0
 10
6711.6449142061856037
 20
307.2502268036424198
 30
0.0
 40
0.0196850396410149
 50
90.0
 51
134.9999992974796896
  0
LINE
  5
3E1EF
  8
0
 10
6711.6309947813388135
 20
307.2641462288311232
 30
0.0
 11
6711.5244157728302525
 21
307.1575672229353131
 31
0.0
  0
ARC
  5
3E1F0
  8
0
 10
6711.5383351936907275
 20
307.1436478017309923
 30
0.0
 40
0.0196850340062687
 50
134.9999992974796896
 51
180.0000144009783867
  0
LINE
  5
3E1F1
  8
0
 10
6711.5186501596854214
 20
307.1436477967832275
 30
0.0
 11
6711.5186502029582698
 21
306.9714866464831857
 31
0.0
  0
LINE
  5
3E1F2
  8
0
 10
6711.6309947813861072
 20
307.2641462288784737
 30
0.0
 11
6711.6309947813861072
 21
306.9714866464831857
 31
0.0
  0
LINE
  5
3E1F3
  8
0
 10
6711.6309947813861072
 20
306.3714866464831061
 30
0.0
 11
6711.6309947813861072
 21
306.0788270632863259
 31
0.0
  0
ARC
  5
3E1F4
  8
0
 10
6710.8122841441299897
 20
306.7429419782640139
 30
0.0
 40
0.4382528773021307
 50
5.5245564917815706
 51
24.0781292896889987
  0
ARC
  5
3E1F5
  8
0
 10
6710.4355948878146592
 20
306.6691426325273824
 30
0.0
 40
0.8211399537674994
 50
352.9445545399203752
 51
8.120534897016741
  0
ARC
  5
3E1F6
  8
0
 10
6710.6963609753593119
 20
306.6325936089413062
 30
0.0
 40
0.5578752741237736
 50
338.2527600401019185
 51
353.3802708586815129
  0
ARC
  5
3E1F7
  8
0
 10
6712.2936264394720638
 20
306.6716988200365108
 30
0.0
 40
0.3147878273409485
 50
89.995680988248111
 51
107.7588208831627981
  0
ARC
  5
3E1F8
  8
0
 10
6712.29362642347769
 20
306.6714866464835154
 30
0.0
 40
0.3150000008946291
 50
270.0043174110826953
 51
89.995680988248111
  0
ARC
  5
3E1F9
  8
0
 10
6712.293626435747683
 20
306.6713238272329818
 30
0.0
 40
0.3148371816437032
 50
252.2425823709102133
 51
270.0043174110826953
  0
ARC
  5
3E1FA
  8
0
 10
6712.2936150358500527
 20
306.6772799462132753
 30
0.0
 40
0.2973964471477037
 50
83.5244654536836748
 51
98.3991780879687639
  0
ARC
  5
3E1FB
  8
0
 10
6712.2936501596850576
 20
306.6714866464831744
 30
0.0
 40
0.3031496062999999
 50
272.9193442052795717
 51
83.6545482245223724
  0
ARC
  5
3E1FC
  8
0
 10
6712.2933808666821278
 20
306.6636037395057883
 30
0.0
 40
0.2952914057882505
 50
261.5913379099732765
 51
273.0494269761384203
  0
LINE
  5
3E1FD
  8
0
 10
6712.5892804588766012
 20
306.7385866464832134
 30
0.0
 11
6712.6014101509854299
 21
306.7385866464832134
 31
0.0
  0
LINE
  5
3E1FE
  8
0
 10
6712.5892804588766012
 20
306.6043866464831922
 30
0.0
 11
6712.601396777093214
 21
306.6043866464831922
 31
0.0
  0
ARC
  5
3E1FF
  8
0
 10
6715.294461354462328
 20
309.0715166348215917
 30
0.0
 40
0.0510811359025668
 50
135.3878065451903865
 51
176.9362793747534965
  0
ARC
  5
3E200
  8
0
 10
6730.6476646486598838
 20
293.9247555349542722
 30
0.0
 40
21.6183068084224317
 50
134.6121934322814013
 51
135.3878065451903865
  0
ARC
  5
3E201
  8
0
 10
6715.5007284310586329
 20
309.2781363457161206
 30
0.0
 40
0.0508317800304151
 50
90.3878064808459669
 51
134.6121934322814013
  0
ARC
  5
3E202
  8
0
 10
6715.2934532281860811
 20
304.270937482083184
 30
0.0
 40
0.0500000000000038
 50
180.0177477819017895
 51
224.999999934095996
  0
ARC
  5
3E203
  8
0
 10
6715.5003843788672384
 20
304.0640063316355963
 30
0.0
 40
0.0500000001524355
 50
225.0000000710948882
 51
269.9999999062537199
  0
LINE
  5
3E204
  8
0
 10
6715.2580978890846382
 20
304.2355821430645051
 30
0.0
 11
6715.4650290397439676
 21
304.0286509924246161
 31
0.0
  0
ENDSEC
  0
EOF
