  0
SECTION
  2
HEADER
  9
$ACADVER
  1
AC1009
  9
$INSBASE
 10
6686.2400044055457329
 20
302.1672988036871743
 30
0.0
  9
$EXTMIN
 10
6683.5825240901031066
 20
296.8519537168871807
 30
0.0
  9
$EXTMAX
 10
6689.4858774984468255
 20
302.1730515559534069
 30
0.0
  9
$LIMMIN
 10
0.0
 20
0.0
  9
$LIMMAX
 10
11.6929133858000007
 20
8.2677165353999982
  9
$ORTHOMODE
 70
     0
  9
$REGENMODE
 70
     1
  9
$FILLMODE
 70
     1
  9
$QTEXTMODE
 70
     0
  9
$MIRRTEXT
 70
     0
  9
$DRAGMODE
 70
     2
  9
$LTSCALE
 40
0.6431102362
  9
$OSMODE
 70
  3839
  9
$ATTMODE
 70
     1
  9
$TEXTSIZE
 40
0.2
  9
$TRACEWID
 40
0.05
  9
$TEXTSTYLE
  7
STANDARD
  9
$CLAYER
  8
0
  9
$CELTYPE
  6
BYLAYER
  9
$CECOLOR
 62
   256
  9
$DIMSCALE
 40
1.0
  9
$DIMASZ
 40
0.1875
  9
$DIMEXO
 40
0.0625
  9
$DIMDLI
 40
0.4443307087
  9
$DIMRND
 40
0.0
  9
$DIMDLE
 40
0.0
  9
$DIMEXE
 40
0.125
  9
$DIMTP
 40
0.01
  9
$DIMTM
 40
0.01
  9
$DIMTXT
 40
2.0
  9
$DIMCEN
 40
0.1052362205
  9
$DIMTSZ
 40
0.0
  9
$DIMTOL
 70
     1
  9
$DIMLIM
 70
     0
  9
$DIMTIH
 70
     1
  9
$DIMTOH
 70
     1
  9
$DIMSE1
 70
     0
  9
$DIMSE2
 70
     0
  9
$DIMTAD
 70
     0
  9
$DIMZIN
 70
     0
  9
$DIMBLK
  1

  9
$DIMASO
 70
     1
  9
$DIMSHO
 70
     1
  9
$DIMPOST
  1
\X
  9
$DIMAPOST
  1

  9
$DIMALT
 70
     1
  9
$DIMALTD
 70
     2
  9
$DIMALTF
 40
25.3999999999999986
  9
$DIMLFAC
 40
1.0
  9
$DIMTOFL
 70
     0
  9
$DIMTVP
 40
0.0
  9
$DIMTIX
 70
     0
  9
$DIMSOXD
 70
     0
  9
$DIMSAH
 70
     0
  9
$DIMBLK1
  1

  9
$DIMBLK2
  1

  9
$DIMSTYLE
  2
STANDARD
  9
$DIMCLRD
 70
     0
  9
$DIMCLRE
 70
     0
  9
$DIMCLRT
 70
     0
  9
$DIMTFAC
 40
1.0
  9
$DIMGAP
 40
0.09
  9
$LUNITS
 70
     2
  9
$LUPREC
 70
     4
  9
$SKETCHINC
 40
0.1
  9
$FILLETRAD
 40
0.0
  9
$AUNITS
 70
     0
  9
$AUPREC
 70
     0
  9
$MENU
  1
.
  9
$ELEVATION
 40
0.0
  9
$PELEVATION
 40
0.0
  9
$THICKNESS
 40
0.0
  9
$LIMCHECK
 70
     0
  9
$BLIPMODE
 70
     0
  9
$CHAMFERA
 40
0.0
  9
$CHAMFERB
 40
0.0
  9
$SKPOLY
 70
     0
  9
$TDCREATE
 40
2458060.468368056230247
  9
$TDUPDATE
 40
2460333.516898148227483
  9
$TDINDWG
 40
0.9565579861
  9
$TDUSRTIMER
 40
0.9565579861
  9
$USRTIMER
 70
     1
  9
$ANGBASE
 50
0.0
  9
$ANGDIR
 70
     0
  9
$PDMODE
 70
     0
  9
$PDSIZE
 40
0.3125
  9
$PLINEWID
 40
0.0
  9
$COORDS
 70
     1
  9
$SPLFRAME
 70
     0
  9
$SPLINETYPE
 70
     6
  9
$SPLINESEGS
 70
     8
  9
$ATTDIA
 70
     1
  9
$ATTREQ
 70
     1
  9
$HANDLING
 70
     1
  9
$HANDSEED
  5
3E002
  9
$SURFTAB1
 70
     6
  9
$SURFTAB2
 70
     6
  9
$SURFTYPE
 70
     6
  9
$SURFU
 70
     6
  9
$SURFV
 70
     6
  9
$UCSNAME
  2

  9
$UCSORG
 10
0.0
 20
0.0
 30
0.0
  9
$UCSXDIR
 10
1.0
 20
0.0
 30
0.0
  9
$UCSYDIR
 10
0.0
 20
1.0
 30
0.0
  9
$PUCSNAME
  2

  9
$PUCSORG
 10
0.0
 20
0.0
 30
0.0
  9
$PUCSXDIR
 10
1.0
 20
0.0
 30
0.0
  9
$PUCSYDIR
 10
0.0
 20
1.0
 30
0.0
  9
$USERI1
 70
     0
  9
$USERI2
 70
     0
  9
$USERI3
 70
     0
  9
$USERI4
 70
     0
  9
$USERI5
 70
     0
  9
$USERR1
 40
0.0
  9
$USERR2
 40
0.0
  9
$USERR3
 40
0.0
  9
$USERR4
 40
0.0
  9
$USERR5
 40
0.0
  9
$WORLDVIEW
 70
     1
  9
$SHADEDGE
 70
     3
  9
$SHADEDIF
 70
    70
  9
$TILEMODE
 70
     1
  9
$MAXACTVP
 70
    64
  9
$PLIMCHECK
 70
     0
  9
$PEXTMIN
 10
1.0000000000000000E+20
 20
1.0000000000000000E+20
 30
1.0000000000000000E+20
  9
$PEXTMAX
 10
-1.0000000000000000E+20
 20
-1.0000000000000000E+20
 30
-1.0000000000000000E+20
  9
$PLIMMIN
 10
0.0
 20
0.0
  9
$PLIMMAX
 10
12.0
 20
9.0
  9
$UNITMODE
 70
     0
  9
$VISRETAIN
 70
     1
  9
$PLINEGEN
 70
     0
  9
$PSLTSCALE
 70
     1
  0
ENDSEC
  0
SECTION
  2
TABLES
  0
TABLE
  2
VPORT
 70
     1
  0
VPORT
  2
*ACTIVE
 70
     0
 10
0.0
 20
0.0
 11
1.0
 21
1.0
 12
2775.1688443489629208
 22
166.9328975338812029
 13
0.0
 23
0.0
 14
1.0
 24
1.0
 15
0.0
 25
0.0
 16
0.0
 26
0.0
 36
60.4960186965801583
 17
3911.3653564453120453
 27
132.5796051025390057
 37
0.0
 40
5.3591963916132377
 41
2.2831541218637992
 42
50.0
 43
0.0
 44
0.0
 50
0.0
 51
0.0
 71
     0
 72
   100
 73
     1
 74
     1
 75
     0
 76
     0
 77
     0
 78
     0
  0
ENDTAB
  0
TABLE
  2
LTYPE
 70
     3
  0
LTYPE
  2
CONTINUOUS
 70
     0
  3
Solid line
 72
    65
 73
     0
 40
0.0
  0
LTYPE
  2
PHANTOM2
 70
     0
  3
___ _ _ ___ _ _ ___ _ _ ___ _ _
 72
    65
 73
     6
 40
1.25
 49
0.625
 49
-0.125
 49
0.125
 49
-0.125
 49
0.125
 49
-0.125
  0
ENDTAB
  0
TABLE
  2
LAYER
 70
     2
  0
LAYER
  2
0
 70
     0
 62
   255
  6
CONTINUOUS
  0
LAYER
  2
DEFPOINTS
 70
     0
 62
     7
  6
CONTINUOUS
  0
ENDTAB
  0
TABLE
  2
STYLE
 70
     1
  0
STYLE
  2
STANDARD
 70
     0
 40
0.0
 41
0.8
 50
0.0
 71
     0
 42
0.2
  3
txt
  4

  0
ENDTAB
  0
TABLE
  2
VIEW
 70
     0
  0
ENDTAB
  0
TABLE
  2
UCS
 70
     0
  0
ENDTAB
  0
TABLE
  2
APPID
 70
    11
  0
APPID
  2
ACAD
 70
     0
  0
APPID
  2
ACAD_MLEADERVER
 70
     0
  0
APPID
  2
ACAD_EXEMPT_FROM_CAD_STANDARDS
 70
     0
  0
APPID
  2
ACAD_NAV_VCDISPLAY
 70
     0
  0
APPID
  2
ACAECLAYERSTANDARD
 70
     0
  0
APPID
  2
ACCMTRANSPARENCY
 70
     0
  0
APPID
  2
ACAD_DSTYLE_DIMJAG
 70
     0
  0
APPID
  2
ACAD_DSTYLE_DIMTALN
 70
     0
  0
APPID
  2
ACDBATTR
 70
     0
  0
APPID
  2
ACADANNOTATIVE
 70
     0
  0
APPID
  2
DCO15
 70
     0
  0
ENDTAB
  0
TABLE
  2
DIMSTYLE
 70
     2
  0
DIMSTYLE
  2
STANDARD
 70
     0
  3

  4

  5

  6

  7

 40
1.0
 41
0.1875
 42
0.0625
 43
0.38
 44
0.125
 45
0.0
 46
0.0
 47
0.01
 48
0.01
140
0.15625
141
0.09
142
0.0
143
25.3999999999999986
144
1.0
145
0.0
146
1.0
147
0.09
 71
     1
 72
     0
 73
     1
 74
     1
 75
     0
 76
     0
 77
     0
 78
     4
170
     0
171
     2
172
     0
173
     0
174
     0
175
     0
176
     0
177
     0
178
     0
  0
ENDTAB
  0
ENDSEC
  0
SECTION
  2
BLOCKS
  0
BLOCK
  8
0
  2
$MODEL_SPACE
 70
     0
 10
0.0
 20
0.0
 30
0.0
  3
$MODEL_SPACE
  1

  0
ENDBLK
  5
21
  8
0
  0
BLOCK
 67
     1
  8
0
  2
$PAPER_SPACE
 70
     0
 10
0.0
 20
0.0
 30
0.0
  3
$PAPER_SPACE
  1

  0
ENDBLK
  5
1D
 67
     1
  8
0
  0
BLOCK
  8
0
  2
_FILLED
 70
     0
 10
0.0
 20
0.0
 30
0.0
  3
_FILLED
  1

  0
SOLID
  5
3D9D1
  8
0
  6
BYBLOCK
 62
     0
 10
0.0
 20
0.0
 30
0.0
 11
-1.0
 21
0.1666666667
 31
0.0
 12
-1.0
 22
-0.1666666667
 32
0.0
 13
-1.0
 23
-0.1666666667
 33
0.0
  0
ENDBLK
  5
3D9D2
  8
0
  6
BYBLOCK
 62
     0
  0
ENDSEC
  0
SECTION
  2
ENTITIES
  0
ATTDEF
  5
3D8BE
  8
DEFPOINTS
 10
6686.2406953907084244
 20
302.1720515559533737
 30
0.0
 40
0.001
  1
P34867-BAF
  3

  2
MODELNUMBER
 70
     0
1001
ACDBATTR
1070
     0
1070
     1
  0
ATTDEF
  5
3D8BF
  8
DEFPOINTS
 10
6686.2405695810512043
 20
302.1703847155743006
 30
0.0
 40
0.001
  1
VICE
  3

  2
TRADENAME
 70
     0
1001
ACDBATTR
1070
     0
1070
     1
  0
ATTDEF
  5
3D8C0
  8
DEFPOINTS
 10
6686.2406953907084244
 20
302.1687182226201003
 30
0.0
 40
0.001
  1
VALVE TRIM
  3

  2
PRODUCT
 70
     0
1001
ACDBATTR
1070
     0
1070
     1
  0
LINE
  5
3DB17
  8
0
 10
6683.5825240901031066
 20
302.1672988036871743
 30
0.0
 11
6688.8974847209910877
 21
302.1672988036871743
 31
0.0
  0
LINE
  5
3DB18
  8
0
 10
6683.8394552411473342
 20
301.5572988036872175
 30
0.0
 11
6688.6405535699459506
 21
301.5572988036872175
 31
0.0
  0
LINE
  5
3DB19
  8
0
 10
6685.5866087322692692
 20
299.832495635187172
 30
0.0
 11
6686.8934000788240155
 21
299.832495635187172
 31
0.0
  0
LINE
  5
3DB1A
  8
0
 10
6685.2050694494455456
 20
299.942188720487195
 30
0.0
 11
6687.2749393616468296
 21
299.942188720487195
 31
0.0
  0
LINE
  5
3DB1B
  8
0
 10
6685.1855379002327027
 20
300.4830468162871853
 30
0.0
 11
6687.2944709108596726
 21
300.4830468162871853
 31
0.0
  0
LINE
  5
3DB1C
  8
0
 10
6685.1970122795455609
 20
300.5130468351871968
 30
0.0
 11
6687.2829965315468144
 21
300.5130468351871968
 31
0.0
  0
LINE
  5
3DB1D
  8
0
 10
6685.7678432551456353
 20
298.2824956351872174
 30
0.0
 11
6686.7121655559985811
 21
298.2824956351872174
 31
0.0
  0
LINE
  5
3DB1E
  8
0
 10
6685.6473448232463852
 20
298.3948402568872211
 30
0.0
 11
6686.8326639878468995
 21
298.3948402568872211
 31
0.0
  0
ARC
  5
3DB1F
  8
0
 10
6685.7678432550956131
 20
298.3021806742323747
 30
0.0
 40
0.0196850390452852
 50
224.9999993761583141
 51
270.00000015018162
  0
LINE
  5
3DB20
  8
0
 10
6685.7539238303470484
 20
298.2882612497871833
 30
0.0
 11
6685.6473448232463852
 21
298.3948402568872211
 31
0.0
  0
ARC
  5
3DB21
  8
0
 10
6685.6612642634736403
 20
298.4087596881727222
 30
0.0
 40
0.0196850548272789
 50
180.0000188769926126
 51
224.9999815969009944
  0
LINE
  5
3DB22
  8
0
 10
6685.6415792086463625
 20
298.4087596816871724
 30
0.0
 11
6685.6415791368463033
 21
298.7344956907871847
 31
0.0
  0
ARC
  5
3DB23
  8
0
 10
6685.6495782209658501
 20
298.7344956925504107
 30
0.0
 40
0.0079990841205701
 50
151.3241810031263128
 51
180.0000126294592917
  0
ARC
  5
3DB24
  8
0
 10
6684.7835128908109255
 20
299.2081776496771113
 30
0.0
 40
0.9791400917828307
 50
331.3241810031263981
 51
341.5797993586696748
  0
ARC
  5
3DB25
  8
0
 10
6685.2423959612524413
 20
299.0553478577045894
 30
0.0
 40
0.4954763473784698
 50
341.5797993586696748
 51
3.3934843365930352
  0
ARC
  5
3DB26
  8
0
 10
6685.1879042316713821
 20
299.0521166710609009
 30
0.0
 40
0.5500637924539779
 50
3.3934843365930352
 51
21.4354923855848014
  0
ARC
  5
3DB27
  8
0
 10
6684.6508394239599511
 20
298.841259396344924
 30
0.0
 40
1.127038140222544
 50
21.4354923855848014
 51
28.1499206209443287
  0
ARC
  5
3DB28
  8
0
 10
6684.6764083877560552
 20
298.8549405940296992
 30
0.0
 40
1.098039052655819
 50
28.1499206209443287
 51
28.3926035665502603
  0
ARC
  5
3DB29
  8
0
 10
6685.6498462985500737
 20
299.3805868146978924
 30
0.0
 40
0.0082673774540211
 50
180.4778728885252121
 51
205.1761018340380929
  0
LINE
  5
3DB2A
  8
0
 10
6685.6415792086463625
 20
299.3805178618051741
 30
0.0
 11
6685.6415792086463625
 21
299.8024956351871992
 31
0.0
  0
ARC
  5
3DB2B
  8
0
 10
6685.6716881282591203
 20
299.8024956351871992
 30
0.0
 40
0.030108919612216
 50
94.8749941256934051
 51
180.0
  0
ARC
  5
3DB2C
  8
0
 10
6685.5920870060317611
 20
299.9747499122578915
 30
0.0
 40
0.1423597233361494
 50
253.6912056068283903
 51
267.7946045484275146
  0
LINE
  5
3DB2D
  8
0
 10
6685.5521103988112372
 20
299.8381184308802858
 30
0.0
 11
6685.2050694494455456
 21
299.942188720487195
 31
0.0
  0
ARC
  5
3DB2E
  8
0
 10
6685.2163823586915896
 20
299.9798984170689096
 30
0.0
 40
0.0393700791447689
 50
180.000000409976991
 51
253.3007553893087049
  0
LINE
  5
3DB2F
  8
0
 10
6685.1770122795469433
 20
299.9798984167871936
 30
0.0
 11
6685.1770122795469433
 21
300.4730468162871944
 31
0.0
  0
ARC
  5
3DB30
  8
0
 10
6685.1871683366443904
 20
300.473022457643026
 30
0.0
 40
0.0101560863090255
 50
99.2381171857401654
 51
179.8625800528546961
  0
ARC
  5
3DB31
  8
0
 10
6685.1970122795455609
 20
300.5330468351871787
 30
0.0
 40
0.0199999999999978
 50
179.9999999999934914
 51
270.0
  0
LINE
  5
3DB32
  8
0
 10
6685.1770122795469433
 20
300.5330468351871787
 30
0.0
 11
6685.1770122795469433
 21
301.5522988036872221
 31
0.0
  0
ARC
  5
3DB33
  8
0
 10
6685.1820335966640414
 20
301.5522988036872221
 30
0.0
 40
0.0050213171175821
 50
95.2813726100747971
 51
179.9999999999967031
  0
ARC
  5
3DB34
  8
0
 10
6683.8394552411473342
 20
301.607298803687172
 30
0.0
 40
0.0500000000000096
 50
225.0000000005896084
 51
270.000000000469015
  0
LINE
  5
3DB35
  8
0
 10
6683.8040999020868185
 20
301.571943464627509
 30
0.0
 11
6683.5971687515357189
 21
301.7788746151757096
 31
0.0
  0
ARC
  5
3DB36
  8
0
 10
6683.6325240907081024
 20
301.8142299543500258
 30
0.0
 40
0.0500000001620325
 50
180.0000000719315949
 51
225.0000000005896084
  0
LINE
  5
3DB37
  8
0
 10
6683.5825240905460305
 20
301.8142299542871001
 30
0.0
 11
6683.5825240901031066
 21
302.1672988036871743
 31
0.0
  0
LINE
  5
3DB38
  8
0
 10
6683.5971687514856967
 20
301.778874615225277
 30
0.0
 11
6684.67871093114627
 21
301.778874497687184
 31
0.0
  0
ARC
  5
3DB39
  8
0
 10
6684.6787109201468411
 20
301.6776559406961269
 30
0.0
 40
0.1012185569911252
 50
57.0099887173282767
 51
89.9999937732991526
  0
ARC
  5
3DB3A
  8
0
 10
6684.6405410525976549
 20
301.6188570598112051
 30
0.0
 40
0.1713202487115324
 50
37.3541330730793604
 51
57.0099887173282767
  0
ARC
  5
3DB3B
  8
0
 10
6684.5967858090971276
 20
301.5854591186998164
 30
0.0
 40
0.2263651740382724
 50
31.3677535825671399
 51
37.354133073081961
  0
LINE
  5
3DB3C
  8
0
 10
6684.7900663297459687
 20
301.703288793887225
 30
0.0
 11
6684.8692162368470235
 21
301.5822988036871948
 31
0.0
  0
ARC
  5
3DB3D
  8
0
 10
6684.910922486524214
 20
301.6017088764921823
 30
0.0
 40
0.0460017628843537
 50
204.9572507467964044
 51
254.8838947838239051
  0
ARC
  5
3DB3E
  8
0
 10
6685.5151515918623772
 20
300.4530468353278252
 30
0.0
 40
0.059999999859329
 50
44.9999999157482335
 51
90.0000000151640762
  0
LINE
  5
3DB3F
  8
0
 10
6685.5575779986966154
 20
300.4954732420371784
 30
0.0
 11
6685.5700044244285891
 21
300.4830468162688817
 31
0.0
  0
ARC
  5
3DB40
  8
0
 10
6686.7121655559985811
 20
298.3021806742323747
 30
0.0
 40
0.0196850390452852
 50
269.99999984981838
 51
315.0000006238416859
  0
LINE
  5
3DB41
  8
0
 10
6686.7260849807471459
 20
298.2882612497871833
 30
0.0
 11
6686.8326639878468995
 21
298.3948402568872211
 31
0.0
  0
ARC
  5
3DB42
  8
0
 10
6686.8187445476187349
 20
298.4087596881730065
 30
0.0
 40
0.0196850548281362
 50
315.0000184043859122
 51
359.9999811221800883
  0
LINE
  5
3DB43
  8
0
 10
6686.8384296024469222
 20
298.4087596816871724
 30
0.0
 11
6686.8384296742478909
 21
298.7344956907871847
 31
0.0
  0
ARC
  5
3DB44
  8
0
 10
6686.8304305901256157
 20
298.7344956925504107
 30
0.0
 40
0.0079990841205701
 50
359.9999873705406799
 51
28.6758189968736197
  0
ARC
  5
3DB45
  8
0
 10
6687.6964959202814498
 20
299.2081776496771113
 30
0.0
 40
0.9791400917828307
 50
198.4202006413302115
 51
208.6758189968736019
  0
ARC
  5
3DB46
  8
0
 10
6687.2376128498408434
 20
299.0553478577045894
 30
0.0
 40
0.4954763473784698
 50
176.6065156634070092
 51
198.4202006413302115
  0
ARC
  5
3DB47
  8
0
 10
6687.2921045794209931
 20
299.0521166710609009
 30
0.0
 40
0.5500637924539779
 50
158.5645076144151915
 51
176.6065156634070092
  0
ARC
  5
3DB48
  8
0
 10
6687.8291693871333337
 20
298.841259396344924
 30
0.0
 40
1.127038140222544
 50
151.8500793790556997
 51
158.5645076144151915
  0
ARC
  5
3DB49
  8
0
 10
6687.8036004233381391
 20
298.8549405940296992
 30
0.0
 40
1.098039052655819
 50
151.6073964334497077
 51
151.8500793790556997
  0
ARC
  5
3DB4A
  8
0
 10
6686.8301625125441205
 20
299.3805868146978924
 30
0.0
 40
0.0082673774540211
 50
334.8238981659619071
 51
359.5221271114747879
  0
LINE
  5
3DB4B
  8
0
 10
6686.8384296024469222
 20
299.3805178618051741
 30
0.0
 11
6686.8384296024469222
 21
299.8024956351871992
 31
0.0
  0
ARC
  5
3DB4C
  8
0
 10
6686.808320682835074
 20
299.8024956351871992
 30
0.0
 40
0.030108919612216
 50
0.0
 51
85.1250058743066234
  0
ARC
  5
3DB4D
  8
0
 10
6686.8879218050624331
 20
299.9747499122578915
 30
0.0
 40
0.1423597233361494
 50
272.2053954515723717
 51
286.3087943931715813
  0
LINE
  5
3DB4E
  8
0
 10
6686.9278984122820475
 20
299.8381184308802858
 30
0.0
 11
6687.2749393616468296
 21
299.942188720487195
 31
0.0
  0
ARC
  5
3DB4F
  8
0
 10
6687.2636264524016951
 20
299.9798984170689096
 30
0.0
 40
0.0393700791447689
 50
286.6992446106912098
 51
359.9999995900229237
  0
LINE
  5
3DB50
  8
0
 10
6687.3029965315463414
 20
299.9798984167871936
 30
0.0
 11
6687.3029965315463414
 21
300.4730468162871944
 31
0.0
  0
ARC
  5
3DB51
  8
0
 10
6687.2928404744479849
 20
300.473022457643026
 30
0.0
 40
0.0101560863090255
 50
0.1374199471453257
 51
80.761882814259863
  0
ARC
  5
3DB52
  8
0
 10
6687.2829965315468144
 20
300.5330468351871787
 30
0.0
 40
0.0199999999999978
 50
270.0
 51
0.0000000000065138
  0
LINE
  5
3DB53
  8
0
 10
6687.3029965315463414
 20
300.5330468351871787
 30
0.0
 11
6687.3029965315463414
 21
301.5522988036872221
 31
0.0
  0
ARC
  5
3DB54
  8
0
 10
6687.2979752144292434
 20
301.5522988036872221
 30
0.0
 40
0.0050213171175821
 50
0.0000000000032569
 51
84.7186273899251745
  0
ARC
  5
3DB55
  8
0
 10
6688.6405535699459506
 20
301.607298803687172
 30
0.0
 40
0.0500000000000096
 50
269.999999999530985
 51
314.9999999994104769
  0
LINE
  5
3DB56
  8
0
 10
6688.6759089090055568
 20
301.571943464627509
 30
0.0
 11
6688.8828400595593848
 21
301.7788746151757096
 31
0.0
  0
ARC
  5
3DB57
  8
0
 10
6688.8474847203833633
 20
301.8142299543500258
 30
0.0
 40
0.0500000001620325
 50
314.9999999994104769
 51
359.9999999280682914
  0
LINE
  5
3DB58
  8
0
 10
6688.8974847205463448
 20
301.8142299542871001
 30
0.0
 11
6688.8974847209910877
 21
302.1672988036871743
 31
0.0
  0
LINE
  5
3DB59
  8
0
 10
6688.882840059607588
 20
301.778874615225277
 30
0.0
 11
6687.8012978799470147
 21
301.778874497687184
 31
0.0
  0
ARC
  5
3DB5A
  8
0
 10
6687.8012978909464437
 20
301.6776559406961269
 30
0.0
 40
0.1012185569911252
 50
90.0000062267008332
 51
122.990011282671702
  0
ARC
  5
3DB5B
  8
0
 10
6687.8394677584974488
 20
301.6188570598112051
 30
0.0
 40
0.1713202487115324
 50
122.990011282671702
 51
142.6458669269206041
  0
ARC
  5
3DB5C
  8
0
 10
6687.8832230019961571
 20
301.5854591186998164
 30
0.0
 40
0.2263651740382724
 50
142.6458669269179893
 51
148.6322464174328957
  0
LINE
  5
3DB5D
  8
0
 10
6687.6899424813464066
 20
301.703288793887225
 30
0.0
 11
6687.6107925742462612
 21
301.5822988036871948
 31
0.0
  0
ARC
  5
3DB5E
  8
0
 10
6687.5690863245690707
 20
301.6017088764921823
 30
0.0
 40
0.0460017628843537
 50
285.1161052161759812
 51
335.0427492532035103
  0
ARC
  5
3DB5F
  8
0
 10
6686.964857219229998
 20
300.4530468353278252
 30
0.0
 40
0.059999999859329
 50
89.9999999848359238
 51
135.0000000842518091
  0
LINE
  5
3DB60
  8
0
 10
6686.9224308123957599
 20
300.4954732420371784
 30
0.0
 11
6686.9100043866646956
 21
300.4830468162688817
 31
0.0
  0
LINE
  5
3DB61
  8
0
 10
6685.6526952595067996
 20
299.3574956351872061
 30
0.0
 11
6685.2454616179466029
 21
299.3574956351872061
 31
0.0
  0
ARC
  5
3DB62
  8
0
 10
6685.2454616179466029
 20
299.337495635061714
 30
0.0
 40
0.020000000125485
 50
90.0
 51
144.9999997324013918
  0
LINE
  5
3DB63
  8
0
 10
6685.2290785770119328
 20
299.348967163937175
 30
0.0
 11
6685.1609441988466642
 21
299.2516611885374118
 31
0.0
  0
ARC
  5
3DB64
  8
0
 10
6685.1773272375603483
 20
299.2401896612179257
 30
0.0
 40
0.0199999974126178
 50
144.9999997324013918
 51
180.0000066769883915
  0
LINE
  5
3DB65
  8
0
 10
6685.1573272401474242
 20
299.240189658887175
 30
0.0
 11
6685.1573272827272376
 21
298.8748016109872196
 31
0.0
  0
ARC
  5
3DB66
  8
0
 10
6685.1773274825172848
 20
298.8748016133179135
 30
0.0
 40
0.0200001997898457
 50
180.0000066769850946
 51
214.9996072937485962
  0
LINE
  5
3DB67
  8
0
 10
6685.1609441993468863
 20
298.8633300822871774
 30
0.0
 11
6685.2290779101540465
 21
298.7660236395273046
 31
0.0
  0
ARC
  5
3DB68
  8
0
 10
6685.2454599171369409
 20
298.7774942769747781
 30
0.0
 40
0.0199986418600061
 50
214.9996072937485962
 51
270.0048727921441127
  0
LINE
  5
3DB69
  8
0
 10
6685.2454616179466029
 20
298.7574956351871833
 30
0.0
 11
6685.6527660421734254
 21
298.7574956351871833
 31
0.0
  0
LINE
  5
3DB6A
  8
0
 10
6686.8272427689198594
 20
298.7574956351871833
 30
0.0
 11
6687.8943599392468968
 21
298.7574956351871833
 31
0.0
  0
ARC
  5
3DB6B
  8
0
 10
6687.8943599392468968
 20
298.4669444541464145
 30
0.0
 40
0.2905511810407457
 50
19.99999999422214
 51
90.0
  0
LINE
  5
3DB6C
  8
0
 10
6688.1673887400411331
 20
298.5663188107018868
 30
0.0
 11
6688.4333709580077993
 21
297.8355386726361758
 31
0.0
  0
ARC
  5
3DB6D
  8
0
 10
6688.4521648103873304
 20
297.8423790754875995
 30
0.0
 40
0.0199999999611391
 50
199.9999999942220938
 51
290.0000005288013085
  0
LINE
  5
3DB6E
  8
0
 10
6688.4506750883128916
 20
297.8205533055186152
 30
0.0
 11
6688.9935632061142314
 21
298.0181484210186227
 31
0.0
  0
ARC
  5
3DB6F
  8
0
 10
6688.9783926783284187
 20
298.0339103557448084
 30
0.0
 40
0.0199999998400422
 50
289.9999995590733874
 51
20.0000002907348318
  0
LINE
  5
3DB70
  8
0
 10
6688.9971865305597021
 20
298.0407507586519955
 30
0.0
 11
6688.7312043088268183
 21
298.7715308952992928
 31
0.0
  0
ARC
  5
3DB71
  8
0
 10
6687.8943599290169004
 20
298.4669444455262806
 30
0.0
 40
0.8905511896608688
 50
20.0000002907348318
 51
89.999999341848067
  0
LINE
  5
3DB72
  8
0
 10
6687.8943599392468968
 20
299.3574956351872061
 30
0.0
 11
6686.8273135579020163
 21
299.3574956474446935
 31
0.0
  0
ARC
  5
3DB73
  8
0
 10
6688.89587749844668
 20
297.4419537168872125
 30
0.0
 40
0.5900000000000003
 50
141.6822876519001966
 51
78.3177123537293767
  0
ARC
  5
3DB74
  8
0
 10
6688.4643558940470029
 20
297.7829656006871915
 30
0.0
 40
0.039999999999989
 50
110.0000000078114937
 51
141.6822875179570929
  0
ARC
  5
3DB75
  8
0
 10
6689.0072440117855876
 20
297.9805607179981166
 30
0.0
 40
0.0399999982370578
 50
78.3177117447644235
 51
110.0000007777390039
  0
LINE
  5
3DB76
  8
0
 10
6685.2290785770455841
 20
299.3489671639871972
 30
0.0
 11
6685.2290785770455841
 21
298.7660226871507234
 31
0.0
  0
ENDSEC
  0
EOF
