  0
SECTION
  2
HEADER
  9
$ACADVER
  1
AC1009
  9
$INSBASE
 10
6686.2400044055457329
 20
291.3401181732372152
 30
0.0
  9
$EXTMIN
 10
6683.5825237177759846
 20
288.6826374855143058
 30
0.0
  9
$EXTMAX
 10
6689.4858774984468255
 20
293.9975984946806875
 30
0.0
  9
$LIMMIN
 10
0.0
 20
0.0
  9
$LIMMAX
 10
11.6929133858000007
 20
8.2677165353999982
  9
$ORTHOMODE
 70
     0
  9
$REGENMODE
 70
     1
  9
$FILLMODE
 70
     1
  9
$QTEXTMODE
 70
     0
  9
$MIRRTEXT
 70
     0
  9
$DRAGMODE
 70
     2
  9
$LTSCALE
 40
0.6431102362
  9
$OSMODE
 70
  3839
  9
$ATTMODE
 70
     1
  9
$TEXTSIZE
 40
0.2
  9
$TRACEWID
 40
0.05
  9
$TEXTSTYLE
  7
STANDARD
  9
$CLAYER
  8
0
  9
$CELTYPE
  6
BYLAYER
  9
$CECOLOR
 62
   256
  9
$DIMSCALE
 40
1.0
  9
$DIMASZ
 40
0.1875
  9
$DIMEXO
 40
0.0625
  9
$DIMDLI
 40
0.4443307087
  9
$DIMRND
 40
0.0
  9
$DIMDLE
 40
0.0
  9
$DIMEXE
 40
0.125
  9
$DIMTP
 40
0.01
  9
$DIMTM
 40
0.01
  9
$DIMTXT
 40
2.0
  9
$DIMCEN
 40
0.1052362205
  9
$DIMTSZ
 40
0.0
  9
$DIMTOL
 70
     1
  9
$DIMLIM
 70
     0
  9
$DIMTIH
 70
     1
  9
$DIMTOH
 70
     1
  9
$DIMSE1
 70
     0
  9
$DIMSE2
 70
     0
  9
$DIMTAD
 70
     0
  9
$DIMZIN
 70
     0
  9
$DIMBLK
  1

  9
$DIMASO
 70
     1
  9
$DIMSHO
 70
     1
  9
$DIMPOST
  1
\X
  9
$DIMAPOST
  1

  9
$DIMALT
 70
     1
  9
$DIMALTD
 70
     2
  9
$DIMALTF
 40
25.3999999999999986
  9
$DIMLFAC
 40
1.0
  9
$DIMTOFL
 70
     0
  9
$DIMTVP
 40
0.0
  9
$DIMTIX
 70
     0
  9
$DIMSOXD
 70
     0
  9
$DIMSAH
 70
     0
  9
$DIMBLK1
  1

  9
$DIMBLK2
  1

  9
$DIMSTYLE
  2
STANDARD
  9
$DIMCLRD
 70
     0
  9
$DIMCLRE
 70
     0
  9
$DIMCLRT
 70
     0
  9
$DIMTFAC
 40
1.0
  9
$DIMGAP
 40
0.09
  9
$LUNITS
 70
     2
  9
$LUPREC
 70
     4
  9
$SKETCHINC
 40
0.1
  9
$FILLETRAD
 40
0.0
  9
$AUNITS
 70
     0
  9
$AUPREC
 70
     0
  9
$MENU
  1
.
  9
$ELEVATION
 40
0.0
  9
$PELEVATION
 40
0.0
  9
$THICKNESS
 40
0.0
  9
$LIMCHECK
 70
     0
  9
$BLIPMODE
 70
     0
  9
$CHAMFERA
 40
0.0
  9
$CHAMFERB
 40
0.0
  9
$SKPOLY
 70
     0
  9
$TDCREATE
 40
2458060.468368056230247
  9
$TDUPDATE
 40
2460346.374039351940155
  9
$TDINDWG
 40
0.9607246528
  9
$TDUSRTIMER
 40
0.9607246528
  9
$USRTIMER
 70
     1
  9
$ANGBASE
 50
0.0
  9
$ANGDIR
 70
     0
  9
$PDMODE
 70
     0
  9
$PDSIZE
 40
0.3125
  9
$PLINEWID
 40
0.0
  9
$COORDS
 70
     1
  9
$SPLFRAME
 70
     0
  9
$SPLINETYPE
 70
     6
  9
$SPLINESEGS
 70
     8
  9
$ATTDIA
 70
     1
  9
$ATTREQ
 70
     1
  9
$HANDLING
 70
     1
  9
$HANDSEED
  5
3E2C3
  9
$SURFTAB1
 70
     6
  9
$SURFTAB2
 70
     6
  9
$SURFTYPE
 70
     6
  9
$SURFU
 70
     6
  9
$SURFV
 70
     6
  9
$UCSNAME
  2

  9
$UCSORG
 10
0.0
 20
0.0
 30
0.0
  9
$UCSXDIR
 10
1.0
 20
0.0
 30
0.0
  9
$UCSYDIR
 10
0.0
 20
1.0
 30
0.0
  9
$PUCSNAME
  2

  9
$PUCSORG
 10
0.0
 20
0.0
 30
0.0
  9
$PUCSXDIR
 10
1.0
 20
0.0
 30
0.0
  9
$PUCSYDIR
 10
0.0
 20
1.0
 30
0.0
  9
$USERI1
 70
     0
  9
$USERI2
 70
     0
  9
$USERI3
 70
     0
  9
$USERI4
 70
     0
  9
$USERI5
 70
     0
  9
$USERR1
 40
0.0
  9
$USERR2
 40
0.0
  9
$USERR3
 40
0.0
  9
$USERR4
 40
0.0
  9
$USERR5
 40
0.0
  9
$WORLDVIEW
 70
     1
  9
$SHADEDGE
 70
     3
  9
$SHADEDIF
 70
    70
  9
$TILEMODE
 70
     1
  9
$MAXACTVP
 70
    64
  9
$PLIMCHECK
 70
     0
  9
$PEXTMIN
 10
1.0000000000000000E+20
 20
1.0000000000000000E+20
 30
1.0000000000000000E+20
  9
$PEXTMAX
 10
-1.0000000000000000E+20
 20
-1.0000000000000000E+20
 30
-1.0000000000000000E+20
  9
$PLIMMIN
 10
0.0
 20
0.0
  9
$PLIMMAX
 10
12.0
 20
9.0
  9
$UNITMODE
 70
     0
  9
$VISRETAIN
 70
     1
  9
$PLINEGEN
 70
     0
  9
$PSLTSCALE
 70
     1
  0
ENDSEC
  0
SECTION
  2
TABLES
  0
TABLE
  2
VPORT
 70
     1
  0
VPORT
  2
*ACTIVE
 70
     0
 10
0.0
 20
0.0
 11
1.0
 21
1.0
 12
2775.168844162798905
 22
158.7605128875584057
 13
0.0
 23
0.0
 14
1.0
 24
1.0
 15
0.0
 25
0.0
 16
0.0
 26
0.0
 36
60.4960186965801583
 17
3911.3653564453120453
 27
132.5796051025390057
 37
0.0
 40
5.3530156225972396
 41
2.2831541218637992
 42
50.0
 43
0.0
 44
0.0
 50
0.0
 51
0.0
 71
     0
 72
   100
 73
     1
 74
     1
 75
     0
 76
     0
 77
     0
 78
     0
  0
ENDTAB
  0
TABLE
  2
LTYPE
 70
     2
  0
LTYPE
  2
CONTINUOUS
 70
     0
  3
Solid line
 72
    65
 73
     0
 40
0.0
  0
LTYPE
  2
PHANTOM2
 70
     0
  3
___ _ _ ___ _ _ ___ _ _ ___ _ _
 72
    65
 73
     6
 40
1.25
 49
0.625
 49
-0.125
 49
0.125
 49
-0.125
 49
0.125
 49
-0.125
  0
ENDTAB
  0
TABLE
  2
LAYER
 70
     2
  0
LAYER
  2
0
 70
     0
 62
   255
  6
CONTINUOUS
  0
LAYER
  2
DEFPOINTS
 70
     0
 62
     7
  6
CONTINUOUS
  0
ENDTAB
  0
TABLE
  2
STYLE
 70
     1
  0
STYLE
  2
STANDARD
 70
     0
 40
0.0
 41
0.8
 50
0.0
 71
     0
 42
0.2
  3
txt
  4

  0
ENDTAB
  0
TABLE
  2
VIEW
 70
     0
  0
ENDTAB
  0
TABLE
  2
UCS
 70
     0
  0
ENDTAB
  0
TABLE
  2
APPID
 70
    11
  0
APPID
  2
ACAD
 70
     0
  0
APPID
  2
ACAD_MLEADERVER
 70
     0
  0
APPID
  2
ACAD_EXEMPT_FROM_CAD_STANDARDS
 70
     0
  0
APPID
  2
ACAD_NAV_VCDISPLAY
 70
     0
  0
APPID
  2
ACAECLAYERSTANDARD
 70
     0
  0
APPID
  2
ACCMTRANSPARENCY
 70
     0
  0
APPID
  2
ACAD_DSTYLE_DIMJAG
 70
     0
  0
APPID
  2
ACAD_DSTYLE_DIMTALN
 70
     0
  0
APPID
  2
ACDBATTR
 70
     0
  0
APPID
  2
ACADANNOTATIVE
 70
     0
  0
APPID
  2
DCO15
 70
     0
  0
ENDTAB
  0
TABLE
  2
DIMSTYLE
 70
     1
  0
DIMSTYLE
  2
STANDARD
 70
     0
  3

  4

  5

  6

  7

 40
1.0
 41
0.1875
 42
0.0625
 43
0.38
 44
0.125
 45
0.0
 46
0.0
 47
0.01
 48
0.01
140
0.15625
141
0.09
142
0.0
143
25.3999999999999986
144
1.0
145
0.0
146
1.0
147
0.09
 71
     1
 72
     0
 73
     1
 74
     1
 75
     0
 76
     0
 77
     0
 78
     4
170
     0
171
     2
172
     0
173
     0
174
     0
175
     0
176
     0
177
     0
178
     0
  0
ENDTAB
  0
ENDSEC
  0
SECTION
  2
BLOCKS
  0
BLOCK
  8
0
  2
$MODEL_SPACE
 70
     0
 10
0.0
 20
0.0
 30
0.0
  3
$MODEL_SPACE
  1

  0
ENDBLK
  5
21
  8
0
  0
BLOCK
 67
     1
  8
0
  2
$PAPER_SPACE
 70
     0
 10
0.0
 20
0.0
 30
0.0
  3
$PAPER_SPACE
  1

  0
ENDBLK
  5
1D
 67
     1
  8
0
  0
BLOCK
  8
0
  2
_FILLED
 70
     0
 10
0.0
 20
0.0
 30
0.0
  3
_FILLED
  1

  0
SOLID
  5
3D9D1
  8
0
  6
BYBLOCK
 62
     0
 10
0.0
 20
0.0
 30
0.0
 11
-1.0
 21
0.1666666667
 31
0.0
 12
-1.0
 22
-0.1666666667
 32
0.0
 13
-1.0
 23
-0.1666666667
 33
0.0
  0
ENDBLK
  5
3D9D2
  8
0
  6
BYBLOCK
 62
     0
  0
ENDSEC
  0
SECTION
  2
ENTITIES
  0
LINE
  5
3DAA9
  8
0
 10
6684.33252409054694
 20
293.9975984881871796
 30
0.0
 11
6688.1474847205472543
 21
293.9975984881871796
 31
0.0
  0
LINE
  5
3DAAB
  8
0
 10
6684.33252409054694
 20
288.6826378582871939
 30
0.0
 11
6688.1474847205472543
 21
288.6826378582871939
 31
0.0
  0
LINE
  5
3DAAD
  8
0
 10
6683.5825240905460305
 20
293.2475984881871796
 30
0.0
 11
6683.5825240905460305
 21
289.4326378582871939
 31
0.0
  0
ARC
  5
3DAAE
  8
0
 10
6684.33252409054694
 20
293.2475984881871796
 30
0.0
 40
0.7500000000000027
 50
90.0
 51
180.0
  0
ARC
  5
3DAAF
  8
0
 10
6684.3317766945356198
 20
289.4318904622758168
 30
0.0
 40
0.7492529767615063
 50
179.9428462141493128
 51
270.0571537857725843
  0
ARC
  5
3DAB0
  8
0
 10
6684.3325240906560794
 20
293.2475984881767772
 30
0.0
 40
0.4930688495104199
 50
90.0000000128191147
 51
179.9999999987884109
  0
LINE
  5
3DAB1
  8
0
 10
6684.33252409054694
 20
293.7406673376872277
 30
0.0
 11
6684.67871093114627
 21
293.7406673377647053
 31
0.0
  0
ARC
  5
3DAB2
  8
0
 10
6684.6530043817147089
 20
293.952747190440391
 30
0.0
 40
0.2136321384872816
 50
276.9112006599617075
 51
323.8111861874838837
  0
LINE
  5
3DAB3
  8
0
 10
6684.8254216689456371
 20
293.8266084982871007
 30
0.0
 11
6684.9045715759466475
 21
293.9385433700871886
 31
0.0
  0
LINE
  5
3DAB4
  8
0
 10
6684.9045715759466475
 20
293.9385433700871886
 30
0.0
 11
6687.5754370501472295
 21
293.9385436317871836
 31
0.0
  0
LINE
  5
3DAB5
  8
0
 10
6683.8394552411473342
 20
293.2475984881767772
 30
0.0
 11
6683.8394552411473342
 21
289.432637858282817
 31
0.0
  0
ARC
  5
3DAB6
  8
0
 10
6684.3325240905423925
 20
289.432637858282817
 30
0.0
 40
0.4930688493956974
 50
180.0
 51
270.0
  0
LINE
  5
3DAB7
  8
0
 10
6684.3325240905423925
 20
288.9395690088871902
 30
0.0
 11
6684.6787109296474227
 21
288.9395690088871902
 31
0.0
  0
ARC
  5
3DAB8
  8
0
 10
6684.6691756921973138
 20
288.7550953098501054
 30
0.0
 40
0.1847199674903717
 50
32.2365346439456602
 51
87.041079056741026
  0
LINE
  5
3DAB9
  8
0
 10
6684.8254216688455926
 20
288.8536278484871787
 30
0.0
 11
6684.9045716165046542
 21
288.7416926126526278
 31
0.0
  0
LINE
  5
3DABA
  8
0
 10
6684.9045716165046542
 20
288.7416926126526278
 30
0.0
 11
6687.5754372351457278
 21
288.7416929763871849
 31
0.0
  0
ARC
  5
3DABB
  8
0
 10
6688.89587749844668
 20
291.3401181732871805
 30
0.0
 40
0.5899999999999999
 50
4.9200011562065464
 51
180.0
  0
ARC
  5
3DABC
  8
0
 10
6688.89587749844668
 20
291.3401181732871805
 30
0.0
 40
0.5899999999999987
 50
180.0
 51
4.9200011562065464
  0
CIRCLE
  5
3DABD
  8
0
 10
6686.2400044055457329
 20
291.3401181732871805
 30
0.0
 40
0.4860805751999996
  0
CIRCLE
  5
3DABE
  8
0
 10
6686.2400044055457329
 20
291.3401181732871805
 30
0.0
 40
0.5984251968999996
  0
LINE
  5
3DABF
  8
0
 10
6685.7222118178460732
 20
291.6401181732871919
 30
0.0
 11
6685.2454616179466029
 21
291.6401181732871919
 31
0.0
  0
ARC
  5
3DAC0
  8
0
 10
6685.2454616179466029
 20
291.6201181732870964
 30
0.0
 40
0.0200000000000014
 50
90.0
 51
145.0000000004087042
  0
LINE
  5
3DAC1
  8
0
 10
6685.229078577060136
 20
291.6315897020140824
 30
0.0
 11
6685.1609441992832217
 21
291.5342837261986233
 31
0.0
  0
ARC
  5
3DAC2
  8
0
 10
6685.1773272402688235
 20
291.5228121974014925
 30
0.0
 40
0.020000000122392
 50
145.0000000004087042
 51
179.9999997544827011
  0
LINE
  5
3DAC3
  8
0
 10
6685.1573272401474242
 20
291.5228121974870987
 30
0.0
 11
6685.1573272385821838
 21
291.1574241490870918
 31
0.0
  0
ARC
  5
3DAC4
  8
0
 10
6685.1773272312166227
 20
291.1574241490014856
 30
0.0
 40
0.0199999926362269
 50
179.9999997544827011
 51
215.0000144712097949
  0
LINE
  5
3DAC5
  8
0
 10
6685.1609441992595748
 20
291.1459526203602763
 30
0.0
 11
6685.2290786016028505
 21
291.0486466617742281
 31
0.0
  0
ARC
  5
3DAC6
  8
0
 10
6685.2454616806071499
 20
291.0601182233593249
 30
0.0
 40
0.020000050072266
 50
215.0000144712097949
 51
269.9998204917458793
  0
LINE
  5
3DAC7
  8
0
 10
6685.2454616179466029
 20
291.040118173287226
 30
0.0
 11
6685.7222092529136717
 21
291.0401166796322059
 31
0.0
  0
ARC
  5
3DAC8
  8
0
 10
6686.2400044055457329
 20
291.3401181732871805
 30
0.0
 40
1.0629921259999999
 50
194.4397516144605902
 51
343.6071212512517263
  0
ARC
  5
3DAC9
  8
0
 10
6686.2400044055457329
 20
291.3401181732871805
 30
0.0
 40
1.0629921259999999
 50
16.3928787487483589
 51
165.5602483879247018
  0
ARC
  5
3DACA
  8
0
 10
6686.2400044055457329
 20
291.3401181732871805
 30
0.0
 40
0.6884179245000003
 50
205.835051251139987
 51
334.1649487488598993
  0
ARC
  5
3DACB
  8
0
 10
6686.2400044055457329
 20
291.3401181732871805
 30
0.0
 40
0.6884179245000003
 50
25.8350512511400616
 51
154.1649487488598993
  0
LINE
  5
3DACC
  8
0
 10
6686.7578004235738263
 20
291.6401181732871919
 30
0.0
 11
6688.387842066612393
 21
291.6401181732871919
 31
0.0
  0
LINE
  5
3DACD
  8
0
 10
6686.7578004235738263
 20
291.040118173287226
 30
0.0
 11
6688.387842066612393
 21
291.040118173287226
 31
0.0
  0
LINE
  5
3DACE
  8
0
 10
6685.2454616179466029
 20
291.6401181732871919
 30
0.0
 11
6685.2454616179466029
 21
291.040118173287226
 31
0.0
  0
LINE
  5
3DACF
  8
0
 10
6688.8974847205463448
 20
293.2475984881871796
 30
0.0
 11
6688.8974847205463448
 21
291.9301159841621143
 31
0.0
  0
LINE
  5
3DAD0
  8
0
 10
6688.8974847205463448
 20
290.7501203624123036
 30
0.0
 11
6688.8974847205463448
 21
289.4326378582871939
 31
0.0
  0
ARC
  5
3DAD1
  8
0
 10
6688.1475834066422976
 20
293.2476971742822229
 30
0.0
 40
0.7499013203984385
 50
359.992459945588223
 51
90.0075400544020141
  0
ARC
  5
3DAD2
  8
0
 10
6688.1474851744105763
 20
289.4326374044225076
 30
0.0
 40
0.7499995461354785
 50
269.9999653272747082
 51
0.0000346727253618
  0
ARC
  5
3DAD3
  8
0
 10
6688.1474847204362959
 20
293.2475984881767772
 30
0.0
 40
0.4930688495104199
 50
0.0000000012115623
 51
89.9999999871808853
  0
LINE
  5
3DAD4
  8
0
 10
6688.1474847205472543
 20
293.7406673376872277
 30
0.0
 11
6687.8012978799470147
 21
293.7406673377647053
 31
0.0
  0
ARC
  5
3DAD5
  8
0
 10
6687.8270044293785759
 20
293.952747190440391
 30
0.0
 40
0.2136321384872816
 50
216.1888138125160879
 51
263.0887993400382925
  0
LINE
  5
3DAD6
  8
0
 10
6687.6545871421467382
 20
293.8266084982871007
 30
0.0
 11
6687.5754370501472295
 21
293.9385436317871836
 31
0.0
  0
LINE
  5
3DAD7
  8
0
 10
6688.6405535699459506
 20
293.2475984881767772
 30
0.0
 11
6688.6405535699459506
 21
291.8720107296699098
 31
0.0
  0
LINE
  5
3DAD8
  8
0
 10
6688.6405535699459506
 20
290.8082256169045081
 30
0.0
 11
6688.6405535699459506
 21
289.432637858282817
 31
0.0
  0
ARC
  5
3DAD9
  8
0
 10
6688.1474847205508922
 20
289.432637858282817
 30
0.0
 40
0.4930688493956974
 50
270.0
 51
0.0
  0
LINE
  5
3DADA
  8
0
 10
6688.1474847205508922
 20
288.9395690088871902
 30
0.0
 11
6687.801297881445862
 21
288.9395690088871902
 31
0.0
  0
ARC
  5
3DADB
  8
0
 10
6687.8108331188968805
 20
288.7550953098501054
 30
0.0
 40
0.1847199674903717
 50
92.958920943258974
 51
147.7634653560542972
  0
LINE
  5
3DADC
  8
0
 10
6687.6545871422467826
 20
288.8536278484871787
 30
0.0
 11
6687.5754372351457278
 21
288.7416929763871849
 31
0.0
  0
ATTDEF
  5
3DC04
  8
DEFPOINTS
 10
6686.2418655364153892
 20
291.3368410820336862
 30
0.0
 40
0.001
  1
P34867-BN
  3

  2
MODELNUMBER
 70
     0
1001
ACDBATTR
1070
     0
1070
     1
  0
ATTDEF
  5
3DC05
  8
DEFPOINTS
 10
6686.2417397267572596
 20
291.3351742416546131
 30
0.0
 40
0.001
  1
VICE
  3

  2
TRADENAME
 70
     0
1001
ACDBATTR
1070
     0
1070
     1
  0
ATTDEF
  5
3DC06
  8
DEFPOINTS
 10
6686.2418655364153892
 20
291.3335077487002991
 30
0.0
 40
0.001
  1
VALVE TRIM
  3

  2
PRODUCT
 70
     0
1001
ACDBATTR
1070
     0
1070
     1
  0
ENDSEC
  0
EOF
