  0
SECTION
  2
HEADER
  9
$ACADVER
  1
AC1009
  9
$INSBASE
 10
6584.6465276352109868
 20
289.215026860457499
 30
0.0
  9
$EXTMIN
 10
6582.6465276352046203
 20
287.2150268604523831
 30
0.0
  9
$EXTMAX
 10
6587.8924007281102604
 20
291.2150268669510069
 30
0.0
  9
$LIMMIN
 10
0.0
 20
0.0
  9
$LIMMAX
 10
11.6929133858000007
 20
8.2677165353999982
  9
$ORTHOMODE
 70
     0
  9
$REGENMODE
 70
     1
  9
$FILLMODE
 70
     1
  9
$QTEXTMODE
 70
     0
  9
$MIRRTEXT
 70
     0
  9
$DRAGMODE
 70
     2
  9
$LTSCALE
 40
0.6431102362
  9
$OSMODE
 70
  4095
  9
$ATTMODE
 70
     1
  9
$TEXTSIZE
 40
0.2
  9
$TRACEWID
 40
0.05
  9
$TEXTSTYLE
  7
STANDARD
  9
$CLAYER
  8
0
  9
$CELTYPE
  6
BYLAYER
  9
$CECOLOR
 62
   256
  9
$DIMSCALE
 40
1.0
  9
$DIMASZ
 40
0.1875
  9
$DIMEXO
 40
0.0625
  9
$DIMDLI
 40
0.4443307087
  9
$DIMRND
 40
0.0
  9
$DIMDLE
 40
0.0
  9
$DIMEXE
 40
0.125
  9
$DIMTP
 40
0.01
  9
$DIMTM
 40
0.01
  9
$DIMTXT
 40
2.0
  9
$DIMCEN
 40
0.1052362205
  9
$DIMTSZ
 40
0.0
  9
$DIMTOL
 70
     1
  9
$DIMLIM
 70
     0
  9
$DIMTIH
 70
     1
  9
$DIMTOH
 70
     1
  9
$DIMSE1
 70
     0
  9
$DIMSE2
 70
     0
  9
$DIMTAD
 70
     0
  9
$DIMZIN
 70
     0
  9
$DIMBLK
  1

  9
$DIMASO
 70
     1
  9
$DIMSHO
 70
     1
  9
$DIMPOST
  1
\X
  9
$DIMAPOST
  1

  9
$DIMALT
 70
     1
  9
$DIMALTD
 70
     2
  9
$DIMALTF
 40
25.3999999999999986
  9
$DIMLFAC
 40
1.0
  9
$DIMTOFL
 70
     0
  9
$DIMTVP
 40
0.0
  9
$DIMTIX
 70
     0
  9
$DIMSOXD
 70
     0
  9
$DIMSAH
 70
     0
  9
$DIMBLK1
  1

  9
$DIMBLK2
  1

  9
$DIMSTYLE
  2
STANDARD
  9
$DIMCLRD
 70
     0
  9
$DIMCLRE
 70
     0
  9
$DIMCLRT
 70
     0
  9
$DIMTFAC
 40
1.0
  9
$DIMGAP
 40
0.09
  9
$LUNITS
 70
     2
  9
$LUPREC
 70
     4
  9
$SKETCHINC
 40
0.1
  9
$FILLETRAD
 40
0.0
  9
$AUNITS
 70
     0
  9
$AUPREC
 70
     0
  9
$MENU
  1
.
  9
$ELEVATION
 40
0.0
  9
$PELEVATION
 40
0.0
  9
$THICKNESS
 40
0.0
  9
$LIMCHECK
 70
     0
  9
$BLIPMODE
 70
     0
  9
$CHAMFERA
 40
0.0
  9
$CHAMFERB
 40
0.0
  9
$SKPOLY
 70
     0
  9
$TDCREATE
 40
2458060.468368056230247
  9
$TDUPDATE
 40
2460363.9020023150369525
  9
$TDINDWG
 40
0.8042431713
  9
$TDUSRTIMER
 40
0.8042431713
  9
$USRTIMER
 70
     1
  9
$ANGBASE
 50
0.0
  9
$ANGDIR
 70
     0
  9
$PDMODE
 70
     0
  9
$PDSIZE
 40
0.3125
  9
$PLINEWID
 40
0.0
  9
$COORDS
 70
     1
  9
$SPLFRAME
 70
     0
  9
$SPLINETYPE
 70
     6
  9
$SPLINESEGS
 70
     8
  9
$ATTDIA
 70
     1
  9
$ATTREQ
 70
     1
  9
$HANDLING
 70
     1
  9
$HANDSEED
  5
2EC65
  9
$SURFTAB1
 70
     6
  9
$SURFTAB2
 70
     6
  9
$SURFTYPE
 70
     6
  9
$SURFU
 70
     6
  9
$SURFV
 70
     6
  9
$UCSNAME
  2

  9
$UCSORG
 10
0.0
 20
0.0
 30
0.0
  9
$UCSXDIR
 10
1.0
 20
0.0
 30
0.0
  9
$UCSYDIR
 10
0.0
 20
1.0
 30
0.0
  9
$PUCSNAME
  2

  9
$PUCSORG
 10
0.0
 20
0.0
 30
0.0
  9
$PUCSXDIR
 10
1.0
 20
0.0
 30
0.0
  9
$PUCSYDIR
 10
0.0
 20
1.0
 30
0.0
  9
$USERI1
 70
     0
  9
$USERI2
 70
     0
  9
$USERI3
 70
     0
  9
$USERI4
 70
     0
  9
$USERI5
 70
     0
  9
$USERR1
 40
0.0
  9
$USERR2
 40
0.0
  9
$USERR3
 40
0.0
  9
$USERR4
 40
0.0
  9
$USERR5
 40
0.0
  9
$WORLDVIEW
 70
     1
  9
$SHADEDGE
 70
     3
  9
$SHADEDIF
 70
    70
  9
$TILEMODE
 70
     1
  9
$MAXACTVP
 70
    64
  9
$PLIMCHECK
 70
     0
  9
$PEXTMIN
 10
1.0000000000000000E+20
 20
1.0000000000000000E+20
 30
1.0000000000000000E+20
  9
$PEXTMAX
 10
-1.0000000000000000E+20
 20
-1.0000000000000000E+20
 30
-1.0000000000000000E+20
  9
$PLIMMIN
 10
0.0
 20
0.0
  9
$PLIMMAX
 10
12.0
 20
9.0
  9
$UNITMODE
 70
     0
  9
$VISRETAIN
 70
     1
  9
$PLINEGEN
 70
     0
  9
$PSLTSCALE
 70
     1
  0
ENDSEC
  0
SECTION
  2
TABLES
  0
TABLE
  2
VPORT
 70
     1
  0
VPORT
  2
*ACTIVE
 70
     0
 10
0.0
 20
0.0
 11
1.0
 21
1.0
 12
2673.9041077363449403
 22
156.6354217611626041
 13
0.0
 23
0.0
 14
1.0
 24
1.0
 15
0.0
 25
0.0
 16
0.0
 26
0.0
 36
60.4960186965801583
 17
3911.3653564453120453
 27
132.5796051025390057
 37
0.0
 40
4.0317041016622852
 41
2.5251322751322749
 42
50.0
 43
0.0
 44
0.0
 50
0.0
 51
0.0
 71
     0
 72
   100
 73
     1
 74
     1
 75
     0
 76
     0
 77
     0
 78
     0
  0
ENDTAB
  0
TABLE
  2
LTYPE
 70
     2
  0
LTYPE
  2
CONTINUOUS
 70
     0
  3
Solid line
 72
    65
 73
     0
 40
0.0
  0
LTYPE
  2
PHANTOM2
 70
     0
  3
___ _ _ ___ _ _ ___ _ _ ___ _ _
 72
    65
 73
     6
 40
1.25
 49
0.625
 49
-0.125
 49
0.125
 49
-0.125
 49
0.125
 49
-0.125
  0
ENDTAB
  0
TABLE
  2
LAYER
 70
     2
  0
LAYER
  2
0
 70
     0
 62
   255
  6
CONTINUOUS
  0
LAYER
  2
DEFPOINTS
 70
     0
 62
     7
  6
CONTINUOUS
  0
ENDTAB
  0
TABLE
  2
STYLE
 70
     1
  0
STYLE
  2
STANDARD
 70
     0
 40
0.0
 41
0.8
 50
0.0
 71
     0
 42
0.2
  3
txt
  4

  0
ENDTAB
  0
TABLE
  2
VIEW
 70
     0
  0
ENDTAB
  0
TABLE
  2
UCS
 70
     0
  0
ENDTAB
  0
TABLE
  2
APPID
 70
    11
  0
APPID
  2
ACAD
 70
     0
  0
APPID
  2
ACAD_MLEADERVER
 70
     0
  0
APPID
  2
ACAD_EXEMPT_FROM_CAD_STANDARDS
 70
     0
  0
APPID
  2
ACAD_NAV_VCDISPLAY
 70
     0
  0
APPID
  2
ACAECLAYERSTANDARD
 70
     0
  0
APPID
  2
ACCMTRANSPARENCY
 70
     0
  0
APPID
  2
ACAD_DSTYLE_DIMJAG
 70
     0
  0
APPID
  2
ACAD_DSTYLE_DIMTALN
 70
     0
  0
APPID
  2
ACDBATTR
 70
     0
  0
APPID
  2
ACADANNOTATIVE
 70
     0
  0
APPID
  2
DCO15
 70
     0
  0
ENDTAB
  0
TABLE
  2
DIMSTYLE
 70
     1
  0
DIMSTYLE
  2
STANDARD
 70
     0
  3

  4

  5

  6

  7

 40
1.0
 41
0.1875
 42
0.0625
 43
0.38
 44
0.125
 45
0.0
 46
0.0
 47
0.01
 48
0.01
140
0.15625
141
0.09
142
0.0
143
25.3999999999999986
144
1.0
145
0.0
146
1.0
147
0.09
 71
     1
 72
     0
 73
     1
 74
     1
 75
     0
 76
     0
 77
     0
 78
     4
170
     0
171
     2
172
     0
173
     0
174
     0
175
     0
176
     0
177
     0
178
     0
  0
ENDTAB
  0
ENDSEC
  0
SECTION
  2
BLOCKS
  0
BLOCK
  8
0
  2
$MODEL_SPACE
 70
     0
 10
0.0
 20
0.0
 30
0.0
  3
$MODEL_SPACE
  1

  0
ENDBLK
  5
21
  8
0
  0
BLOCK
 67
     1
  8
0
  2
$PAPER_SPACE
 70
     0
 10
0.0
 20
0.0
 30
0.0
  3
$PAPER_SPACE
  1

  0
ENDBLK
  5
1D
 67
     1
  8
0
  0
BLOCK
  8
0
  2
_FILLED
 70
     0
 10
0.0
 20
0.0
 30
0.0
  3
_FILLED
  1

  0
SOLID
  5
2EB34
  8
0
  6
BYBLOCK
 62
     0
 10
0.0
 20
0.0
 30
0.0
 11
-1.0
 21
0.1666666667
 31
0.0
 12
-1.0
 22
-0.1666666667
 32
0.0
 13
-1.0
 23
-0.1666666667
 33
0.0
  0
ENDBLK
  5
2EB35
  8
0
  6
BYBLOCK
 62
     0
  0
ENDSEC
  0
SECTION
  2
ENTITIES
  0
ATTDEF
  5
26A5B
  8
DEFPOINTS
 10
6584.643161238895118
 20
289.2188474566506216
 30
0.0
 40
0.001
  1
P34868-BAF
  3

  2
MODELNUMBER
 70
     0
1001
ACDBATTR
1070
     0
1070
     1
  0
ATTDEF
  5
26A5C
  8
DEFPOINTS
 10
6584.6430354292378979
 20
289.2171806162713779
 30
0.0
 40
0.001
  1

  3

  2
TRADENAME
 70
     0
1001
ACDBATTR
1070
     0
1070
     1
  0
ATTDEF
  5
26A5D
  8
DEFPOINTS
 10
6584.643161238895118
 20
289.2155141233172913
 30
0.0
 40
0.001
  1
VALVE TRIM
  3

  2
PRODUCT
 70
     0
1001
ACDBATTR
1070
     0
1070
     1
  0
LINE
  5
2EB6D
  8
0
 10
6583.3965276352100773
 20
291.215026860457499
 30
0.0
 11
6585.8965276353101217
 21
291.215026860457499
 31
0.0
  0
LINE
  5
2EB6E
  8
0
 10
6583.3965276352100773
 20
287.2150268604573853
 30
0.0
 11
6585.8965276353101217
 21
287.2150268604573853
 31
0.0
  0
LINE
  5
2EB6F
  8
0
 10
6582.6465276352091678
 20
290.4650268604573853
 30
0.0
 11
6582.6465276352091678
 21
287.9650268604573853
 31
0.0
  0
ARC
  5
2EB70
  8
0
 10
6583.3965276352100773
 20
290.4650268604573853
 30
0.0
 40
0.7500000000000027
 50
90.0
 51
180.0
  0
ARC
  5
2EB71
  8
0
 10
6583.3965249134780606
 20
287.9650241387253118
 30
0.0
 40
0.7499972782728057
 50
179.9997920742256952
 51
270.0002079257743048
  0
ARC
  5
2EB72
  8
0
 10
6583.3965276353192166
 20
290.4650268604469829
 30
0.0
 40
0.4930688495104199
 50
90.0000000128191147
 51
179.9999999987884109
  0
LINE
  5
2EB73
  8
0
 10
6583.3965276352100773
 20
290.9580957099573766
 30
0.0
 11
6583.4749122668372365
 21
290.9580957100350247
 31
0.0
  0
ARC
  5
2EB74
  8
0
 10
6583.4492057174038564
 20
291.1701755627105968
 30
0.0
 40
0.2136321384872816
 50
276.9112006599617075
 51
323.8111861874838837
  0
LINE
  5
2EB75
  8
0
 10
6583.6216230046384226
 20
291.0440368705574201
 30
0.0
 11
6583.700772911637614
 21
291.1559717423573943
 31
0.0
  0
LINE
  5
2EB76
  8
0
 10
6583.700772911637614
 20
291.1559717423573943
 30
0.0
 11
6585.5827379720321915
 21
291.1559720040573893
 31
0.0
  0
LINE
  5
2EB77
  8
0
 10
6582.9034587858113809
 20
290.4650268604469829
 30
0.0
 11
6582.9034587858113809
 21
287.965026860453122
 31
0.0
  0
ARC
  5
2EB78
  8
0
 10
6583.3965276352064393
 20
287.965026860453122
 30
0.0
 40
0.4930688493956974
 50
180.0
 51
270.0
  0
LINE
  5
2EB79
  8
0
 10
6583.3965276352064393
 20
287.4719580110574952
 30
0.0
 11
6583.4801013484293435
 21
287.4719580110574952
 31
0.0
  0
ARC
  5
2EB7A
  8
0
 10
6583.4705661109792345
 20
287.2874843120204105
 30
0.0
 40
0.1847199674903717
 50
32.2365346439456602
 51
87.041079056741026
  0
LINE
  5
2EB7B
  8
0
 10
6583.6268120876293324
 20
287.3860168506574269
 30
0.0
 11
6583.705962035288394
 21
287.2740816148228191
 31
0.0
  0
LINE
  5
2EB7C
  8
0
 10
6583.705962035288394
 20
287.2740816148228191
 30
0.0
 11
6585.5894590633670305
 21
287.2740819785573763
 31
0.0
  0
ARC
  5
2EB7D
  8
0
 10
6587.3024007281101149
 20
289.215026860457499
 30
0.0
 40
0.5899999999999999
 50
4.9200011562065464
 51
180.0
  0
ARC
  5
2EB7E
  8
0
 10
6587.3024007281101149
 20
289.215026860457499
 30
0.0
 40
0.5899999999999987
 50
180.0
 51
4.9200011562065464
  0
CIRCLE
  5
2EB7F
  8
0
 10
6584.6465276352109868
 20
289.215026860457499
 30
0.0
 40
0.4860805751999996
  0
CIRCLE
  5
2EB80
  8
0
 10
6584.6465276352109868
 20
289.215026860457499
 30
0.0
 40
0.5984251968999996
  0
LINE
  5
2EB81
  8
0
 10
6584.1287350475104176
 20
289.5150268604573967
 30
0.0
 11
6583.6519848476100378
 21
289.5150268604573967
 31
0.0
  0
ARC
  5
2EB82
  8
0
 10
6583.6519848476100378
 20
289.4950268604574148
 30
0.0
 40
0.0200000000000014
 50
90.0
 51
145.0000000004087042
  0
LINE
  5
2EB83
  8
0
 10
6583.6356018067253899
 20
289.5064983891844008
 30
0.0
 11
6583.5674674289457471
 21
289.4091924133688281
 31
0.0
  0
ARC
  5
2EB84
  8
0
 10
6583.5838504699322584
 20
289.3977208845716973
 30
0.0
 40
0.020000000122392
 50
145.0000000004087042
 51
179.9999997544827011
  0
LINE
  5
2EB85
  8
0
 10
6583.5638504698090401
 20
289.3977208846574172
 30
0.0
 11
6583.5638504682437997
 21
289.0323328362574102
 31
0.0
  0
ARC
  5
2EB86
  8
0
 10
6583.5838504608818766
 20
289.0323328361716904
 30
0.0
 40
0.0199999926362269
 50
179.9999997544827011
 51
215.0000144712097949
  0
LINE
  5
2EB87
  8
0
 10
6583.5674674289239192
 20
289.0208613075304811
 30
0.0
 11
6583.6356018312653759
 21
288.923555348944376
 31
0.0
  0
ARC
  5
2EB88
  8
0
 10
6583.6519849102696753
 20
288.9350269105295865
 30
0.0
 40
0.020000050072266
 50
215.0000144712097949
 51
269.9998204917458793
  0
LINE
  5
2EB89
  8
0
 10
6583.6519848476100378
 20
288.9150268604573739
 30
0.0
 11
6584.1287324825789256
 21
288.9150253668025243
 31
0.0
  0
ARC
  5
2EB8A
  8
0
 10
6584.6465276352109868
 20
289.215026860457499
 30
0.0
 40
1.0629921259999999
 50
194.4397516144605902
 51
343.6071212512517263
  0
ARC
  5
2EB8B
  8
0
 10
6584.6465276352109868
 20
289.215026860457499
 30
0.0
 40
1.0629921259999999
 50
16.3928787487483589
 51
165.5602483879247018
  0
ARC
  5
2EB8C
  8
0
 10
6584.6465276352109868
 20
289.215026860457499
 30
0.0
 40
0.6884179245000003
 50
205.835051251139987
 51
334.1649487488598993
  0
ARC
  5
2EB8D
  8
0
 10
6584.6465276352109868
 20
289.215026860457499
 30
0.0
 40
0.6884179245000003
 50
25.8350512511400616
 51
154.1649487488598993
  0
LINE
  5
2EB8E
  8
0
 10
6585.1643236532372612
 20
289.5150268604573967
 30
0.0
 11
6586.7943652962749184
 21
289.5150268604573967
 31
0.0
  0
LINE
  5
2EB8F
  8
0
 10
6585.1643236532372612
 20
288.9150268604573739
 30
0.0
 11
6586.7943652962749184
 21
288.9150268604573739
 31
0.0
  0
LINE
  5
2EB90
  8
0
 10
6583.6519848476100378
 20
289.5150268604573967
 30
0.0
 11
6583.6519848476100378
 21
288.9150268604573739
 31
0.0
  0
LINE
  5
2EB91
  8
0
 10
6586.6465276353092122
 20
290.4650268604573853
 30
0.0
 11
6586.6465276353092122
 21
289.5150268604573967
 31
0.0
  0
LINE
  5
2EB92
  8
0
 10
6586.6465276353092122
 20
288.9150268604573739
 30
0.0
 11
6586.6465276353092122
 21
287.9650268604573853
 31
0.0
  0
ARC
  5
2EB93
  8
0
 10
6585.8966263214060746
 20
290.4651255465524855
 30
0.0
 40
0.7499013203984385
 50
359.992459945588223
 51
90.0075400544020141
  0
ARC
  5
2EB94
  8
0
 10
6585.8965280891743532
 20
287.9650264065928127
 30
0.0
 40
0.7499995461354785
 50
269.9999653272747082
 51
0.0000346727253618
  0
ARC
  5
2EB95
  8
0
 10
6585.8965276351991633
 20
290.4650268604469829
 30
0.0
 40
0.4930688495104199
 50
0.0000000012115623
 51
89.9999999871808853
  0
LINE
  5
2EB96
  8
0
 10
6585.8965276353101217
 20
290.9580957099573766
 30
0.0
 11
6585.8085988018319767
 21
290.9580957100350247
 31
0.0
  0
ARC
  5
2EB97
  8
0
 10
6585.8343053512644474
 20
291.1701755627105968
 30
0.0
 40
0.2136321384872816
 50
216.1888138125160879
 51
263.0887993400382925
  0
LINE
  5
2EB98
  8
0
 10
6585.6618880640307907
 20
291.0440368705574201
 30
0.0
 11
6585.5827379720321915
 21
291.1559720040573893
 31
0.0
  0
LINE
  5
2EB99
  8
0
 10
6586.389596484710637
 20
290.4650268604469829
 30
0.0
 11
6586.389596484710637
 21
289.5150268604573967
 31
0.0
  0
LINE
  5
2EB9A
  8
0
 10
6586.389596484710637
 20
288.9150268604573739
 30
0.0
 11
6586.389596484710637
 21
287.965026860453122
 31
0.0
  0
ARC
  5
2EB9B
  8
0
 10
6585.8965276353137597
 20
287.965026860453122
 30
0.0
 40
0.4930688493956974
 50
270.0
 51
0.0
  0
LINE
  5
2EB9C
  8
0
 10
6585.8965276353137597
 20
287.4719580110574952
 30
0.0
 11
6585.8153197096662552
 21
287.4719580110574952
 31
0.0
  0
ARC
  5
2EB9D
  8
0
 10
6585.8248549471172737
 20
287.2874843120204105
 30
0.0
 40
0.1847199674903717
 50
92.958920943258974
 51
147.7634653560542972
  0
LINE
  5
2EB9E
  8
0
 10
6585.6686089704671758
 20
287.3860168506574269
 30
0.0
 11
6585.5894590633670305
 21
287.2740819785573763
 31
0.0
  0
ENDSEC
  0
EOF
