  0
SECTION
  2
HEADER
  9
$ACADVER
  1
AC1009
  9
$INSBASE
 10
6686.2404155957819967
 20
291.3320258451241216
 30
0.0
  9
$EXTMIN
 10
6684.2404155957783587
 20
289.3320258451191762
 30
0.0
  9
$EXTMAX
 10
6689.4862886886830893
 20
293.3321301052660033
 30
0.0
  9
$LIMMIN
 10
0.0
 20
0.0
  9
$LIMMAX
 10
11.6929133858000007
 20
8.2677165353999982
  9
$ORTHOMODE
 70
     0
  9
$REGENMODE
 70
     1
  9
$FILLMODE
 70
     1
  9
$QTEXTMODE
 70
     0
  9
$MIRRTEXT
 70
     0
  9
$DRAGMODE
 70
     2
  9
$LTSCALE
 40
0.6431102362
  9
$OSMODE
 70
  3839
  9
$ATTMODE
 70
     1
  9
$TEXTSIZE
 40
0.2
  9
$TRACEWID
 40
0.05
  9
$TEXTSTYLE
  7
STANDARD
  9
$CLAYER
  8
0
  9
$CELTYPE
  6
BYLAYER
  9
$CECOLOR
 62
   256
  9
$DIMSCALE
 40
1.0
  9
$DIMASZ
 40
0.1875
  9
$DIMEXO
 40
0.0625
  9
$DIMDLI
 40
0.4443307087
  9
$DIMRND
 40
0.0
  9
$DIMDLE
 40
0.0
  9
$DIMEXE
 40
0.125
  9
$DIMTP
 40
0.01
  9
$DIMTM
 40
0.01
  9
$DIMTXT
 40
2.0
  9
$DIMCEN
 40
0.1052362205
  9
$DIMTSZ
 40
0.0
  9
$DIMTOL
 70
     1
  9
$DIMLIM
 70
     0
  9
$DIMTIH
 70
     1
  9
$DIMTOH
 70
     1
  9
$DIMSE1
 70
     0
  9
$DIMSE2
 70
     0
  9
$DIMTAD
 70
     0
  9
$DIMZIN
 70
     0
  9
$DIMBLK
  1

  9
$DIMASO
 70
     1
  9
$DIMSHO
 70
     1
  9
$DIMPOST
  1
\X
  9
$DIMAPOST
  1

  9
$DIMALT
 70
     1
  9
$DIMALTD
 70
     2
  9
$DIMALTF
 40
25.3999999999999986
  9
$DIMLFAC
 40
1.0
  9
$DIMTOFL
 70
     0
  9
$DIMTVP
 40
0.0
  9
$DIMTIX
 70
     0
  9
$DIMSOXD
 70
     0
  9
$DIMSAH
 70
     0
  9
$DIMBLK1
  1

  9
$DIMBLK2
  1

  9
$DIMSTYLE
  2
STANDARD
  9
$DIMCLRD
 70
     0
  9
$DIMCLRE
 70
     0
  9
$DIMCLRT
 70
     0
  9
$DIMTFAC
 40
1.0
  9
$DIMGAP
 40
0.09
  9
$LUNITS
 70
     2
  9
$LUPREC
 70
     4
  9
$SKETCHINC
 40
0.1
  9
$FILLETRAD
 40
0.0
  9
$AUNITS
 70
     0
  9
$AUPREC
 70
     0
  9
$MENU
  1
.
  9
$ELEVATION
 40
0.0
  9
$PELEVATION
 40
0.0
  9
$THICKNESS
 40
0.0
  9
$LIMCHECK
 70
     0
  9
$BLIPMODE
 70
     0
  9
$CHAMFERA
 40
0.0
  9
$CHAMFERB
 40
0.0
  9
$SKPOLY
 70
     0
  9
$TDCREATE
 40
2458060.468368056230247
  9
$TDUPDATE
 40
2460335.4156828699633479
  9
$TDINDWG
 40
0.9587454861
  9
$TDUSRTIMER
 40
0.9587454861
  9
$USRTIMER
 70
     1
  9
$ANGBASE
 50
0.0
  9
$ANGDIR
 70
     0
  9
$PDMODE
 70
     0
  9
$PDSIZE
 40
0.3125
  9
$PLINEWID
 40
0.0
  9
$COORDS
 70
     1
  9
$SPLFRAME
 70
     0
  9
$SPLINETYPE
 70
     6
  9
$SPLINESEGS
 70
     8
  9
$ATTDIA
 70
     1
  9
$ATTREQ
 70
     1
  9
$HANDLING
 70
     1
  9
$HANDSEED
  5
3E129
  9
$SURFTAB1
 70
     6
  9
$SURFTAB2
 70
     6
  9
$SURFTYPE
 70
     6
  9
$SURFU
 70
     6
  9
$SURFV
 70
     6
  9
$UCSNAME
  2

  9
$UCSORG
 10
0.0
 20
0.0
 30
0.0
  9
$UCSXDIR
 10
1.0
 20
0.0
 30
0.0
  9
$UCSYDIR
 10
0.0
 20
1.0
 30
0.0
  9
$PUCSNAME
  2

  9
$PUCSORG
 10
0.0
 20
0.0
 30
0.0
  9
$PUCSXDIR
 10
1.0
 20
0.0
 30
0.0
  9
$PUCSYDIR
 10
0.0
 20
1.0
 30
0.0
  9
$USERI1
 70
     0
  9
$USERI2
 70
     0
  9
$USERI3
 70
     0
  9
$USERI4
 70
     0
  9
$USERI5
 70
     0
  9
$USERR1
 40
0.0
  9
$USERR2
 40
0.0
  9
$USERR3
 40
0.0
  9
$USERR4
 40
0.0
  9
$USERR5
 40
0.0
  9
$WORLDVIEW
 70
     1
  9
$SHADEDGE
 70
     3
  9
$SHADEDIF
 70
    70
  9
$TILEMODE
 70
     1
  9
$MAXACTVP
 70
    64
  9
$PLIMCHECK
 70
     0
  9
$PEXTMIN
 10
1.0000000000000000E+20
 20
1.0000000000000000E+20
 30
1.0000000000000000E+20
  9
$PEXTMAX
 10
-1.0000000000000000E+20
 20
-1.0000000000000000E+20
 30
-1.0000000000000000E+20
  9
$PLIMMIN
 10
0.0
 20
0.0
  9
$PLIMMAX
 10
12.0
 20
9.0
  9
$UNITMODE
 70
     0
  9
$VISRETAIN
 70
     1
  9
$PLINEGEN
 70
     0
  9
$PSLTSCALE
 70
     1
  0
ENDSEC
  0
SECTION
  2
TABLES
  0
TABLE
  2
VPORT
 70
     1
  0
VPORT
  2
*ACTIVE
 70
     0
 10
0.0
 20
0.0
 11
1.0
 21
1.0
 12
2775.4979956969168597
 22
158.7524728726534988
 13
0.0
 23
0.0
 14
1.0
 24
1.0
 15
0.0
 25
0.0
 16
0.0
 26
0.0
 36
60.4960186965801583
 17
3911.3653564453120453
 27
132.5796051025390057
 37
0.0
 40
4.0287446247779712
 41
2.2831541218637992
 42
50.0
 43
0.0
 44
0.0
 50
0.0
 51
0.0
 71
     0
 72
   100
 73
     1
 74
     1
 75
     0
 76
     0
 77
     0
 78
     0
  0
ENDTAB
  0
TABLE
  2
LTYPE
 70
     2
  0
LTYPE
  2
CONTINUOUS
 70
     0
  3
Solid line
 72
    65
 73
     0
 40
0.0
  0
LTYPE
  2
PHANTOM2
 70
     0
  3
___ _ _ ___ _ _ ___ _ _ ___ _ _
 72
    65
 73
     6
 40
1.25
 49
0.625
 49
-0.125
 49
0.125
 49
-0.125
 49
0.125
 49
-0.125
  0
ENDTAB
  0
TABLE
  2
LAYER
 70
     2
  0
LAYER
  2
0
 70
     0
 62
   255
  6
CONTINUOUS
  0
LAYER
  2
DEFPOINTS
 70
     0
 62
     7
  6
CONTINUOUS
  0
ENDTAB
  0
TABLE
  2
STYLE
 70
     1
  0
STYLE
  2
STANDARD
 70
     0
 40
0.0
 41
0.8
 50
0.0
 71
     0
 42
0.2
  3
txt
  4

  0
ENDTAB
  0
TABLE
  2
VIEW
 70
     0
  0
ENDTAB
  0
TABLE
  2
UCS
 70
     0
  0
ENDTAB
  0
TABLE
  2
APPID
 70
    11
  0
APPID
  2
ACAD
 70
     0
  0
APPID
  2
ACAD_MLEADERVER
 70
     0
  0
APPID
  2
ACAD_EXEMPT_FROM_CAD_STANDARDS
 70
     0
  0
APPID
  2
ACAD_NAV_VCDISPLAY
 70
     0
  0
APPID
  2
ACAECLAYERSTANDARD
 70
     0
  0
APPID
  2
ACCMTRANSPARENCY
 70
     0
  0
APPID
  2
ACAD_DSTYLE_DIMJAG
 70
     0
  0
APPID
  2
ACAD_DSTYLE_DIMTALN
 70
     0
  0
APPID
  2
ACDBATTR
 70
     0
  0
APPID
  2
ACADANNOTATIVE
 70
     0
  0
APPID
  2
DCO15
 70
     0
  0
ENDTAB
  0
TABLE
  2
DIMSTYLE
 70
     1
  0
DIMSTYLE
  2
STANDARD
 70
     0
  3

  4

  5

  6

  7

 40
1.0
 41
0.1875
 42
0.0625
 43
0.38
 44
0.125
 45
0.0
 46
0.0
 47
0.01
 48
0.01
140
0.15625
141
0.09
142
0.0
143
25.3999999999999986
144
1.0
145
0.0
146
1.0
147
0.09
 71
     1
 72
     0
 73
     1
 74
     1
 75
     0
 76
     0
 77
     0
 78
     4
170
     0
171
     2
172
     0
173
     0
174
     0
175
     0
176
     0
177
     0
178
     0
  0
ENDTAB
  0
ENDSEC
  0
SECTION
  2
BLOCKS
  0
BLOCK
  8
0
  2
$MODEL_SPACE
 70
     0
 10
0.0
 20
0.0
 30
0.0
  3
$MODEL_SPACE
  1

  0
ENDBLK
  5
21
  8
0
  0
BLOCK
 67
     1
  8
0
  2
$PAPER_SPACE
 70
     0
 10
0.0
 20
0.0
 30
0.0
  3
$PAPER_SPACE
  1

  0
ENDBLK
  5
1D
 67
     1
  8
0
  0
BLOCK
  8
0
  2
_FILLED
 70
     0
 10
0.0
 20
0.0
 30
0.0
  3
_FILLED
  1

  0
SOLID
  5
3D9D1
  8
0
  6
BYBLOCK
 62
     0
 10
0.0
 20
0.0
 30
0.0
 11
-1.0
 21
0.1666666667
 31
0.0
 12
-1.0
 22
-0.1666666667
 32
0.0
 13
-1.0
 23
-0.1666666667
 33
0.0
  0
ENDBLK
  5
3D9D2
  8
0
  6
BYBLOCK
 62
     0
  0
ENDSEC
  0
SECTION
  2
ENTITIES
  0
ATTDEF
  5
3DC04
  8
DEFPOINTS
 10
6686.2418655364153892
 20
291.3368410820336862
 30
0.0
 40
0.001
  1
P34869-BAF
  3

  2
MODELNUMBER
 70
     0
1001
ACDBATTR
1070
     0
1070
     1
  0
ATTDEF
  5
3DC05
  8
DEFPOINTS
 10
6686.2417397267572596
 20
291.3351742416546131
 30
0.0
 40
0.001
  1
VICE
  3

  2
TRADENAME
 70
     0
1001
ACDBATTR
1070
     0
1070
     1
  0
ATTDEF
  5
3DC06
  8
DEFPOINTS
 10
6686.2418655364153892
 20
291.3335077487002991
 30
0.0
 40
0.001
  1
VALVE TRIM
  3

  2
PRODUCT
 70
     0
1001
ACDBATTR
1070
     0
1070
     1
  0
LINE
  5
3DF64
  8
0
 10
6684.9904155957810872
 20
293.3320258451241216
 30
0.0
 11
6687.4904155957819967
 21
293.3320258451241216
 31
0.0
  0
LINE
  5
3DF65
  8
0
 10
6684.9904155957810872
 20
289.3320258451241216
 30
0.0
 11
6687.4904155957819967
 21
289.3320258451241216
 31
0.0
  0
LINE
  5
3DF66
  8
0
 10
6684.2404155957819967
 20
292.5965798984178718
 30
0.0
 11
6684.2404155957819967
 21
290.0820258451241216
 31
0.0
  0
ARC
  5
3DF67
  8
0
 10
6684.9781103366412935
 20
292.5944306101010284
 30
0.0
 40
0.7376978718496136
 50
89.0442264496327454
 51
179.8330680778175861
  0
ARC
  5
3DF68
  8
0
 10
6684.99041287404998
 20
290.0820231233919912
 30
0.0
 40
0.7499972782728057
 50
179.9997920742256952
 51
270.0002079257743048
  0
ARC
  5
3DF69
  8
0
 10
6684.9781714296659629
 20
292.5944210871542737
 30
0.0
 40
0.4808295295859976
 50
88.5408240555300381
 51
179.742754589479091
  0
LINE
  5
3DF6A
  8
0
 10
6684.9904155957810872
 20
293.0750946946242266
 30
0.0
 11
6685.0737373488573212
 21
293.0750946947015905
 31
0.0
  0
ARC
  5
3DF6B
  8
0
 10
6685.0480307994248506
 20
293.2871745473772762
 30
0.0
 40
0.2136321384872816
 50
276.9112006599617075
 51
323.8111861874838837
  0
LINE
  5
3DF6C
  8
0
 10
6685.2204480866557788
 20
293.1610358552242133
 30
0.0
 11
6685.2995979936558797
 21
293.2729707270240738
 31
0.0
  0
LINE
  5
3DF6D
  8
0
 10
6685.2995979936558797
 20
293.2729707270240738
 30
0.0
 11
6687.1821205257092515
 21
293.2729709887241256
 31
0.0
  0
LINE
  5
3DF6E
  8
0
 10
6684.4973467463833003
 20
292.5965798984075263
 30
0.0
 11
6684.4973467463833003
 21
290.0820258451199152
 31
0.0
  0
ARC
  5
3DF6F
  8
0
 10
6684.9904155957774492
 20
290.0820258451199152
 30
0.0
 40
0.4930688493956974
 50
180.0
 51
270.0
  0
LINE
  5
3DF70
  8
0
 10
6685.298683500595871
 20
289.3910805335157761
 30
0.0
 11
6687.1821476868890386
 21
289.3910810322481098
 31
0.0
  0
ARC
  5
3DF71
  8
0
 10
6688.8962886886811248
 20
291.3320258451742006
 30
0.0
 40
0.5899999999999999
 50
4.9200011562065464
 51
180.0
  0
ARC
  5
3DF72
  8
0
 10
6688.8962886886811248
 20
291.3320258451742006
 30
0.0
 40
0.5899999999999987
 50
180.0
 51
4.9200011562065464
  0
CIRCLE
  5
3DF73
  8
0
 10
6686.2404155957819967
 20
291.3320258451742006
 30
0.0
 40
0.4860805751999996
  0
CIRCLE
  5
3DF74
  8
0
 10
6686.2404155957819967
 20
291.3320258451742006
 30
0.0
 40
0.5984251968999996
  0
LINE
  5
3DF75
  8
0
 10
6685.722623008082337
 20
291.632025845174212
 30
0.0
 11
6685.2458728081810477
 21
291.632025845174212
 31
0.0
  0
ARC
  5
3DF76
  8
0
 10
6685.2458728081810477
 20
291.6120258451741165
 30
0.0
 40
0.0200000000000014
 50
90.0
 51
145.0000000004087042
  0
LINE
  5
3DF77
  8
0
 10
6685.2294897672963998
 20
291.6234973739009888
 30
0.0
 11
6685.161355389518576
 21
291.5261913980855866
 31
0.0
  0
ARC
  5
3DF78
  8
0
 10
6685.1777384305032683
 20
291.5147198692885127
 30
0.0
 40
0.020000000122392
 50
145.0000000004087042
 51
179.9999997544827011
  0
LINE
  5
3DF79
  8
0
 10
6685.157738430381869
 20
291.5147198693741188
 30
0.0
 11
6685.1577384288157191
 21
291.1493318209742256
 31
0.0
  0
ARC
  5
3DF7A
  8
0
 10
6685.1777384214528865
 20
291.1493318208885057
 30
0.0
 40
0.0199999926362269
 50
179.9999997544827011
 51
215.0000144712097949
  0
LINE
  5
3DF7B
  8
0
 10
6685.1613553894958386
 20
291.1378602922471828
 30
0.0
 11
6685.2294897918363858
 21
291.0405543336611913
 31
0.0
  0
ARC
  5
3DF7C
  8
0
 10
6685.2458728708434137
 20
291.0520258952462882
 30
0.0
 40
0.020000050072266
 50
215.0000144712097949
 51
269.9998204917458793
  0
LINE
  5
3DF7D
  8
0
 10
6685.2458728081810477
 20
291.0320258451740756
 30
0.0
 11
6685.7226204431499355
 21
291.032024351519226
 31
0.0
  0
ARC
  5
3DF7E
  8
0
 10
6686.2404155957819967
 20
291.3320258451742006
 30
0.0
 40
1.0629921259999999
 50
194.4397516144605902
 51
343.6071212512517263
  0
ARC
  5
3DF7F
  8
0
 10
6686.2404155957819967
 20
291.3320258451742006
 30
0.0
 40
1.0629921259999999
 50
16.3928787487483589
 51
165.5602483879247018
  0
ARC
  5
3DF80
  8
0
 10
6686.2404155957819967
 20
291.3320258451742006
 30
0.0
 40
0.6884179245000003
 50
205.835051251139987
 51
334.1649487488598993
  0
ARC
  5
3DF81
  8
0
 10
6686.2404155957819967
 20
291.3320258451742006
 30
0.0
 40
0.6884179245000003
 50
25.8350512511400616
 51
154.1649487488598993
  0
LINE
  5
3DF82
  8
0
 10
6686.7582116138100901
 20
291.632025845174212
 30
0.0
 11
6688.3882532568459283
 21
291.632025845174212
 31
0.0
  0
LINE
  5
3DF83
  8
0
 10
6686.7582116138100901
 20
291.0320258451740756
 30
0.0
 11
6688.3882532568459283
 21
291.0320258451740756
 31
0.0
  0
LINE
  5
3DF84
  8
0
 10
6685.2458728081810477
 20
291.632025845174212
 30
0.0
 11
6685.2458728081810477
 21
291.0320258451740756
 31
0.0
  0
LINE
  5
3DF85
  8
0
 10
6688.2404155957819967
 20
292.5965798984178718
 30
0.0
 11
6688.2404155957819967
 21
291.632025845174212
 31
0.0
  0
LINE
  5
3DF86
  8
0
 10
6688.2404155957819967
 20
291.0320258451740756
 30
0.0
 11
6688.2404155957819967
 21
290.0820258451241216
 31
0.0
  0
ARC
  5
3DF87
  8
0
 10
6687.5028169666738904
 20
292.5945286238476228
 30
0.0
 40
0.7376014814183823
 50
0.1593401449903114
 51
90.9633653275697753
  0
ARC
  5
3DF88
  8
0
 10
6687.4904160496471377
 20
290.0820253912594922
 30
0.0
 40
0.7499995461354785
 50
269.9999653272747082
 51
0.0000346727253618
  0
ARC
  5
3DF89
  8
0
 10
6687.5026597618962114
 20
292.5944210871542737
 30
0.0
 40
0.4808295295859985
 50
0.2572454105241806
 51
91.4591759444699477
  0
LINE
  5
3DF8A
  8
0
 10
6687.4904155957819967
 20
293.0750946946242266
 30
0.0
 11
6687.4079813555090368
 21
293.0750946947015905
 31
0.0
  0
ARC
  5
3DF8B
  8
0
 10
6687.4336879049424169
 20
293.2871745473772762
 30
0.0
 40
0.2136321384872816
 50
216.1888138125160879
 51
263.0887993400382925
  0
LINE
  5
3DF8C
  8
0
 10
6687.2612706177087603
 20
293.1610358552242133
 30
0.0
 11
6687.1821205257092515
 21
293.2729709887241256
 31
0.0
  0
LINE
  5
3DF8D
  8
0
 10
6687.9834844451816025
 20
292.5965798984075263
 30
0.0
 11
6687.9834844451816025
 21
291.632025845174212
 31
0.0
  0
LINE
  5
3DF8E
  8
0
 10
6687.9834844451816025
 20
291.0320258451740756
 30
0.0
 11
6687.9834844451816025
 21
290.0820258451199152
 31
0.0
  0
ARC
  5
3DF8F
  8
0
 10
6687.4904155957856347
 20
290.0820258451199152
 30
0.0
 40
0.4930688493956974
 50
270.0
 51
0.0
  0
LINE
  5
3DF92
  8
0
 10
6684.9904155957810872
 20
289.5889569956240734
 30
0.0
 11
6685.0728229070818998
 21
289.5889569961693724
 31
0.0
  0
ARC
  5
3DF93
  8
0
 10
6685.0635894496017499
 20
289.4049984679160161
 30
0.0
 40
0.1841901106308726
 50
32.151057549367053
 51
87.1265559605480036
  0
ARC
  5
3DF94
  8
0
 10
6717.80208404334644
 20
312.4583030725048047
 30
0.0
 40
39.8568413513371524
 50
215.1657303004294022
 51
215.362805520400201
  0
LINE
  5
3DF95
  8
0
 10
6687.1821476868890386
 20
289.3910810322481098
 30
0.0
 11
6687.2648132356989663
 21
289.5078711807979062
 31
0.0
  0
ARC
  5
3DF96
  8
0
 10
6687.4474147743667345
 20
289.3737081062199081
 30
0.0
 40
0.2265900538518174
 50
121.9582747441545933
 51
143.6941086240549907
  0
ARC
  5
3DF97
  8
0
 10
6687.4078094657934344
 20
289.4371926783624076
 30
0.0
 40
0.1517644474905702
 50
89.9249404030740891
 51
121.9582747441545933
  0
LINE
  5
3DF98
  8
0
 10
6687.4080082827931619
 20
289.5889569956240734
 30
0.0
 11
6687.4904155957856347
 21
289.5889569957241179
 31
0.0
  0
ENDSEC
  0
EOF
