  0
SECTION
  2
HEADER
  9
$ACADVER
  1
AC1009
  9
$INSBASE
 10
6686.2393227243746878
 20
302.1666250262450717
 30
0.0
  9
$EXTMIN
 10
6684.2393227243755973
 20
296.8512799394450781
 30
0.0
  9
$EXTMAX
 10
6689.4851958172757804
 20
302.1730515559534069
 30
0.0
  9
$LIMMIN
 10
0.0
 20
0.0
  9
$LIMMAX
 10
11.6929133858000007
 20
8.2677165353999982
  9
$ORTHOMODE
 70
     0
  9
$REGENMODE
 70
     1
  9
$FILLMODE
 70
     1
  9
$QTEXTMODE
 70
     0
  9
$MIRRTEXT
 70
     0
  9
$DRAGMODE
 70
     2
  9
$LTSCALE
 40
0.6431102362
  9
$OSMODE
 70
  3839
  9
$ATTMODE
 70
     1
  9
$TEXTSIZE
 40
0.2
  9
$TRACEWID
 40
0.05
  9
$TEXTSTYLE
  7
STANDARD
  9
$CLAYER
  8
0
  9
$CELTYPE
  6
BYLAYER
  9
$CECOLOR
 62
   256
  9
$DIMSCALE
 40
1.0
  9
$DIMASZ
 40
0.1875
  9
$DIMEXO
 40
0.0625
  9
$DIMDLI
 40
0.4443307087
  9
$DIMRND
 40
0.0
  9
$DIMDLE
 40
0.0
  9
$DIMEXE
 40
0.125
  9
$DIMTP
 40
0.01
  9
$DIMTM
 40
0.01
  9
$DIMTXT
 40
2.0
  9
$DIMCEN
 40
0.1052362205
  9
$DIMTSZ
 40
0.0
  9
$DIMTOL
 70
     1
  9
$DIMLIM
 70
     0
  9
$DIMTIH
 70
     1
  9
$DIMTOH
 70
     1
  9
$DIMSE1
 70
     0
  9
$DIMSE2
 70
     0
  9
$DIMTAD
 70
     0
  9
$DIMZIN
 70
     0
  9
$DIMBLK
  1

  9
$DIMASO
 70
     1
  9
$DIMSHO
 70
     1
  9
$DIMPOST
  1
\X
  9
$DIMAPOST
  1

  9
$DIMALT
 70
     1
  9
$DIMALTD
 70
     2
  9
$DIMALTF
 40
25.3999999999999986
  9
$DIMLFAC
 40
1.0
  9
$DIMTOFL
 70
     0
  9
$DIMTVP
 40
0.0
  9
$DIMTIX
 70
     0
  9
$DIMSOXD
 70
     0
  9
$DIMSAH
 70
     0
  9
$DIMBLK1
  1

  9
$DIMBLK2
  1

  9
$DIMSTYLE
  2
STANDARD
  9
$DIMCLRD
 70
     0
  9
$DIMCLRE
 70
     0
  9
$DIMCLRT
 70
     0
  9
$DIMTFAC
 40
1.0
  9
$DIMGAP
 40
0.09
  9
$LUNITS
 70
     2
  9
$LUPREC
 70
     4
  9
$SKETCHINC
 40
0.1
  9
$FILLETRAD
 40
0.0
  9
$AUNITS
 70
     0
  9
$AUPREC
 70
     0
  9
$MENU
  1
.
  9
$ELEVATION
 40
0.0
  9
$PELEVATION
 40
0.0
  9
$THICKNESS
 40
0.0
  9
$LIMCHECK
 70
     0
  9
$BLIPMODE
 70
     0
  9
$CHAMFERA
 40
0.0
  9
$CHAMFERB
 40
0.0
  9
$SKPOLY
 70
     0
  9
$TDCREATE
 40
2458060.468368056230247
  9
$TDUPDATE
 40
2460333.6985648148693144
  9
$TDINDWG
 40
0.9576690972
  9
$TDUSRTIMER
 40
0.9576690972
  9
$USRTIMER
 70
     1
  9
$ANGBASE
 50
0.0
  9
$ANGDIR
 70
     0
  9
$PDMODE
 70
     0
  9
$PDSIZE
 40
0.3125
  9
$PLINEWID
 40
0.0
  9
$COORDS
 70
     1
  9
$SPLFRAME
 70
     0
  9
$SPLINETYPE
 70
     6
  9
$SPLINESEGS
 70
     8
  9
$ATTDIA
 70
     1
  9
$ATTREQ
 70
     1
  9
$HANDLING
 70
     1
  9
$HANDSEED
  5
3E033
  9
$SURFTAB1
 70
     6
  9
$SURFTAB2
 70
     6
  9
$SURFTYPE
 70
     6
  9
$SURFU
 70
     6
  9
$SURFV
 70
     6
  9
$UCSNAME
  2

  9
$UCSORG
 10
0.0
 20
0.0
 30
0.0
  9
$UCSXDIR
 10
1.0
 20
0.0
 30
0.0
  9
$UCSYDIR
 10
0.0
 20
1.0
 30
0.0
  9
$PUCSNAME
  2

  9
$PUCSORG
 10
0.0
 20
0.0
 30
0.0
  9
$PUCSXDIR
 10
1.0
 20
0.0
 30
0.0
  9
$PUCSYDIR
 10
0.0
 20
1.0
 30
0.0
  9
$USERI1
 70
     0
  9
$USERI2
 70
     0
  9
$USERI3
 70
     0
  9
$USERI4
 70
     0
  9
$USERI5
 70
     0
  9
$USERR1
 40
0.0
  9
$USERR2
 40
0.0
  9
$USERR3
 40
0.0
  9
$USERR4
 40
0.0
  9
$USERR5
 40
0.0
  9
$WORLDVIEW
 70
     1
  9
$SHADEDGE
 70
     3
  9
$SHADEDIF
 70
    70
  9
$TILEMODE
 70
     1
  9
$MAXACTVP
 70
    64
  9
$PLIMCHECK
 70
     0
  9
$PEXTMIN
 10
1.0000000000000000E+20
 20
1.0000000000000000E+20
 30
1.0000000000000000E+20
  9
$PEXTMAX
 10
-1.0000000000000000E+20
 20
-1.0000000000000000E+20
 30
-1.0000000000000000E+20
  9
$PLIMMIN
 10
0.0
 20
0.0
  9
$PLIMMAX
 10
12.0
 20
9.0
  9
$UNITMODE
 70
     0
  9
$VISRETAIN
 70
     1
  9
$PLINEGEN
 70
     0
  9
$PSLTSCALE
 70
     1
  0
ENDSEC
  0
SECTION
  2
TABLES
  0
TABLE
  2
VPORT
 70
     1
  0
VPORT
  2
*ACTIVE
 70
     0
 10
0.0
 20
0.0
 11
1.0
 21
1.0
 12
2775.4969028255131889
 22
166.9325606451602084
 13
0.0
 23
0.0
 14
1.0
 24
1.0
 15
0.0
 25
0.0
 16
0.0
 26
0.0
 36
60.4960186965801583
 17
3911.3653564453120453
 27
132.5796051025390057
 37
0.0
 40
5.3598749932374403
 41
2.2831541218637992
 42
50.0
 43
0.0
 44
0.0
 50
0.0
 51
0.0
 71
     0
 72
   100
 73
     1
 74
     1
 75
     0
 76
     0
 77
     0
 78
     0
  0
ENDTAB
  0
TABLE
  2
LTYPE
 70
     2
  0
LTYPE
  2
CONTINUOUS
 70
     0
  3
Solid line
 72
    65
 73
     0
 40
0.0
  0
LTYPE
  2
PHANTOM2
 70
     0
  3
___ _ _ ___ _ _ ___ _ _ ___ _ _
 72
    65
 73
     6
 40
1.25
 49
0.625
 49
-0.125
 49
0.125
 49
-0.125
 49
0.125
 49
-0.125
  0
ENDTAB
  0
TABLE
  2
LAYER
 70
     2
  0
LAYER
  2
0
 70
     0
 62
   255
  6
CONTINUOUS
  0
LAYER
  2
DEFPOINTS
 70
     0
 62
     7
  6
CONTINUOUS
  0
ENDTAB
  0
TABLE
  2
STYLE
 70
     1
  0
STYLE
  2
STANDARD
 70
     0
 40
0.0
 41
0.8
 50
0.0
 71
     0
 42
0.2
  3
txt
  4

  0
ENDTAB
  0
TABLE
  2
VIEW
 70
     0
  0
ENDTAB
  0
TABLE
  2
UCS
 70
     0
  0
ENDTAB
  0
TABLE
  2
APPID
 70
    11
  0
APPID
  2
ACAD
 70
     0
  0
APPID
  2
ACAD_MLEADERVER
 70
     0
  0
APPID
  2
ACAD_EXEMPT_FROM_CAD_STANDARDS
 70
     0
  0
APPID
  2
ACAD_NAV_VCDISPLAY
 70
     0
  0
APPID
  2
ACAECLAYERSTANDARD
 70
     0
  0
APPID
  2
ACCMTRANSPARENCY
 70
     0
  0
APPID
  2
ACAD_DSTYLE_DIMJAG
 70
     0
  0
APPID
  2
ACAD_DSTYLE_DIMTALN
 70
     0
  0
APPID
  2
ACDBATTR
 70
     0
  0
APPID
  2
ACADANNOTATIVE
 70
     0
  0
APPID
  2
DCO15
 70
     0
  0
ENDTAB
  0
TABLE
  2
DIMSTYLE
 70
     1
  0
DIMSTYLE
  2
STANDARD
 70
     0
  3

  4

  5

  6

  7

 40
1.0
 41
0.1875
 42
0.0625
 43
0.38
 44
0.125
 45
0.0
 46
0.0
 47
0.01
 48
0.01
140
0.15625
141
0.09
142
0.0
143
25.3999999999999986
144
1.0
145
0.0
146
1.0
147
0.09
 71
     1
 72
     0
 73
     1
 74
     1
 75
     0
 76
     0
 77
     0
 78
     4
170
     0
171
     2
172
     0
173
     0
174
     0
175
     0
176
     0
177
     0
178
     0
  0
ENDTAB
  0
ENDSEC
  0
SECTION
  2
BLOCKS
  0
BLOCK
  8
0
  2
$MODEL_SPACE
 70
     0
 10
0.0
 20
0.0
 30
0.0
  3
$MODEL_SPACE
  1

  0
ENDBLK
  5
21
  8
0
  0
BLOCK
 67
     1
  8
0
  2
$PAPER_SPACE
 70
     0
 10
0.0
 20
0.0
 30
0.0
  3
$PAPER_SPACE
  1

  0
ENDBLK
  5
1D
 67
     1
  8
0
  0
BLOCK
  8
0
  2
_FILLED
 70
     0
 10
0.0
 20
0.0
 30
0.0
  3
_FILLED
  1

  0
SOLID
  5
3D9D1
  8
0
  6
BYBLOCK
 62
     0
 10
0.0
 20
0.0
 30
0.0
 11
-1.0
 21
0.1666666667
 31
0.0
 12
-1.0
 22
-0.1666666667
 32
0.0
 13
-1.0
 23
-0.1666666667
 33
0.0
  0
ENDBLK
  5
3D9D2
  8
0
  6
BYBLOCK
 62
     0
  0
ENDSEC
  0
SECTION
  2
ENTITIES
  0
ATTDEF
  5
3D8BE
  8
DEFPOINTS
 10
6686.2406953907084244
 20
302.1720515559533737
 30
0.0
 40
0.001
  1
P34869-BN
  3

  2
MODELNUMBER
 70
     0
1001
ACDBATTR
1070
     0
1070
     1
  0
ATTDEF
  5
3D8BF
  8
DEFPOINTS
 10
6686.2405695810512043
 20
302.1703847155743006
 30
0.0
 40
0.001
  1
VICE
  3

  2
TRADENAME
 70
     0
1001
ACDBATTR
1070
     0
1070
     1
  0
ATTDEF
  5
3D8C0
  8
DEFPOINTS
 10
6686.2406953907084244
 20
302.1687182226201003
 30
0.0
 40
0.001
  1
VALVE TRIM
  3

  2
PRODUCT
 70
     0
1001
ACDBATTR
1070
     0
1070
     1
  0
LINE
  5
3DE86
  8
0
 10
6684.2393227243755973
 20
302.1666250262450717
 30
0.0
 11
6688.2393227243746878
 21
302.1666250262450717
 31
0.0
  0
LINE
  5
3DE87
  8
0
 10
6684.4962538752179171
 20
301.5566250262451149
 30
0.0
 11
6687.9823915734914408
 21
301.5566250262451149
 31
0.0
  0
LINE
  5
3DE88
  8
0
 10
6685.5859270510991337
 20
299.831821857745183
 30
0.0
 11
6686.892718397652061
 21
299.831821857745183
 31
0.0
  0
LINE
  5
3DE89
  8
0
 10
6685.2043877682763195
 20
299.9415149430450924
 30
0.0
 11
6687.2742576804748751
 21
299.9415149430450924
 31
0.0
  0
LINE
  5
3DE8A
  8
0
 10
6685.1848562190625671
 20
300.4823730388450826
 30
0.0
 11
6687.2937892296886275
 21
300.4823730388450826
 31
0.0
  0
LINE
  5
3DE8B
  8
0
 10
6685.1963305983763348
 20
300.5123730577452079
 30
0.0
 11
6687.2823148503748598
 21
300.5123730577452079
 31
0.0
  0
LINE
  5
3DE8C
  8
0
 10
6685.7671615739764093
 20
298.2818218577451148
 30
0.0
 11
6686.7114838748284456
 21
298.2818218577451148
 31
0.0
  0
LINE
  5
3DE8D
  8
0
 10
6685.6466631420762496
 20
298.3941664794451185
 30
0.0
 11
6686.831982306674945
 21
298.3941664794451185
 31
0.0
  0
ARC
  5
3DE8E
  8
0
 10
6685.7671615739236586
 20
298.3015068967903858
 30
0.0
 40
0.0196850390452852
 50
224.9999993761583141
 51
270.00000015018162
  0
LINE
  5
3DE8F
  8
0
 10
6685.7532421491750938
 20
298.2875874723450806
 30
0.0
 11
6685.6466631432349459
 21
298.3941664806055769
 31
0.0
  0
ARC
  5
3DE90
  8
0
 10
6685.6605825715178071
 20
298.4080859085842121
 30
0.0
 40
0.0196850440422061
 50
180.0000126294658003
 51
224.999999376156012
  0
LINE
  5
3DE91
  8
0
 10
6685.640897527476227
 20
298.4080859042451266
 30
0.0
 11
6685.6408974556761677
 21
298.7338219133451958
 31
0.0
  0
ARC
  5
3DE92
  8
0
 10
6685.648896539794805
 20
298.7338219151083081
 30
0.0
 40
0.0079990841205701
 50
151.3241810031263128
 51
180.0000126294592917
  0
ARC
  5
3DE93
  8
0
 10
6684.7828312096407899
 20
299.2075038722351223
 30
0.0
 40
0.9791400917828307
 50
331.3241810031263981
 51
341.5797993586696748
  0
ARC
  5
3DE94
  8
0
 10
6685.2417142800813963
 20
299.0546740802626005
 30
0.0
 40
0.4954763473784698
 50
341.5797993586696748
 51
3.3934843365930352
  0
ARC
  5
3DE95
  8
0
 10
6685.1872225505003371
 20
299.051442893618912
 30
0.0
 40
0.5500637924539779
 50
3.3934843365930352
 51
21.4354923855848014
  0
ARC
  5
3DE96
  8
0
 10
6684.650157742788906
 20
298.8405856189028214
 30
0.0
 40
1.127038140222544
 50
21.4354923855848014
 51
28.1499206209443287
  0
ARC
  5
3DE97
  8
0
 10
6684.6757267065850101
 20
298.8542668165877103
 30
0.0
 40
1.098039052655819
 50
28.1499206209443287
 51
28.3926035665502603
  0
ARC
  5
3DE98
  8
0
 10
6685.6491646173790286
 20
299.3799130372559034
 30
0.0
 40
0.0082673774540211
 50
180.4778728885252121
 51
205.1761018340380929
  0
LINE
  5
3DE99
  8
0
 10
6685.640897527476227
 20
299.3798440843631283
 30
0.0
 11
6685.640897527476227
 21
299.8018218577452103
 31
0.0
  0
ARC
  5
3DE9A
  8
0
 10
6685.6710064470889847
 20
299.8018218577452103
 30
0.0
 40
0.030108919612216
 50
94.8749941256934051
 51
180.0
  0
ARC
  5
3DE9B
  8
0
 10
6685.5914053248607161
 20
299.9740761348159026
 30
0.0
 40
0.1423597233361494
 50
253.6912056068283903
 51
267.7946045484275146
  0
LINE
  5
3DE9C
  8
0
 10
6685.5514287176411017
 20
299.8374446534382969
 30
0.0
 11
6685.2043877682763195
 21
299.9415149430450924
 31
0.0
  0
ARC
  5
3DE9D
  8
0
 10
6685.2157006775196351
 20
299.9792246396268069
 30
0.0
 40
0.0393700791447689
 50
180.000000409976991
 51
253.3007553893087049
  0
LINE
  5
3DE9E
  8
0
 10
6685.1763305983768078
 20
299.9792246393452047
 30
0.0
 11
6685.1763305983768078
 21
300.4723730388452054
 31
0.0
  0
ARC
  5
3DE9F
  8
0
 10
6685.1864866554733453
 20
300.4723486802009802
 30
0.0
 40
0.0101560863090255
 50
99.2381171857401654
 51
179.8625800528546961
  0
ARC
  5
3DEA0
  8
0
 10
6685.1963305983763348
 20
300.5323730577451897
 30
0.0
 40
0.0199999999999978
 50
179.9999999999934914
 51
270.0
  0
LINE
  5
3DEA1
  8
0
 10
6685.1763305983768078
 20
300.5323730577451897
 30
0.0
 11
6685.1763305983768078
 21
301.5516250262451194
 31
0.0
  0
ARC
  5
3DEA2
  8
0
 10
6685.1813519154929963
 20
301.5516250262451194
 30
0.0
 40
0.0050213171175821
 50
95.2813726100747971
 51
179.9999999999967031
  0
ARC
  5
3DEA3
  8
0
 10
6684.4962538752179171
 20
301.6066250262451263
 30
0.0
 40
0.0500000000000096
 50
225.0000000005896084
 51
270.000000000469015
  0
LINE
  5
3DEA4
  8
0
 10
6684.4608985361583109
 20
301.5712696871854064
 30
0.0
 11
6684.2539673856072113
 21
301.7782008377336069
 31
0.0
  0
ARC
  5
3DEA5
  8
0
 10
6684.289322726132923
 20
301.8135561778116198
 30
0.0
 40
0.050000001757299
 50
180.0000011074396014
 51
224.9999996369762982
  0
LINE
  5
3DEA6
  8
0
 10
6684.2393227243755973
 20
301.8135561768451112
 30
0.0
 11
6684.2393227243755973
 21
302.1666250262450717
 31
0.0
  0
LINE
  5
3DEA7
  8
0
 10
6684.2539673855571891
 20
301.7782008377831744
 30
0.0
 11
6685.0686547660297947
 21
301.7782007202450814
 31
0.0
  0
ARC
  5
3DEA8
  8
0
 10
6685.0686547550312753
 20
301.6769821632540243
 30
0.0
 40
0.1012185569911252
 50
57.0099887173282767
 51
89.9999937732991526
  0
ARC
  5
3DEA9
  8
0
 10
6685.0304848874811796
 20
301.6181832823692162
 30
0.0
 40
0.1713202487115324
 50
37.3541330730793604
 51
57.0099887173282767
  0
ARC
  5
3DEAA
  8
0
 10
6684.9867296439806523
 20
301.5847853412578274
 30
0.0
 40
0.2263651740382724
 50
31.3677535825671399
 51
37.354133073081961
  0
LINE
  5
3DEAB
  8
0
 10
6685.1800101646304029
 20
301.7026150164451224
 30
0.0
 11
6685.2591600717296387
 21
301.5816250262452058
 31
0.0
  0
ARC
  5
3DEAC
  8
0
 10
6685.3008663214086482
 20
301.6010350990501934
 30
0.0
 40
0.0460017628843537
 50
204.9572507467964044
 51
254.8838947838239051
  0
ARC
  5
3DEAD
  8
0
 10
6685.5144699106922417
 20
300.4523730578857794
 30
0.0
 40
0.059999999859329
 50
44.9999999157482335
 51
90.0000000151640762
  0
LINE
  5
3DEAE
  8
0
 10
6685.5568963175255703
 20
300.4947994645950757
 30
0.0
 11
6685.5693227432584536
 21
300.4823730388267791
 31
0.0
  0
ARC
  5
3DEAF
  8
0
 10
6686.7114838748284456
 20
298.3015068967903858
 30
0.0
 40
0.0196850390452852
 50
269.99999984981838
 51
315.0000006238416859
  0
LINE
  5
3DEB0
  8
0
 10
6686.7254032995751913
 20
298.2875874723450806
 30
0.0
 11
6686.8319823055162487
 21
298.3941664806055769
 31
0.0
  0
ARC
  5
3DEB1
  8
0
 10
6686.8180628772333876
 20
298.4080859085842121
 30
0.0
 40
0.0196850440422061
 50
315.0000006238439028
 51
359.9999873705341997
  0
LINE
  5
3DEB2
  8
0
 10
6686.8377479212749677
 20
298.4080859042451266
 30
0.0
 11
6686.8377479930759364
 21
298.7338219133451958
 31
0.0
  0
ARC
  5
3DEB3
  8
0
 10
6686.8297489089545707
 20
298.7338219151083081
 30
0.0
 40
0.0079990841205701
 50
359.9999873705406799
 51
28.6758189968736197
  0
ARC
  5
3DEB4
  8
0
 10
6687.6958142391104047
 20
299.2075038722351223
 30
0.0
 40
0.9791400917828307
 50
198.4202006413302115
 51
208.6758189968736019
  0
ARC
  5
3DEB5
  8
0
 10
6687.2369311686688889
 20
299.0546740802626005
 30
0.0
 40
0.4954763473784698
 50
176.6065156634070092
 51
198.4202006413302115
  0
ARC
  5
3DEB6
  8
0
 10
6687.2914228982508575
 20
299.051442893618912
 30
0.0
 40
0.5500637924539779
 50
158.5645076144151915
 51
176.6065156634070092
  0
ARC
  5
3DEB7
  8
0
 10
6687.8284877059631981
 20
298.8405856189028214
 30
0.0
 40
1.127038140222544
 50
151.8500793790556997
 51
158.5645076144151915
  0
ARC
  5
3DEB8
  8
0
 10
6687.8029187421661845
 20
298.8542668165877103
 30
0.0
 40
1.098039052655819
 50
151.6073964334497077
 51
151.8500793790556997
  0
ARC
  5
3DEB9
  8
0
 10
6686.829480831372166
 20
299.3799130372559034
 30
0.0
 40
0.0082673774540211
 50
334.8238981659619071
 51
359.5221271114747879
  0
LINE
  5
3DEBA
  8
0
 10
6686.8377479212749677
 20
299.3798440843631283
 30
0.0
 11
6686.8377479212749677
 21
299.8018218577452103
 31
0.0
  0
ARC
  5
3DEBB
  8
0
 10
6686.8076390016631194
 20
299.8018218577452103
 30
0.0
 40
0.030108919612216
 50
0.0
 51
85.1250058743066234
  0
ARC
  5
3DEBC
  8
0
 10
6686.8872401238913881
 20
299.9740761348159026
 30
0.0
 40
0.1423597233361494
 50
272.2053954515723717
 51
286.3087943931715813
  0
LINE
  5
3DEBD
  8
0
 10
6686.9272167311110024
 20
299.8374446534382969
 30
0.0
 11
6687.2742576804748751
 21
299.9415149430450924
 31
0.0
  0
ARC
  5
3DEBE
  8
0
 10
6687.2629447712306501
 20
299.9792246396268069
 30
0.0
 40
0.0393700791447689
 50
286.6992446106912098
 51
359.9999995900229237
  0
LINE
  5
3DEBF
  8
0
 10
6687.3023148503743869
 20
299.9792246393452047
 30
0.0
 11
6687.3023148503743869
 21
300.4723730388452054
 31
0.0
  0
ARC
  5
3DEC0
  8
0
 10
6687.2921587932778493
 20
300.4723486802009802
 30
0.0
 40
0.0101560863090255
 50
0.1374199471453257
 51
80.761882814259863
  0
ARC
  5
3DEC1
  8
0
 10
6687.2823148503748598
 20
300.5323730577451897
 30
0.0
 40
0.0199999999999978
 50
270.0
 51
0.0000000000065138
  0
LINE
  5
3DEC2
  8
0
 10
6687.3023148503743869
 20
300.5323730577451897
 30
0.0
 11
6687.3023148503743869
 21
301.5516250262451194
 31
0.0
  0
ARC
  5
3DEC3
  8
0
 10
6687.2972935332591078
 20
301.5516250262451194
 30
0.0
 40
0.0050213171175821
 50
0.0000000000032569
 51
84.7186273899251745
  0
ARC
  5
3DEC4
  8
0
 10
6687.9823915734914408
 20
301.6066250262451263
 30
0.0
 40
0.0500000000000096
 50
269.999999999530985
 51
314.9999999994104769
  0
LINE
  5
3DEC5
  8
0
 10
6688.017746912549228
 20
301.5712696871854064
 30
0.0
 11
6688.2246780631021466
 21
301.7782008377336069
 31
0.0
  0
ARC
  5
3DEC6
  8
0
 10
6688.1893227223436043
 20
301.8135561779665181
 30
0.0
 40
0.0500000020308844
 50
315.0000004253789143
 51
359.9999987149785738
  0
LINE
  5
3DEC7
  8
0
 10
6688.2393227243746878
 20
301.8135561768451112
 30
0.0
 11
6688.2393227243746878
 21
302.1666250262450717
 31
0.0
  0
LINE
  5
3DEC8
  8
0
 10
6688.2246780631521688
 20
301.7782008377831744
 30
0.0
 11
6687.4083967706774274
 21
301.7782007202450814
 31
0.0
  0
ARC
  5
3DEC9
  8
0
 10
6687.4083967816768563
 20
301.6769821632540243
 30
0.0
 40
0.1012185569911252
 50
90.0000062267008332
 51
122.990011282671702
  0
ARC
  5
3DECA
  8
0
 10
6687.446566649225133
 20
301.6181832823692162
 30
0.0
 40
0.1713202487115324
 50
122.990011282671702
 51
142.6458669269206041
  0
ARC
  5
3DECB
  8
0
 10
6687.4903218927256603
 20
301.5847853412578274
 30
0.0
 40
0.2263651740382724
 50
142.6458669269179893
 51
148.6322464174328957
  0
LINE
  5
3DECC
  8
0
 10
6687.2970413720759097
 20
301.7026150164451224
 30
0.0
 11
6687.2178914649757644
 21
301.5816250262452058
 31
0.0
  0
ARC
  5
3DECD
  8
0
 10
6687.1761852152985739
 20
301.6010350990501934
 30
0.0
 40
0.0460017628843537
 50
285.1161052161759812
 51
335.0427492532035103
  0
ARC
  5
3DECE
  8
0
 10
6686.9641755380598624
 20
300.4523730578857794
 30
0.0
 40
0.059999999859329
 50
89.9999999848359238
 51
135.0000000842518091
  0
LINE
  5
3DECF
  8
0
 10
6686.9217491312256243
 20
300.4947994645950757
 30
0.0
 11
6686.9093227054927411
 21
300.4823730388267791
 31
0.0
  0
LINE
  5
3DED0
  8
0
 10
6685.6520135783366641
 20
299.3568218577451034
 30
0.0
 11
6685.2447799367746484
 21
299.3568218577451034
 31
0.0
  0
ARC
  5
3DED1
  8
0
 10
6685.2447799367746484
 20
299.3368218576196114
 30
0.0
 40
0.020000000125485
 50
90.0
 51
144.9999997324013918
  0
LINE
  5
3DED2
  8
0
 10
6685.2283968958408877
 20
299.3482933864950724
 30
0.0
 11
6685.1602625176747097
 21
299.2509874110953092
 31
0.0
  0
ARC
  5
3DED3
  8
0
 10
6685.1766455563893032
 20
299.2395158837758231
 30
0.0
 40
0.0199999974126178
 50
144.9999997324013918
 51
180.0000066769883915
  0
LINE
  5
3DED4
  8
0
 10
6685.1566455589763791
 20
299.2395158814450724
 30
0.0
 11
6685.1566456015561926
 21
298.874127833545117
 31
0.0
  0
ARC
  5
3DED5
  8
0
 10
6685.1766458013453303
 20
298.8741278358759246
 30
0.0
 40
0.0200001997898457
 50
180.0000066769850946
 51
214.9996072937485962
  0
LINE
  5
3DED6
  8
0
 10
6685.1602625181749318
 20
298.8626563048450748
 30
0.0
 11
6685.2283962289830015
 21
298.7653498620852019
 31
0.0
  0
ARC
  5
3DED7
  8
0
 10
6685.2447782359658959
 20
298.7768204995327892
 30
0.0
 40
0.0199986418600061
 50
214.9996072937485962
 51
270.0048727921441127
  0
LINE
  5
3DED8
  8
0
 10
6685.2447799367746484
 20
298.7568218577450807
 30
0.0
 11
6685.6520843610023803
 21
298.7568218577450807
 31
0.0
  0
LINE
  5
3DED9
  8
0
 10
6686.8265610877479048
 20
298.7568218577450807
 30
0.0
 11
6687.8936782580767613
 21
298.7568218577450807
 31
0.0
  0
ARC
  5
3DEDA
  8
0
 10
6687.8936782580767613
 20
298.4662706767044256
 30
0.0
 40
0.2905511810407457
 50
19.99999999422214
 51
90.0
  0
LINE
  5
3DEDB
  8
0
 10
6688.1667070588700881
 20
298.5656450332597842
 30
0.0
 11
6688.4326892768358448
 21
297.8348648951940731
 31
0.0
  0
ARC
  5
3DEDC
  8
0
 10
6688.4514831292153758
 20
297.8417052980454969
 30
0.0
 40
0.0199999999611391
 50
199.9999999942220938
 51
290.0000005288013085
  0
LINE
  5
3DEDD
  8
0
 10
6688.449993407142756
 20
297.8198795280766262
 30
0.0
 11
6688.9928815249422769
 21
298.0174746435765769
 31
0.0
  0
ARC
  5
3DEDE
  8
0
 10
6688.9777109971573736
 20
298.0332365783027058
 30
0.0
 40
0.0199999998400422
 50
289.9999995590733874
 51
20.0000002907348318
  0
LINE
  5
3DEDF
  8
0
 10
6688.996504849388657
 20
298.0400769812098929
 30
0.0
 11
6688.7305226276566827
 21
298.7708571178571901
 31
0.0
  0
ARC
  5
3DEE0
  8
0
 10
6687.8936782478458554
 20
298.4662706680841779
 30
0.0
 40
0.8905511896608688
 50
20.0000002907348318
 51
89.999999341848067
  0
LINE
  5
3DEE1
  8
0
 10
6687.8936782580767613
 20
299.3568218577451034
 30
0.0
 11
6686.8266318767300618
 21
299.3568218700027046
 31
0.0
  0
ARC
  5
3DEE2
  8
0
 10
6688.8951958172747254
 20
297.4412799394451099
 30
0.0
 40
0.5900000000000003
 50
141.6822876519001966
 51
78.3177123537293767
  0
ARC
  5
3DEE3
  8
0
 10
6688.4636742128759579
 20
297.7822918232450888
 30
0.0
 40
0.039999999999989
 50
110.0000000078114937
 51
141.6822875179570929
  0
ARC
  5
3DEE4
  8
0
 10
6689.0065623306154521
 20
297.979886940556014
 30
0.0
 40
0.0399999982370578
 50
78.3177117447644235
 51
110.0000007777390039
  0
LINE
  5
3DEE5
  8
0
 10
6685.228396895876358
 20
299.3482933865450946
 30
0.0
 11
6685.228396895876358
 21
298.7653489097086208
 31
0.0
  0
ENDSEC
  0
EOF
