  0
SECTION
  2
HEADER
  9
$ACADVER
  1
AC1009
  9
$INSBASE
 10
3145.1849169408578746
 20
101.1029576965148067
 30
0.0
  9
$EXTMIN
 10
3137.8222859392080863
 20
92.5582288727161853
 30
-0.0000000000000058
  9
$EXTMAX
 10
3152.494444453584947
 20
102.3672954757449958
 30
0.0000000000000104
  9
$LIMMIN
 10
0.0
 20
0.0
  9
$LIMMAX
 10
11.6929133858000007
 20
8.2677165353999982
  9
$ORTHOMODE
 70
     0
  9
$REGENMODE
 70
     1
  9
$FILLMODE
 70
     1
  9
$QTEXTMODE
 70
     0
  9
$MIRRTEXT
 70
     0
  9
$DRAGMODE
 70
     2
  9
$LTSCALE
 40
0.6431102362
  9
$OSMODE
 70
  4095
  9
$ATTMODE
 70
     1
  9
$TEXTSIZE
 40
0.2
  9
$TRACEWID
 40
0.05
  9
$TEXTSTYLE
  7
STANDARD
  9
$CLAYER
  8
0
  9
$CELTYPE
  6
BYLAYER
  9
$CECOLOR
 62
   256
  9
$DIMSCALE
 40
1.0
  9
$DIMASZ
 40
0.1875
  9
$DIMEXO
 40
0.0625
  9
$DIMDLI
 40
0.4443307087
  9
$DIMRND
 40
0.0
  9
$DIMDLE
 40
0.0
  9
$DIMEXE
 40
0.125
  9
$DIMTP
 40
0.01
  9
$DIMTM
 40
0.01
  9
$DIMTXT
 40
2.0
  9
$DIMCEN
 40
0.1052362205
  9
$DIMTSZ
 40
0.0
  9
$DIMTOL
 70
     1
  9
$DIMLIM
 70
     0
  9
$DIMTIH
 70
     1
  9
$DIMTOH
 70
     1
  9
$DIMSE1
 70
     0
  9
$DIMSE2
 70
     0
  9
$DIMTAD
 70
     0
  9
$DIMZIN
 70
     0
  9
$DIMBLK
  1

  9
$DIMASO
 70
     1
  9
$DIMSHO
 70
     1
  9
$DIMPOST
  1
\X
  9
$DIMAPOST
  1

  9
$DIMALT
 70
     1
  9
$DIMALTD
 70
     2
  9
$DIMALTF
 40
25.3999999999999986
  9
$DIMLFAC
 40
1.0
  9
$DIMTOFL
 70
     0
  9
$DIMTVP
 40
0.0
  9
$DIMTIX
 70
     0
  9
$DIMSOXD
 70
     0
  9
$DIMSAH
 70
     0
  9
$DIMBLK1
  1

  9
$DIMBLK2
  1

  9
$DIMSTYLE
  2
STANDARD
  9
$DIMCLRD
 70
     0
  9
$DIMCLRE
 70
     0
  9
$DIMCLRT
 70
     0
  9
$DIMTFAC
 40
1.0
  9
$DIMGAP
 40
0.09
  9
$LUNITS
 70
     2
  9
$LUPREC
 70
     4
  9
$SKETCHINC
 40
0.1
  9
$FILLETRAD
 40
0.0
  9
$AUNITS
 70
     0
  9
$AUPREC
 70
     0
  9
$MENU
  1
.
  9
$ELEVATION
 40
0.0
  9
$PELEVATION
 40
0.0
  9
$THICKNESS
 40
0.0
  9
$LIMCHECK
 70
     0
  9
$BLIPMODE
 70
     0
  9
$CHAMFERA
 40
0.0
  9
$CHAMFERB
 40
0.0
  9
$SKPOLY
 70
     0
  9
$TDCREATE
 40
2458060.468368056230247
  9
$TDUPDATE
 40
2460634.726851852145046
  9
$TDINDWG
 40
0.4940927083
  9
$TDUSRTIMER
 40
0.4940927083
  9
$USRTIMER
 70
     1
  9
$ANGBASE
 50
0.0
  9
$ANGDIR
 70
     0
  9
$PDMODE
 70
     0
  9
$PDSIZE
 40
0.3125
  9
$PLINEWID
 40
0.0
  9
$COORDS
 70
     2
  9
$SPLFRAME
 70
     0
  9
$SPLINETYPE
 70
     6
  9
$SPLINESEGS
 70
     8
  9
$ATTDIA
 70
     1
  9
$ATTREQ
 70
     1
  9
$HANDLING
 70
     1
  9
$HANDSEED
  5
337CC
  9
$SURFTAB1
 70
     6
  9
$SURFTAB2
 70
     6
  9
$SURFTYPE
 70
     6
  9
$SURFU
 70
     6
  9
$SURFV
 70
     6
  9
$UCSNAME
  2

  9
$UCSORG
 10
0.0
 20
0.0
 30
0.0
  9
$UCSXDIR
 10
1.0
 20
0.0
 30
0.0
  9
$UCSYDIR
 10
0.0
 20
1.0
 30
0.0
  9
$PUCSNAME
  2

  9
$PUCSORG
 10
0.0
 20
0.0
 30
0.0
  9
$PUCSXDIR
 10
1.0
 20
0.0
 30
0.0
  9
$PUCSYDIR
 10
0.0
 20
1.0
 30
0.0
  9
$USERI1
 70
     0
  9
$USERI2
 70
     0
  9
$USERI3
 70
     0
  9
$USERI4
 70
     0
  9
$USERI5
 70
     0
  9
$USERR1
 40
0.0
  9
$USERR2
 40
0.0
  9
$USERR3
 40
0.0
  9
$USERR4
 40
0.0
  9
$USERR5
 40
0.0
  9
$WORLDVIEW
 70
     1
  9
$SHADEDGE
 70
     3
  9
$SHADEDIF
 70
    70
  9
$TILEMODE
 70
     1
  9
$MAXACTVP
 70
    64
  9
$PLIMCHECK
 70
     0
  9
$PEXTMIN
 10
1.0000000000000000E+20
 20
1.0000000000000000E+20
 30
1.0000000000000000E+20
  9
$PEXTMAX
 10
-1.0000000000000000E+20
 20
-1.0000000000000000E+20
 30
-1.0000000000000000E+20
  9
$PLIMMIN
 10
0.0
 20
0.0
  9
$PLIMMAX
 10
12.0
 20
9.0
  9
$UNITMODE
 70
     0
  9
$VISRETAIN
 70
     1
  9
$PLINEGEN
 70
     0
  9
$PSLTSCALE
 70
     1
  0
ENDSEC
  0
SECTION
  2
TABLES
  0
TABLE
  2
VPORT
 70
     1
  0
VPORT
  2
*ACTIVE
 70
     0
 10
0.0
 20
0.0
 11
1.0
 21
1.0
 12
-658.3857021864159833
 22
-28.5325000225193293
 13
0.0
 23
0.0
 14
1.0
 24
1.0
 15
0.0
 25
0.0
 16
0.0
 26
0.0
 36
17.1152628219792007
 17
3803.5440673828129547
 27
125.9952621967499056
 37
0.0
 40
9.8786344512772111
 41
2.21775147928994
 42
50.0
 43
0.0
 44
0.0
 50
0.0
 51
0.0
 71
     0
 72
   100
 73
     1
 74
     1
 75
     0
 76
     0
 77
     0
 78
     0
  0
ENDTAB
  0
TABLE
  2
LTYPE
 70
     2
  0
LTYPE
  2
CONTINUOUS
 70
     0
  3
Solid line
 72
    65
 73
     0
 40
0.0
  0
LTYPE
  2
PHANTOM2
 70
     0
  3
___ _ _ ___ _ _ ___ _ _ ___ _ _
 72
    65
 73
     6
 40
1.25
 49
0.625
 49
-0.125
 49
0.125
 49
-0.125
 49
0.125
 49
-0.125
  0
ENDTAB
  0
TABLE
  2
LAYER
 70
     2
  0
LAYER
  2
0
 70
     0
 62
   255
  6
CONTINUOUS
  0
LAYER
  2
DEFPOINTS
 70
     0
 62
     7
  6
CONTINUOUS
  0
ENDTAB
  0
TABLE
  2
STYLE
 70
     1
  0
STYLE
  2
STANDARD
 70
     0
 40
0.0
 41
0.8
 50
0.0
 71
     0
 42
0.2
  3
txt
  4

  0
ENDTAB
  0
TABLE
  2
VIEW
 70
     0
  0
ENDTAB
  0
TABLE
  2
UCS
 70
     0
  0
ENDTAB
  0
TABLE
  2
APPID
 70
    10
  0
APPID
  2
ACAD
 70
     0
  0
APPID
  2
ACAD_MLEADERVER
 70
     0
  0
APPID
  2
ACAD_EXEMPT_FROM_CAD_STANDARDS
 70
     0
  0
APPID
  2
ACAD_NAV_VCDISPLAY
 70
     0
  0
APPID
  2
ACAECLAYERSTANDARD
 70
     0
  0
APPID
  2
ACCMTRANSPARENCY
 70
     0
  0
APPID
  2
ACAD_DSTYLE_DIMJAG
 70
     0
  0
APPID
  2
ACAD_DSTYLE_DIMTALN
 70
     0
  0
APPID
  2
ACDBATTR
 70
     0
  0
APPID
  2
DCO15
 70
     0
  0
ENDTAB
  0
TABLE
  2
DIMSTYLE
 70
     1
  0
DIMSTYLE
  2
STANDARD
 70
     0
  3

  4

  5

  6

  7

 40
1.0
 41
0.1875
 42
0.0625
 43
0.38
 44
0.125
 45
0.0
 46
0.0
 47
0.01
 48
0.01
140
0.15625
141
0.09
142
0.0
143
25.3999999999999986
144
1.0
145
0.0
146
1.0
147
0.09
 71
     1
 72
     0
 73
     1
 74
     1
 75
     0
 76
     0
 77
     0
 78
     4
170
     0
171
     2
172
     0
173
     0
174
     0
175
     0
176
     0
177
     0
178
     0
  0
ENDTAB
  0
ENDSEC
  0
SECTION
  2
BLOCKS
  0
BLOCK
  8
0
  2
$MODEL_SPACE
 70
     0
 10
0.0
 20
0.0
 30
0.0
  3
$MODEL_SPACE
  1

  0
ENDBLK
  5
21
  8
0
  0
BLOCK
 67
     1
  8
0
  2
$PAPER_SPACE
 70
     0
 10
0.0
 20
0.0
 30
0.0
  3
$PAPER_SPACE
  1

  0
ENDBLK
  5
1D
 67
     1
  8
0
  0
BLOCK
  8
0
  2
_FILLED
 70
     0
 10
0.0
 20
0.0
 30
0.0
  3
_FILLED
  1

  0
SOLID
  5
3293C
  8
0
  6
BYBLOCK
 62
     0
 10
0.0
 20
0.0
 30
0.0
 11
-1.0
 21
0.1666666667
 31
0.0
 12
-1.0
 22
-0.1666666667
 32
0.0
 13
-1.0
 23
-0.1666666667
 33
0.0
  0
ENDBLK
  5
3293D
  8
0
  6
BYBLOCK
 62
     0
  0
ENDSEC
  0
SECTION
  2
ENTITIES
  0
ATTDEF
  5
32824
  8
DEFPOINTS
 10
3145.1752081647641717
 20
101.1069061402860996
 30
0.0
 40
0.001
  1
P34870-CP
  3

  2
MODELNUMBER
 70
     0
1001
ACDBATTR
1070
     0
1070
     1
  0
ATTDEF
  5
32825
  8
DEFPOINTS
 10
3145.1752081647641717
 20
101.105239473619406
 30
0.0
 40
0.001
  1
VICE
  3

  2
TRADENAME
 70
     0
1001
ACDBATTR
1070
     0
1070
     1
  0
ATTDEF
  5
32826
  8
DEFPOINTS
 10
3145.1752081647641717
 20
101.1035728069526982
 30
0.0
 40
0.001
  1
BATH FAUCET
  3

  2
PRODUCT
 70
     0
1001
ACDBATTR
1070
     0
1070
     1
  0
LINE
  5
33216
  8
0
 10
3144.633755526198911
 20
93.1108120245744573
 30
0.0
 11
3144.633755526198911
 21
98.9093991434807833
 31
0.0
  0
LINE
  5
33217
  8
0
 10
3142.2675941061579579
 20
100.9202636722716022
 30
0.0
 11
3142.2675941061579579
 21
101.2856517207580964
 31
0.0
  0
LINE
  5
33218
  8
0
 10
3142.1958427693448357
 20
100.8114861677454996
 30
0.0
 11
3142.1958427693448357
 21
101.394429225284199
 31
0.0
  0
CIRCLE
  5
33219
  8
0
 10
3138.529043847957837
 20
101.1029576965148067
 30
0.0
 40
0.5900000000000003
  0
LINE
  5
3321A
  8
0
 10
3139.0370792797639297
 20
101.4029576965647976
 30
0.0
 11
3140.66712092286798
 21
101.4029576965647976
 31
0.0
  0
LINE
  5
3321B
  8
0
 10
3141.702712958749089
 20
101.4029576965647976
 30
0.0
 11
3142.1794597284538213
 21
101.4029576965647976
 31
0.0
  0
LINE
  5
3321C
  8
0
 10
3139.0370792797639297
 20
100.8029576964648015
 30
0.0
 11
3140.66712092286798
 21
100.8029576964648015
 31
0.0
  0
LINE
  5
3321D
  8
0
 10
3141.702712958749089
 20
100.8029576964648015
 30
0.0
 11
3142.1794597284538213
 21
100.8029576964648015
 31
0.0
  0
ARC
  5
3321E
  8
0
 10
3138.9684751021159173
 20
101.120449559491405
 30
0.0
 40
0.283874228556465
 50
32.4583226557881801
 51
75.0131677099567753
  0
ARC
  5
3321F
  8
0
 10
3138.9404777569370708
 20
101.1026419011968045
 30
0.0
 40
0.3170550065919881
 50
0.0570681475790722
 51
32.4583226557881801
  0
ARC
  5
33220
  8
0
 10
3138.9684751021159173
 20
101.0854658335382936
 30
0.0
 40
0.283874228556465
 50
284.9868322900431963
 51
327.5416773442117915
  0
ARC
  5
33221
  8
0
 10
3138.9404777569370708
 20
101.1032734918328941
 30
0.0
 40
0.3170550065919881
 50
327.5416773442117915
 51
359.9429318524208838
  0
ARC
  5
33222
  8
0
 10
3141.1849169408092166
 20
101.1029576965148067
 30
0.0
 40
0.8372429482485051
 50
200.9969917952072933
 51
339.003008204792593
  0
ARC
  5
33223
  8
0
 10
3141.1849169408092166
 20
101.1029576965148067
 30
0.0
 40
0.8372429482485051
 50
20.9969917952073395
 51
159.003008204792593
  0
CIRCLE
  5
33224
  8
0
 10
3141.1849169408092166
 20
101.1029576965148067
 30
0.0
 40
0.5984251968499997
  0
ARC
  5
33225
  8
0
 10
3141.1849169408092166
 20
101.1029576965148067
 30
0.0
 40
0.8938217469062815
 50
199.6113020760784025
 51
340.388697923920688
  0
ARC
  5
33226
  8
0
 10
3141.1849169408092166
 20
101.1029576965148067
 30
0.0
 40
0.8938217469062815
 50
19.6113020760792409
 51
160.3886979239208017
  0
ARC
  5
33227
  8
0
 10
3141.1849169408092166
 20
101.1029576965148067
 30
0.0
 40
1.2598425196499989
 50
193.7759027302988102
 51
166.2240972697011046
  0
LINE
  5
33228
  8
0
 10
3142.1958427693448357
 20
101.394429225284199
 30
0.0
 11
3142.2639771470498999
 21
101.2971232494774938
 31
0.0
  0
ARC
  5
33229
  8
0
 10
3142.1794597284538213
 20
101.3829576965648016
 30
0.0
 40
0.02
 50
34.999999973137399
 51
90.0
  0
ARC
  5
3322A
  8
0
 10
3142.2475941061579761
 20
101.2856517207580964
 30
0.0
 40
0.02
 50
0.0
 51
34.9999999731394098
  0
LINE
  5
3322B
  8
0
 10
3142.1958427693448357
 20
100.8114861677454996
 30
0.0
 11
3142.2639771470498999
 21
100.9087921435522048
 31
0.0
  0
ARC
  5
3322C
  8
0
 10
3142.1794597284538213
 20
100.8229576964647976
 30
0.0
 40
0.02
 50
270.0
 51
325.0000000268626081
  0
ARC
  5
3322D
  8
0
 10
3142.2475941061579761
 20
100.9202636722716022
 30
0.0
 40
0.02
 50
325.0000000268606186
 51
0.0
  0
CIRCLE
  5
3322E
  8
0
 10
3141.1849169408092166
 20
101.1029576965148067
 30
0.0
 40
0.48608057515
  0
ARC
  5
3322F
  8
0
 10
3145.1849169408578746
 20
101.1029576965148067
 30
0.0
 40
1.2598425197000001
 50
294.6800650898985054
 51
245.3199349101014946
  0
ARC
  5
33230
  8
0
 10
3145.1849169408578746
 20
93.1108120245744573
 30
0.0
 40
0.5511614146596014
 50
180.0
 51
0.0
  0
LINE
  5
33231
  8
0
 10
3144.6588684981052211
 20
99.2439903472298823
 30
0.0
 11
3144.6588684981052211
 21
101.0716046885647046
 31
0.0
  0
ARC
  5
33232
  8
0
 10
3127.6111364902380956
 20
100.3552815088571037
 30
0.0
 40
17.0839145004288291
 50
355.1450133296589797
 51
356.2703347299960228
  0
ARC
  5
33233
  8
0
 10
3145.1849169408578746
 20
101.1029576965148067
 30
0.0
 40
0.5511614146596014
 50
342.6375807304506793
 51
197.3624192695546924
  0
ARC
  5
33234
  8
0
 10
3145.7542100743530682
 20
101.1932297785751018
 30
0.0
 40
1.0994517058024189
 50
176.4773280915335931
 51
181.7517232955136137
  0
ARC
  5
33235
  8
0
 10
3146.6910372921879571
 20
101.1987201873595978
 30
0.0
 40
2.0361405544994411
 50
181.100292455569587
 51
183.5792818306902063
  0
ARC
  5
33236
  8
0
 10
3145.1849169408578746
 20
101.1029576965648005
 30
0.0
 40
0.8839722537999996
 50
306.5194833151820717
 51
233.4805166848178999
  0
LINE
  5
33237
  8
0
 10
3144.9262656717578466
 20
101.5759871668827969
 30
0.0
 11
3144.9262656717569371
 21
100.325728723553695
 31
0.0
  0
LINE
  5
33238
  8
0
 10
3144.9250931700198635
 20
101.5664443629524953
 30
0.0
 11
3144.9262656717578466
 21
101.5644135304388982
 31
0.0
  0
ARC
  5
33239
  8
0
 10
3144.9080324697101787
 20
101.556594362701702
 30
0.0
 40
0.0197
 50
30.0000008421989683
 51
121.3984786852474969
  0
LINE
  5
3323A
  8
0
 10
3144.9262656717578466
 20
101.5672983066765056
 30
0.0
 11
3144.9250931700198635
 21
101.5664443629524953
 31
0.0
  0
ARC
  5
3323B
  8
0
 10
3145.1849169408578746
 20
101.1029576965148067
 30
0.0
 40
0.5498219588499964
 50
63.2282926392868205
 51
116.7717073607120994
  0
ARC
  5
3323C
  8
0
 10
3144.9462656717578284
 20
101.5759871668827969
 30
0.0
 40
0.02
 50
116.7717073605373059
 51
180.0
  0
ARC
  5
3323D
  8
0
 10
3145.0890158089150646
 20
100.3285692366437019
 30
0.0
 40
0.1627749233129864
 50
180.9998940233535905
 51
208.0819926259287058
  0
ARC
  5
3323E
  8
0
 10
3145.0872781831772045
 20
100.3278297146679989
 30
0.0
 40
0.1608938263401376
 50
208.140928339477199
 51
227.5750295054444052
  0
ARC
  5
3323F
  8
0
 10
3145.0778690373199424
 20
100.3175343995577009
 30
0.0
 40
0.1469465850720172
 50
227.5750295054444052
 51
246.7927247110665121
  0
ARC
  5
33240
  8
0
 10
3145.0759157326160675
 20
100.3129785959647933
 30
0.0
 40
0.1419896963660636
 50
246.7927247110665121
 51
261.9878356960549013
  0
ARC
  5
33241
  8
0
 10
3145.1842968409769128
 20
101.0858272441420951
 30
0.0
 40
0.9224007887544944
 50
262.0126248537793003
 51
270.0385180814623141
  0
LINE
  5
33242
  8
0
 10
3145.7360783555182024
 20
93.1108120245744573
 30
0.0
 11
3145.7360783555182024
 21
98.9093991434807833
 31
0.0
  0
LINE
  5
33243
  8
0
 10
3148.1022397755591555
 20
100.9202636722716022
 30
0.0
 11
3148.1022397755591555
 21
101.2856517207580964
 31
0.0
  0
LINE
  5
33244
  8
0
 10
3148.173991112371823
 20
100.8114861677454996
 30
0.0
 11
3148.173991112371823
 21
101.394429225284199
 31
0.0
  0
CIRCLE
  5
33245
  8
0
 10
3151.8407900337579122
 20
101.1029576965148067
 30
0.0
 40
0.5900000000000003
  0
LINE
  5
33246
  8
0
 10
3151.3327546019518195
 20
101.4029576965647976
 30
0.0
 11
3149.7027129588491334
 21
101.4029576965647976
 31
0.0
  0
LINE
  5
33247
  8
0
 10
3148.6671209229680244
 20
101.4029576965647976
 30
0.0
 11
3148.1903741532628374
 21
101.4029576965647976
 31
0.0
  0
LINE
  5
33248
  8
0
 10
3151.3327546019518195
 20
100.8029576964648015
 30
0.0
 11
3149.7027129588491334
 21
100.8029576964648015
 31
0.0
  0
LINE
  5
33249
  8
0
 10
3148.6671209229680244
 20
100.8029576964648015
 30
0.0
 11
3148.1903741532628374
 21
100.8029576964648015
 31
0.0
  0
ARC
  5
3324A
  8
0
 10
3151.4013587796011961
 20
101.120449559491405
 30
0.0
 40
0.283874228556465
 50
104.9868322900431963
 51
147.5416773442117915
  0
ARC
  5
3324B
  8
0
 10
3151.4293561247800426
 20
101.1026419011968045
 30
0.0
 40
0.3170550065919881
 50
147.5416773442117915
 51
179.9429318524209123
  0
ARC
  5
3324C
  8
0
 10
3151.4013587796011961
 20
101.0854658335382936
 30
0.0
 40
0.283874228556465
 50
212.458322655787498
 51
255.01316770995669
  0
ARC
  5
3324D
  8
0
 10
3151.4293561247800426
 20
101.1032734918328941
 30
0.0
 40
0.3170550065919881
 50
180.0570681475790025
 51
212.4583226557882085
  0
ARC
  5
3324E
  8
0
 10
3149.1849169409078968
 20
101.1029576965148067
 30
0.0
 40
0.8372429482485051
 50
200.9969917952072933
 51
339.003008204792593
  0
ARC
  5
3324F
  8
0
 10
3149.1849169409078968
 20
101.1029576965148067
 30
0.0
 40
0.8372429482485051
 50
20.9969917952073395
 51
159.003008204792593
  0
CIRCLE
  5
33250
  8
0
 10
3149.1849169409078968
 20
101.1029576965148067
 30
0.0
 40
0.5984251968499997
  0
ARC
  5
33251
  8
0
 10
3149.1849169409078968
 20
101.1029576965148067
 30
0.0
 40
0.8938217469062815
 50
199.6113020760784025
 51
340.388697923920688
  0
ARC
  5
33252
  8
0
 10
3149.1849169409078968
 20
101.1029576965148067
 30
0.0
 40
0.8938217469062815
 50
19.6113020760792409
 51
160.3886979239208017
  0
ARC
  5
33253
  8
0
 10
3149.1849169409078968
 20
101.1029576965148067
 30
0.0
 40
1.2598425196499989
 50
13.7759027302988297
 51
346.2240972697010761
  0
LINE
  5
33254
  8
0
 10
3148.173991112371823
 20
101.394429225284199
 30
0.0
 11
3148.1058567346672135
 21
101.2971232494774938
 31
0.0
  0
ARC
  5
33255
  8
0
 10
3148.1903741532628374
 20
101.3829576965648016
 30
0.0
 40
0.02
 50
90.0
 51
145.0000000268626081
  0
ARC
  5
33256
  8
0
 10
3148.1222397755577731
 20
101.2856517207580964
 30
0.0
 40
0.02
 50
145.0000000268605902
 51
180.0
  0
LINE
  5
33257
  8
0
 10
3148.173991112371823
 20
100.8114861677454996
 30
0.0
 11
3148.1058567346672135
 21
100.9087921435522048
 31
0.0
  0
ARC
  5
33258
  8
0
 10
3148.1903741532628374
 20
100.8229576964647976
 30
0.0
 40
0.02
 50
214.9999999731373919
 51
270.0
  0
ARC
  5
33259
  8
0
 10
3148.1222397755577731
 20
100.9202636722716022
 30
0.0
 40
0.02
 50
180.0
 51
214.9999999731394098
  0
CIRCLE
  5
3325A
  8
0
 10
3149.1849169409078968
 20
101.1029576965148067
 30
0.0
 40
0.48608057515
  0
LINE
  5
3325B
  8
0
 10
3145.7109653836118923
 20
99.2439903472298823
 30
0.0
 11
3145.7109653836118923
 21
101.0716046885647046
 31
0.0
  0
ARC
  5
3325C
  8
0
 10
3162.7586973914790178
 20
100.3552815088571037
 30
0.0
 40
17.0839145004288291
 50
183.7296652700032098
 51
184.8549866703409919
  0
ARC
  5
3325D
  8
0
 10
3144.6156238073631357
 20
101.1932297785751018
 30
0.0
 40
1.0994517058024189
 50
358.2482767044862726
 51
3.522671908466374
  0
ARC
  5
3325E
  8
0
 10
3143.6787965895291563
 20
101.1987201873595978
 30
0.0
 40
2.0361405544994411
 50
356.4207181693097937
 51
358.8997075444303846
  0
LINE
  5
3325F
  8
0
 10
3145.4435682099579026
 20
101.5759871668827969
 30
0.0
 11
3145.4435682099588121
 21
100.325728723553695
 31
0.0
  0
LINE
  5
33260
  8
0
 10
3145.4447407116958857
 20
101.5664443629524953
 30
0.0
 11
3145.4435682099579026
 21
101.5644135304388982
 31
0.0
  0
ARC
  5
33261
  8
0
 10
3145.4618014120060252
 20
101.556594362701702
 30
0.0
 40
0.0197
 50
58.6015213147524605
 51
149.9999991578009997
  0
LINE
  5
33262
  8
0
 10
3145.4435682099579026
 20
101.5672983066765056
 30
0.0
 11
3145.4447407116958857
 21
101.5664443629524953
 31
0.0
  0
ARC
  5
33263
  8
0
 10
3145.4235682099579208
 20
101.5759871668827969
 30
0.0
 40
0.02
 50
0.0
 51
63.2282926394627083
  0
ARC
  5
33264
  8
0
 10
3145.2808180728020488
 20
100.3285692366437019
 30
0.0
 40
0.1627749233129864
 50
331.9180073740711805
 51
359.0001059766464095
  0
ARC
  5
33265
  8
0
 10
3145.2825556985389994
 20
100.3278297146679989
 30
0.0
 40
0.1608938263401376
 50
312.4249704945555095
 51
331.8590716605227158
  0
ARC
  5
33266
  8
0
 10
3145.291964844397171
 20
100.3175343995577009
 30
0.0
 40
0.1469465850720172
 50
293.2072752889334879
 51
312.4249704945555095
  0
ARC
  5
33267
  8
0
 10
3145.2939181491010459
 20
100.3129785959647933
 30
0.0
 40
0.1419896963660636
 50
278.012164303944985
 51
293.2072752889334879
  0
ARC
  5
33268
  8
0
 10
3145.1855370407388364
 20
101.0858272441420951
 30
0.0
 40
0.9224007887544944
 50
269.9614819185376859
 51
277.9873751462206997
  0
CIRCLE
  5
33269
  8
0
 10
3145.1849169408578746
 20
100.4990206886148059
 30
0.0
 40
0.0468053359000003
  0
CIRCLE
  5
3326A
  8
0
 10
3145.1849169408578746
 20
100.4990206886148059
 30
0.0
 40
0.1100048505999993
  0
ENDSEC
  0
EOF
