  0
SECTION
  2
HEADER
  9
$ACADVER
  1
AC1009
  9
$INSBASE
 10
6598.2105793349801388
 20
292.952572047827573
 30
0.0
  9
$EXTMIN
 10
6596.9507368153299467
 20
291.6927295281776082
 30
0.0
  9
$EXTMAX
 10
6601.4564524278302997
 20
294.2124145674775946
 30
0.0
  9
$LIMMIN
 10
0.0
 20
0.0
  9
$LIMMAX
 10
11.6929133858000007
 20
8.2677165353999982
  9
$ORTHOMODE
 70
     0
  9
$REGENMODE
 70
     1
  9
$FILLMODE
 70
     1
  9
$QTEXTMODE
 70
     0
  9
$MIRRTEXT
 70
     0
  9
$DRAGMODE
 70
     2
  9
$LTSCALE
 40
0.6431102362
  9
$OSMODE
 70
  4095
  9
$ATTMODE
 70
     1
  9
$TEXTSIZE
 40
0.2
  9
$TRACEWID
 40
0.05
  9
$TEXTSTYLE
  7
STANDARD
  9
$CLAYER
  8
0
  9
$CELTYPE
  6
BYLAYER
  9
$CECOLOR
 62
   256
  9
$DIMSCALE
 40
1.0
  9
$DIMASZ
 40
0.1875
  9
$DIMEXO
 40
0.0625
  9
$DIMDLI
 40
0.4443307087
  9
$DIMRND
 40
0.0
  9
$DIMDLE
 40
0.0
  9
$DIMEXE
 40
0.125
  9
$DIMTP
 40
0.01
  9
$DIMTM
 40
0.01
  9
$DIMTXT
 40
2.0
  9
$DIMCEN
 40
0.1052362205
  9
$DIMTSZ
 40
0.0
  9
$DIMTOL
 70
     1
  9
$DIMLIM
 70
     0
  9
$DIMTIH
 70
     1
  9
$DIMTOH
 70
     1
  9
$DIMSE1
 70
     0
  9
$DIMSE2
 70
     0
  9
$DIMTAD
 70
     0
  9
$DIMZIN
 70
     0
  9
$DIMBLK
  1

  9
$DIMASO
 70
     1
  9
$DIMSHO
 70
     1
  9
$DIMPOST
  1
\X
  9
$DIMAPOST
  1

  9
$DIMALT
 70
     1
  9
$DIMALTD
 70
     2
  9
$DIMALTF
 40
25.3999999999999986
  9
$DIMLFAC
 40
1.0
  9
$DIMTOFL
 70
     0
  9
$DIMTVP
 40
0.0
  9
$DIMTIX
 70
     0
  9
$DIMSOXD
 70
     0
  9
$DIMSAH
 70
     0
  9
$DIMBLK1
  1

  9
$DIMBLK2
  1

  9
$DIMSTYLE
  2
STANDARD
  9
$DIMCLRD
 70
     0
  9
$DIMCLRE
 70
     0
  9
$DIMCLRT
 70
     0
  9
$DIMTFAC
 40
1.0
  9
$DIMGAP
 40
0.09
  9
$LUNITS
 70
     2
  9
$LUPREC
 70
     4
  9
$SKETCHINC
 40
0.1
  9
$FILLETRAD
 40
0.0
  9
$AUNITS
 70
     0
  9
$AUPREC
 70
     0
  9
$MENU
  1
.
  9
$ELEVATION
 40
0.0
  9
$PELEVATION
 40
0.0
  9
$THICKNESS
 40
0.0
  9
$LIMCHECK
 70
     0
  9
$BLIPMODE
 70
     0
  9
$CHAMFERA
 40
0.0
  9
$CHAMFERB
 40
0.0
  9
$SKPOLY
 70
     0
  9
$TDCREATE
 40
2458060.468368056230247
  9
$TDUPDATE
 40
2460357.6525231478735805
  9
$TDINDWG
 40
0.8081436343
  9
$TDUSRTIMER
 40
0.8081436343
  9
$USRTIMER
 70
     1
  9
$ANGBASE
 50
0.0
  9
$ANGDIR
 70
     0
  9
$PDMODE
 70
     0
  9
$PDSIZE
 40
0.3125
  9
$PLINEWID
 40
0.0
  9
$COORDS
 70
     1
  9
$SPLFRAME
 70
     0
  9
$SPLINETYPE
 70
     6
  9
$SPLINESEGS
 70
     8
  9
$ATTDIA
 70
     1
  9
$ATTREQ
 70
     1
  9
$HANDLING
 70
     1
  9
$HANDSEED
  5
2F133
  9
$SURFTAB1
 70
     6
  9
$SURFTAB2
 70
     6
  9
$SURFTYPE
 70
     6
  9
$SURFU
 70
     6
  9
$SURFV
 70
     6
  9
$UCSNAME
  2

  9
$UCSORG
 10
0.0
 20
0.0
 30
0.0
  9
$UCSXDIR
 10
1.0
 20
0.0
 30
0.0
  9
$UCSYDIR
 10
0.0
 20
1.0
 30
0.0
  9
$PUCSNAME
  2

  9
$PUCSORG
 10
0.0
 20
0.0
 30
0.0
  9
$PUCSXDIR
 10
1.0
 20
0.0
 30
0.0
  9
$PUCSYDIR
 10
0.0
 20
1.0
 30
0.0
  9
$USERI1
 70
     0
  9
$USERI2
 70
     0
  9
$USERI3
 70
     0
  9
$USERI4
 70
     0
  9
$USERI5
 70
     0
  9
$USERR1
 40
0.0
  9
$USERR2
 40
0.0
  9
$USERR3
 40
0.0
  9
$USERR4
 40
0.0
  9
$USERR5
 40
0.0
  9
$WORLDVIEW
 70
     1
  9
$SHADEDGE
 70
     3
  9
$SHADEDIF
 70
    70
  9
$TILEMODE
 70
     1
  9
$MAXACTVP
 70
    64
  9
$PLIMCHECK
 70
     0
  9
$PEXTMIN
 10
1.0000000000000000E+20
 20
1.0000000000000000E+20
 30
1.0000000000000000E+20
  9
$PEXTMAX
 10
-1.0000000000000000E+20
 20
-1.0000000000000000E+20
 30
-1.0000000000000000E+20
  9
$PLIMMIN
 10
0.0
 20
0.0
  9
$PLIMMAX
 10
12.0
 20
9.0
  9
$UNITMODE
 70
     0
  9
$VISRETAIN
 70
     1
  9
$PLINEGEN
 70
     0
  9
$PSLTSCALE
 70
     1
  0
ENDSEC
  0
SECTION
  2
TABLES
  0
TABLE
  2
VPORT
 70
     1
  0
VPORT
  2
*ACTIVE
 70
     0
 10
0.0
 20
0.0
 11
1.0
 21
1.0
 12
2687.838238176268078
 22
160.3729669452885105
 13
0.0
 23
0.0
 14
1.0
 24
1.0
 15
0.0
 25
0.0
 16
0.0
 26
0.0
 36
60.4960186965801583
 17
3911.3653564453120453
 27
132.5796051025390057
 37
0.0
 40
2.5371875887411952
 41
2.1211111111111101
 42
50.0
 43
0.0
 44
0.0
 50
0.0
 51
0.0
 71
     0
 72
   100
 73
     1
 74
     1
 75
     0
 76
     0
 77
     0
 78
     0
  0
ENDTAB
  0
TABLE
  2
LTYPE
 70
     2
  0
LTYPE
  2
CONTINUOUS
 70
     0
  3
Solid line
 72
    65
 73
     0
 40
0.0
  0
LTYPE
  2
PHANTOM2
 70
     0
  3
___ _ _ ___ _ _ ___ _ _ ___ _ _
 72
    65
 73
     6
 40
1.25
 49
0.625
 49
-0.125
 49
0.125
 49
-0.125
 49
0.125
 49
-0.125
  0
ENDTAB
  0
TABLE
  2
LAYER
 70
     2
  0
LAYER
  2
0
 70
     0
 62
   255
  6
CONTINUOUS
  0
LAYER
  2
DEFPOINTS
 70
     0
 62
     7
  6
CONTINUOUS
  0
ENDTAB
  0
TABLE
  2
STYLE
 70
     1
  0
STYLE
  2
STANDARD
 70
     0
 40
0.0
 41
0.8
 50
0.0
 71
     0
 42
0.2
  3
txt
  4

  0
ENDTAB
  0
TABLE
  2
VIEW
 70
     0
  0
ENDTAB
  0
TABLE
  2
UCS
 70
     0
  0
ENDTAB
  0
TABLE
  2
APPID
 70
    11
  0
APPID
  2
ACAD
 70
     0
  0
APPID
  2
ACAD_MLEADERVER
 70
     0
  0
APPID
  2
ACAD_EXEMPT_FROM_CAD_STANDARDS
 70
     0
  0
APPID
  2
ACAD_NAV_VCDISPLAY
 70
     0
  0
APPID
  2
ACAECLAYERSTANDARD
 70
     0
  0
APPID
  2
ACCMTRANSPARENCY
 70
     0
  0
APPID
  2
ACAD_DSTYLE_DIMJAG
 70
     0
  0
APPID
  2
ACAD_DSTYLE_DIMTALN
 70
     0
  0
APPID
  2
ACDBATTR
 70
     0
  0
APPID
  2
ACADANNOTATIVE
 70
     0
  0
APPID
  2
DCO15
 70
     0
  0
ENDTAB
  0
TABLE
  2
DIMSTYLE
 70
     1
  0
DIMSTYLE
  2
STANDARD
 70
     0
  3

  4

  5

  6

  7

 40
1.0
 41
0.1875
 42
0.0625
 43
0.38
 44
0.125
 45
0.0
 46
0.0
 47
0.01
 48
0.01
140
0.15625
141
0.09
142
0.0
143
25.3999999999999986
144
1.0
145
0.0
146
1.0
147
0.09
 71
     1
 72
     0
 73
     1
 74
     1
 75
     0
 76
     0
 77
     0
 78
     4
170
     0
171
     2
172
     0
173
     0
174
     0
175
     0
176
     0
177
     0
178
     0
  0
ENDTAB
  0
ENDSEC
  0
SECTION
  2
BLOCKS
  0
BLOCK
  8
0
  2
$MODEL_SPACE
 70
     0
 10
0.0
 20
0.0
 30
0.0
  3
$MODEL_SPACE
  1

  0
ENDBLK
  5
21
  8
0
  0
BLOCK
 67
     1
  8
0
  2
$PAPER_SPACE
 70
     0
 10
0.0
 20
0.0
 30
0.0
  3
$PAPER_SPACE
  1

  0
ENDBLK
  5
1D
 67
     1
  8
0
  0
ENDSEC
  0
SECTION
  2
ENTITIES
  0
ATTDEF
  5
26A5B
  8
DEFPOINTS
 10
6598.2030132619756841
 20
292.9513280286915915
 30
0.0
 40
0.001
  1
P34871-BN
  3

  2
MODELNUMBER
 70
     0
1001
ACDBATTR
1070
     0
1070
     1
  0
ATTDEF
  5
26A5C
  8
DEFPOINTS
 10
6598.2028874523175546
 20
292.9496611883124046
 30
0.0
 40
0.001
  1
VICE
  3

  2
TRADENAME
 70
     0
1001
ACDBATTR
1070
     0
1070
     1
  0
ATTDEF
  5
26A5D
  8
DEFPOINTS
 10
6598.2030132619756841
 20
292.947994695358318
 30
0.0
 40
0.001
  1
BATH FAUCET HANDLE
  3

  2
PRODUCT
 70
     0
1001
ACDBATTR
1070
     0
1070
     1
  0
LINE
  5
2EF38
  8
0
 10
6597.1279021696300333
 20
292.7698780235842833
 30
0.0
 11
6597.1279021696300333
 21
293.1352660720709196
 31
0.0
  0
LINE
  5
2EF39
  8
0
 10
6597.1996535064454292
 20
292.6611005190583228
 30
0.0
 11
6597.1996535064454292
 21
293.2440435765969937
 31
0.0
  0
CIRCLE
  5
2EF3C
  8
0
 10
6600.8664524278301542
 20
292.952572047827573
 30
0.0
 40
0.5900000000000003
  0
LINE
  5
2EF3D
  8
0
 10
6600.358416996024971
 20
293.2525720478776066
 30
0.0
 11
6598.7283753529209207
 21
293.2525720478776066
 31
0.0
  0
LINE
  5
2EF3E
  8
0
 10
6597.6927833170402664
 20
293.2525720478776066
 30
0.0
 11
6597.2160365473364436
 21
293.2525720478776066
 31
0.0
  0
LINE
  5
2EF3F
  8
0
 10
6600.358416996024971
 20
292.6525720477775963
 30
0.0
 11
6598.7283753529209207
 21
292.6525720477775963
 31
0.0
  0
LINE
  5
2EF40
  8
0
 10
6597.6927833170402664
 20
292.6525720477775963
 30
0.0
 11
6597.2160365473364436
 21
292.6525720477775963
 31
0.0
  0
ARC
  5
2EF41
  8
0
 10
6600.4270211736720739
 20
292.9700639108041855
 30
0.0
 40
0.283874228556465
 50
104.9868322900678947
 51
147.5416773442132126
  0
ARC
  5
2EF42
  8
0
 10
6600.4550185188518299
 20
292.952256252509585
 30
0.0
 40
0.3170550065919881
 50
147.5416773442132126
 51
179.9429318524209123
  0
ARC
  5
2EF43
  8
0
 10
6600.4270211736720739
 20
292.9350801848510173
 30
0.0
 40
0.283874228556465
 50
212.4583226557867874
 51
255.0131677099311958
  0
ARC
  5
2EF44
  8
0
 10
6600.4550185188518299
 20
292.9528878431456747
 30
0.0
 40
0.3170550065919881
 50
180.0570681475790025
 51
212.4583226557867874
  0
ARC
  5
2EF45
  8
0
 10
6598.2105793349801388
 20
292.952572047827573
 30
0.0
 40
0.8372429482485051
 50
200.9969917951979994
 51
339.0030082048019722
  0
ARC
  5
2EF46
  8
0
 10
6598.2105793349801388
 20
292.952572047827573
 30
0.0
 40
0.8372429482485051
 50
20.9969917951980101
 51
159.0030082048020006
  0
CIRCLE
  5
2EF47
  8
0
 10
6598.2105793349801388
 20
292.952572047827573
 30
0.0
 40
0.5984251968499997
  0
ARC
  5
2EF48
  8
0
 10
6598.2105793349801388
 20
292.952572047827573
 30
0.0
 40
0.8938217469062815
 50
199.6113020760886911
 51
340.3886979239111952
  0
ARC
  5
2EF49
  8
0
 10
6598.2105793349801388
 20
292.952572047827573
 30
0.0
 40
0.8938217469062815
 50
19.6113020760887515
 51
160.3886979239111952
  0
ARC
  5
2EF4A
  8
0
 10
6598.2105793349801388
 20
292.952572047827573
 30
0.0
 40
1.2598425196499989
 50
13.7759027302918398
 51
346.2240972697081816
  0
LINE
  5
2EF4B
  8
0
 10
6597.1996535064454292
 20
293.2440435765969937
 30
0.0
 11
6597.131519128740365
 21
293.1467376007901748
 31
0.0
  0
ARC
  5
2EF4C
  8
0
 10
6597.2160365473364436
 20
293.2325720478776248
 30
0.0
 40
0.02
 50
90.0
 51
145.0000000268638871
  0
ARC
  5
2EF4D
  8
0
 10
6597.1479021696313794
 20
293.1352660720709196
 30
0.0
 40
0.02
 50
145.0000000268611871
 51
180.0
  0
LINE
  5
2EF4E
  8
0
 10
6597.1996535064454292
 20
292.6611005190583228
 30
0.0
 11
6597.131519128740365
 21
292.758406494865028
 31
0.0
  0
ARC
  5
2EF4F
  8
0
 10
6597.2160365473364436
 20
292.6725720477775781
 30
0.0
 40
0.02
 50
214.9999999731361129
 51
270.0
  0
ARC
  5
2EF50
  8
0
 10
6597.1479021696313794
 20
292.7698780235842833
 30
0.0
 40
0.02
 50
180.0
 51
214.9999999731386993
  0
CIRCLE
  5
2EF51
  8
0
 10
6598.2105793349801388
 20
292.952572047827573
 30
0.0
 40
0.48608057515
  0
ENDSEC
  0
EOF
