  0
SECTION
  2
HEADER
  9
$ACADVER
  1
AC1009
  9
$INSBASE
 10
6597.9010407344194391
 20
293.3501768336059854
 30
0.0
  9
$EXTMIN
 10
6596.6411982147192248
 20
293.345061574995384
 30
0.0
  9
$EXTMAX
 10
6599.1608832541196534
 20
296.7441045787060148
 30
0.0
  9
$LIMMIN
 10
0.0
 20
0.0
  9
$LIMMAX
 10
11.6929133858000007
 20
8.2677165353999982
  9
$ORTHOMODE
 70
     0
  9
$REGENMODE
 70
     1
  9
$FILLMODE
 70
     1
  9
$QTEXTMODE
 70
     0
  9
$MIRRTEXT
 70
     0
  9
$DRAGMODE
 70
     2
  9
$LTSCALE
 40
0.6431102362
  9
$OSMODE
 70
  4095
  9
$ATTMODE
 70
     1
  9
$TEXTSIZE
 40
0.2
  9
$TRACEWID
 40
0.05
  9
$TEXTSTYLE
  7
STANDARD
  9
$CLAYER
  8
0
  9
$CELTYPE
  6
BYLAYER
  9
$CECOLOR
 62
   256
  9
$DIMSCALE
 40
1.0
  9
$DIMASZ
 40
0.1875
  9
$DIMEXO
 40
0.0625
  9
$DIMDLI
 40
0.4443307087
  9
$DIMRND
 40
0.0
  9
$DIMDLE
 40
0.0
  9
$DIMEXE
 40
0.125
  9
$DIMTP
 40
0.01
  9
$DIMTM
 40
0.01
  9
$DIMTXT
 40
2.0
  9
$DIMCEN
 40
0.1052362205
  9
$DIMTSZ
 40
0.0
  9
$DIMTOL
 70
     1
  9
$DIMLIM
 70
     0
  9
$DIMTIH
 70
     1
  9
$DIMTOH
 70
     1
  9
$DIMSE1
 70
     0
  9
$DIMSE2
 70
     0
  9
$DIMTAD
 70
     0
  9
$DIMZIN
 70
     0
  9
$DIMBLK
  1

  9
$DIMASO
 70
     1
  9
$DIMSHO
 70
     1
  9
$DIMPOST
  1
\X
  9
$DIMAPOST
  1

  9
$DIMALT
 70
     1
  9
$DIMALTD
 70
     2
  9
$DIMALTF
 40
25.3999999999999986
  9
$DIMLFAC
 40
1.0
  9
$DIMTOFL
 70
     0
  9
$DIMTVP
 40
0.0
  9
$DIMTIX
 70
     0
  9
$DIMSOXD
 70
     0
  9
$DIMSAH
 70
     0
  9
$DIMBLK1
  1

  9
$DIMBLK2
  1

  9
$DIMSTYLE
  2
STANDARD
  9
$DIMCLRD
 70
     0
  9
$DIMCLRE
 70
     0
  9
$DIMCLRT
 70
     0
  9
$DIMTFAC
 40
1.0
  9
$DIMGAP
 40
0.09
  9
$LUNITS
 70
     2
  9
$LUPREC
 70
     4
  9
$SKETCHINC
 40
0.1
  9
$FILLETRAD
 40
0.0
  9
$AUNITS
 70
     0
  9
$AUPREC
 70
     0
  9
$MENU
  1
.
  9
$ELEVATION
 40
0.0
  9
$PELEVATION
 40
0.0
  9
$THICKNESS
 40
0.0
  9
$LIMCHECK
 70
     0
  9
$BLIPMODE
 70
     0
  9
$CHAMFERA
 40
0.0
  9
$CHAMFERB
 40
0.0
  9
$SKPOLY
 70
     0
  9
$TDCREATE
 40
2458060.468368056230247
  9
$TDUPDATE
 40
2460349.5045138890855014
  9
$TDINDWG
 40
0.8089769676
  9
$TDUSRTIMER
 40
0.8089769676
  9
$USRTIMER
 70
     1
  9
$ANGBASE
 50
0.0
  9
$ANGDIR
 70
     0
  9
$PDMODE
 70
     0
  9
$PDSIZE
 40
0.3125
  9
$PLINEWID
 40
0.0
  9
$COORDS
 70
     1
  9
$SPLFRAME
 70
     0
  9
$SPLINETYPE
 70
     6
  9
$SPLINESEGS
 70
     8
  9
$ATTDIA
 70
     1
  9
$ATTREQ
 70
     1
  9
$HANDLING
 70
     1
  9
$HANDSEED
  5
2F0AB
  9
$SURFTAB1
 70
     6
  9
$SURFTAB2
 70
     6
  9
$SURFTYPE
 70
     6
  9
$SURFU
 70
     6
  9
$SURFV
 70
     6
  9
$UCSNAME
  2

  9
$UCSORG
 10
0.0
 20
0.0
 30
0.0
  9
$UCSXDIR
 10
1.0
 20
0.0
 30
0.0
  9
$UCSYDIR
 10
0.0
 20
1.0
 30
0.0
  9
$PUCSNAME
  2

  9
$PUCSORG
 10
0.0
 20
0.0
 30
0.0
  9
$PUCSXDIR
 10
1.0
 20
0.0
 30
0.0
  9
$PUCSYDIR
 10
0.0
 20
1.0
 30
0.0
  9
$USERI1
 70
     0
  9
$USERI2
 70
     0
  9
$USERI3
 70
     0
  9
$USERI4
 70
     0
  9
$USERI5
 70
     0
  9
$USERR1
 40
0.0
  9
$USERR2
 40
0.0
  9
$USERR3
 40
0.0
  9
$USERR4
 40
0.0
  9
$USERR5
 40
0.0
  9
$WORLDVIEW
 70
     1
  9
$SHADEDGE
 70
     3
  9
$SHADEDIF
 70
    70
  9
$TILEMODE
 70
     1
  9
$MAXACTVP
 70
    64
  9
$PLIMCHECK
 70
     0
  9
$PEXTMIN
 10
1.0000000000000000E+20
 20
1.0000000000000000E+20
 30
1.0000000000000000E+20
  9
$PEXTMAX
 10
-1.0000000000000000E+20
 20
-1.0000000000000000E+20
 30
-1.0000000000000000E+20
  9
$PLIMMIN
 10
0.0
 20
0.0
  9
$PLIMMAX
 10
12.0
 20
9.0
  9
$UNITMODE
 70
     0
  9
$VISRETAIN
 70
     1
  9
$PLINEGEN
 70
     0
  9
$PSLTSCALE
 70
     1
  0
ENDSEC
  0
SECTION
  2
TABLES
  0
TABLE
  2
VPORT
 70
     1
  0
VPORT
  2
*ACTIVE
 70
     0
 10
0.0
 20
0.0
 11
1.0
 21
1.0
 12
2686.5356842891069391
 22
162.4649779743116085
 13
0.0
 23
0.0
 14
1.0
 24
1.0
 15
0.0
 25
0.0
 16
0.0
 26
0.0
 36
60.4960186965801583
 17
3911.3653564453120453
 27
132.5796051025390057
 37
0.0
 40
3.4260465898793031
 41
2.5251322751322749
 42
50.0
 43
0.0
 44
0.0
 50
0.0
 51
0.0
 71
     0
 72
   100
 73
     1
 74
     1
 75
     0
 76
     0
 77
     0
 78
     0
  0
ENDTAB
  0
TABLE
  2
LTYPE
 70
     2
  0
LTYPE
  2
CONTINUOUS
 70
     0
  3
Solid line
 72
    65
 73
     0
 40
0.0
  0
LTYPE
  2
PHANTOM2
 70
     0
  3
___ _ _ ___ _ _ ___ _ _ ___ _ _
 72
    65
 73
     6
 40
1.25
 49
0.625
 49
-0.125
 49
0.125
 49
-0.125
 49
0.125
 49
-0.125
  0
ENDTAB
  0
TABLE
  2
LAYER
 70
     2
  0
LAYER
  2
0
 70
     0
 62
   255
  6
CONTINUOUS
  0
LAYER
  2
DEFPOINTS
 70
     0
 62
     7
  6
CONTINUOUS
  0
ENDTAB
  0
TABLE
  2
STYLE
 70
     1
  0
STYLE
  2
STANDARD
 70
     0
 40
0.0
 41
0.8
 50
0.0
 71
     0
 42
0.2
  3
txt
  4

  0
ENDTAB
  0
TABLE
  2
VIEW
 70
     0
  0
ENDTAB
  0
TABLE
  2
UCS
 70
     0
  0
ENDTAB
  0
TABLE
  2
APPID
 70
    11
  0
APPID
  2
ACAD
 70
     0
  0
APPID
  2
ACAD_MLEADERVER
 70
     0
  0
APPID
  2
ACAD_EXEMPT_FROM_CAD_STANDARDS
 70
     0
  0
APPID
  2
ACAD_NAV_VCDISPLAY
 70
     0
  0
APPID
  2
ACAECLAYERSTANDARD
 70
     0
  0
APPID
  2
ACCMTRANSPARENCY
 70
     0
  0
APPID
  2
ACAD_DSTYLE_DIMJAG
 70
     0
  0
APPID
  2
ACAD_DSTYLE_DIMTALN
 70
     0
  0
APPID
  2
ACDBATTR
 70
     0
  0
APPID
  2
ACADANNOTATIVE
 70
     0
  0
APPID
  2
DCO15
 70
     0
  0
ENDTAB
  0
TABLE
  2
DIMSTYLE
 70
     1
  0
DIMSTYLE
  2
STANDARD
 70
     0
  3

  4

  5

  6

  7

 40
1.0
 41
0.1875
 42
0.0625
 43
0.38
 44
0.125
 45
0.0
 46
0.0
 47
0.01
 48
0.01
140
0.15625
141
0.09
142
0.0
143
25.3999999999999986
144
1.0
145
0.0
146
1.0
147
0.09
 71
     1
 72
     0
 73
     1
 74
     1
 75
     0
 76
     0
 77
     0
 78
     4
170
     0
171
     2
172
     0
173
     0
174
     0
175
     0
176
     0
177
     0
178
     0
  0
ENDTAB
  0
ENDSEC
  0
SECTION
  2
BLOCKS
  0
BLOCK
  8
0
  2
$MODEL_SPACE
 70
     0
 10
0.0
 20
0.0
 30
0.0
  3
$MODEL_SPACE
  1

  0
ENDBLK
  5
21
  8
0
  0
BLOCK
 67
     1
  8
0
  2
$PAPER_SPACE
 70
     0
 10
0.0
 20
0.0
 30
0.0
  3
$PAPER_SPACE
  1

  0
ENDBLK
  5
1D
 67
     1
  8
0
  0
BLOCK
  8
0
  2
_FILLED
 70
     0
 10
0.0
 20
0.0
 30
0.0
  3
_FILLED
  1

  0
SOLID
  5
2EA64
  8
0
  6
BYBLOCK
 62
     0
 10
0.0
 20
0.0
 30
0.0
 11
-1.0
 21
0.1666666667
 31
0.0
 12
-1.0
 22
-0.1666666667
 32
0.0
 13
-1.0
 23
-0.1666666667
 33
0.0
  0
ENDBLK
  5
2EA65
  8
0
  6
BYBLOCK
 62
     0
  0
ENDSEC
  0
SECTION
  2
ENTITIES
  0
ATTDEF
  5
26A5B
  8
DEFPOINTS
 10
6597.8984894125560459
 20
293.3483949083287143
 30
0.0
 40
0.001
  1
P34871-BV
  3

  2
MODELNUMBER
 70
     0
1001
ACDBATTR
1070
     0
1070
     1
  0
ATTDEF
  5
26A5C
  8
DEFPOINTS
 10
6597.8983636028979163
 20
293.3467280679495843
 30
0.0
 40
0.001
  1
VICE
  3

  2
TRADENAME
 70
     0
1001
ACDBATTR
1070
     0
1070
     1
  0
ATTDEF
  5
26A5D
  8
DEFPOINTS
 10
6597.8984894125560459
 20
293.345061574995384
 30
0.0
 40
0.001
  1
BATH FAUCET HANDLE
  3

  2
PRODUCT
 70
     0
1001
ACDBATTR
1070
     0
1070
     1
  0
LINE
  5
2EF79
  8
0
 10
6598.4522021517186658
 20
295.9435788271222805
 30
0.0
 11
6598.4522021517186658
 21
295.2427162037059816
 31
0.0
  0
LINE
  5
2EF7A
  8
0
 10
6597.3498793171193029
 20
295.9435788271222805
 30
0.0
 11
6597.3498793171193029
 21
295.2427162037059816
 31
0.0
  0
LINE
  5
2EF7B
  8
0
 10
6596.6411982147192248
 20
293.3501768336059854
 30
0.0
 11
6599.1608832541196534
 21
293.3501768336059854
 31
0.0
  0
LINE
  5
2EF7C
  8
0
 10
6597.0638124630049788
 20
293.7438776210058791
 30
0.0
 11
6598.7382690058348089
 21
293.7438776210058791
 31
0.0
  0
LINE
  5
2EF7D
  8
0
 10
6596.6411982147192248
 20
293.5964525770908722
 30
0.0
 11
6596.6411982147192248
 21
293.3501768336059854
 31
0.0
  0
LINE
  5
2EF7E
  8
0
 10
6596.6692767080267004
 20
293.6341909327281883
 30
0.0
 11
6597.0072049295440593
 21
293.7355693991930252
 31
0.0
  0
ARC
  5
2EF7F
  8
0
 10
6596.6805982147188843
 20
293.5964525770908722
 30
0.0
 40
0.0394
 50
106.6992442355674058
 51
180.0
  0
ARC
  5
2EF80
  8
0
 10
6597.0638124630049788
 20
293.5468776210058763
 30
0.0
 40
0.197
 50
90.0
 51
106.6992442355674058
  0
CIRCLE
  5
2EF81
  8
0
 10
6597.9010407344194391
 20
296.1541045787059829
 30
0.0
 40
0.5899999999999999
  0
LINE
  5
2EF82
  8
0
 10
6597.4288857809979163
 20
295.313562660405978
 30
0.0
 11
6597.6010407344192572
 21
295.313562660405978
 31
0.0
  0
LINE
  5
2EF83
  8
0
 10
6597.3026155376192037
 20
295.1872924170272086
 30
0.0
 11
6597.3026155376192037
 21
293.7935626604058825
 31
0.0
  0
LINE
  5
2EF84
  8
0
 10
6597.4149557774089772
 20
295.3077926639953148
 30
0.0
 11
6597.3083855340310038
 21
295.2012224206166024
 31
0.0
  0
ARC
  5
2EF85
  8
0
 10
6597.4288857809979163
 20
295.2938626604059777
 30
0.0
 40
0.0197
 50
90.0
 51
134.9999999999930935
  0
ARC
  5
2EF86
  8
0
 10
6597.3223155376208524
 20
295.1872924170272086
 30
0.0
 40
0.0197
 50
135.0000000000023022
 51
179.9999999999934914
  0
LINE
  5
2EF87
  8
0
 10
6597.3326155376198585
 20
293.7635626604059098
 30
0.0
 11
6598.4694659312199292
 21
293.7635626604059098
 31
0.0
  0
ARC
  5
2EF88
  8
0
 10
6597.3326155376198585
 20
293.7935626604059962
 30
0.0
 40
0.03
 50
180.0000000000032117
 51
270.0
  0
LINE
  5
2EF89
  8
0
 10
6597.6254501832199821
 20
293.7635626604059098
 30
0.0
 11
6597.6254501832199821
 21
293.7438776210058791
 31
0.0
  0
LINE
  5
2EF8A
  8
0
 10
6597.6010407344192572
 20
295.6460691468706727
 30
0.0
 11
6597.6010407344192572
 21
294.5385626604060008
 31
0.0
  0
ARC
  5
2EF8B
  8
0
 10
6597.9010407344194391
 20
294.5385626604060008
 30
0.0
 40
0.3000000000000007
 50
180.0
 51
0.0
  0
LINE
  5
2EF8C
  8
0
 10
6599.1608832541196534
 20
293.5964525770908722
 30
0.0
 11
6599.1608832541196534
 21
293.3501768336059854
 31
0.0
  0
LINE
  5
2EF8D
  8
0
 10
6599.1328047608121778
 20
293.6341909327281883
 30
0.0
 11
6598.7948765392957284
 21
293.7355693991930252
 31
0.0
  0
ARC
  5
2EF8E
  8
0
 10
6599.1214832541190844
 20
293.5964525770908722
 30
0.0
 40
0.0394
 50
0.0
 51
73.30075576443258
  0
ARC
  5
2EF8F
  8
0
 10
6598.7382690058348089
 20
293.5468776210058763
 30
0.0
 40
0.197
 50
73.30075576443258
 51
90.0
  0
LINE
  5
2EF90
  8
0
 10
6598.3731956878409619
 20
295.313562660405978
 30
0.0
 11
6598.2010407344187115
 21
295.313562660405978
 31
0.0
  0
LINE
  5
2EF91
  8
0
 10
6598.499465931218765
 20
295.1872924170272086
 30
0.0
 11
6598.499465931218765
 21
293.7935626604058825
 31
0.0
  0
LINE
  5
2EF92
  8
0
 10
6598.3871256914299011
 20
295.3077926639953148
 30
0.0
 11
6598.4936959348087839
 21
295.2012224206166024
 31
0.0
  0
ARC
  5
2EF93
  8
0
 10
6598.3731956878409619
 20
295.2938626604059777
 30
0.0
 40
0.0197
 50
45.0000000000068994
 51
90.0
  0
ARC
  5
2EF94
  8
0
 10
6598.4797659312189353
 20
295.1872924170272086
 30
0.0
 40
0.0197
 50
0.0000000000065138
 51
44.9999999999976907
  0
ARC
  5
2EF95
  8
0
 10
6598.4694659312199292
 20
293.7935626604059962
 30
0.0
 40
0.03
 50
270.0
 51
359.9999999999968168
  0
LINE
  5
2EF96
  8
0
 10
6598.4936959348087839
 20
295.2012224206166024
 30
0.0
 11
6598.2010407344187115
 21
295.2012224206166024
 31
0.0
  0
LINE
  5
2EF97
  8
0
 10
6598.1766312856188961
 20
293.7635626604059098
 30
0.0
 11
6598.1766312856188961
 21
293.7438776210058791
 31
0.0
  0
LINE
  5
2EF98
  8
0
 10
6598.2010407344187115
 20
295.6460691468706727
 30
0.0
 11
6598.2010407344187115
 21
294.5385626604060008
 31
0.0
  0
LINE
  5
2EF99
  8
0
 10
6597.3083855339300499
 20
295.2012224205166149
 30
0.0
 11
6597.6010407344192572
 21
295.2012224205166149
 31
0.0
  0
LINE
  5
2EF9A
  8
0
 10
6596.6692767081303828
 20
293.6341909327591111
 30
0.0
 11
6599.132804760707586
 21
293.6341909327591111
 31
0.0
  0
ARC
  5
2EF9C
  8
0
 10
6597.901040734518574
 20
294.5385626604060008
 30
0.0
 40
0.3231166159787033
 50
158.1956083936273956
 51
21.8043917018294309
  0
LINE
  5
2EF9D
  8
0
 10
6597.833940734519274
 20
294.2461629510809189
 30
0.0
 11
6597.833940734519274
 21
294.2224899828119078
 31
0.0
  0
LINE
  5
2EF9E
  8
0
 10
6597.9681407345187836
 20
294.2461629511266779
 30
0.0
 11
6597.9681407345187836
 21
294.2224899828119078
 31
0.0
  0
ENDSEC
  0
EOF
