  0
SECTION
  2
HEADER
  9
$ACADVER
  1
AC1009
  9
$INSBASE
 10
6617.2977684875586419
 20
290.0286655100326811
 30
0.0
  9
$EXTMIN
 10
6611.3399291353161971
 20
290.0014069371310939
 30
-0.0000000000000058
  9
$EXTMAX
 10
6623.4674824882249595
 20
297.6075690863212913
 30
0.0000000000000104
  9
$LIMMIN
 10
0.0
 20
0.0
  9
$LIMMAX
 10
11.6929133858000007
 20
8.2677165353999982
  9
$ORTHOMODE
 70
     0
  9
$REGENMODE
 70
     1
  9
$FILLMODE
 70
     1
  9
$QTEXTMODE
 70
     0
  9
$MIRRTEXT
 70
     0
  9
$DRAGMODE
 70
     2
  9
$LTSCALE
 40
0.6431102362
  9
$OSMODE
 70
  4095
  9
$ATTMODE
 70
     1
  9
$TEXTSIZE
 40
0.2
  9
$TRACEWID
 40
0.05
  9
$TEXTSTYLE
  7
STANDARD
  9
$CLAYER
  8
0
  9
$CELTYPE
  6
BYLAYER
  9
$CECOLOR
 62
   256
  9
$DIMSCALE
 40
1.0
  9
$DIMASZ
 40
0.1875
  9
$DIMEXO
 40
0.0625
  9
$DIMDLI
 40
0.4443307087
  9
$DIMRND
 40
0.0
  9
$DIMDLE
 40
0.0
  9
$DIMEXE
 40
0.125
  9
$DIMTP
 40
0.01
  9
$DIMTM
 40
0.01
  9
$DIMTXT
 40
2.0
  9
$DIMCEN
 40
0.1052362205
  9
$DIMTSZ
 40
0.0
  9
$DIMTOL
 70
     1
  9
$DIMLIM
 70
     0
  9
$DIMTIH
 70
     1
  9
$DIMTOH
 70
     1
  9
$DIMSE1
 70
     0
  9
$DIMSE2
 70
     0
  9
$DIMTAD
 70
     0
  9
$DIMZIN
 70
     0
  9
$DIMBLK
  1

  9
$DIMASO
 70
     1
  9
$DIMSHO
 70
     1
  9
$DIMPOST
  1
\X
  9
$DIMAPOST
  1

  9
$DIMALT
 70
     1
  9
$DIMALTD
 70
     2
  9
$DIMALTF
 40
25.3999999999999986
  9
$DIMLFAC
 40
1.0
  9
$DIMTOFL
 70
     0
  9
$DIMTVP
 40
0.0
  9
$DIMTIX
 70
     0
  9
$DIMSOXD
 70
     0
  9
$DIMSAH
 70
     0
  9
$DIMBLK1
  1

  9
$DIMBLK2
  1

  9
$DIMSTYLE
  2
STANDARD
  9
$DIMCLRD
 70
     0
  9
$DIMCLRE
 70
     0
  9
$DIMCLRT
 70
     0
  9
$DIMTFAC
 40
1.0
  9
$DIMGAP
 40
0.09
  9
$LUNITS
 70
     2
  9
$LUPREC
 70
     4
  9
$SKETCHINC
 40
0.1
  9
$FILLETRAD
 40
0.0
  9
$AUNITS
 70
     0
  9
$AUPREC
 70
     0
  9
$MENU
  1
.
  9
$ELEVATION
 40
0.0
  9
$PELEVATION
 40
0.0
  9
$THICKNESS
 40
0.0
  9
$LIMCHECK
 70
     0
  9
$BLIPMODE
 70
     0
  9
$CHAMFERA
 40
0.0
  9
$CHAMFERB
 40
0.0
  9
$SKPOLY
 70
     0
  9
$TDCREATE
 40
2458060.468368056230247
  9
$TDUPDATE
 40
2460725.7136689820326865
  9
$TDINDWG
 40
0.8137454861
  9
$TDUSRTIMER
 40
0.8137454861
  9
$USRTIMER
 70
     1
  9
$ANGBASE
 50
0.0
  9
$ANGDIR
 70
     0
  9
$PDMODE
 70
     0
  9
$PDSIZE
 40
0.3125
  9
$PLINEWID
 40
0.0
  9
$COORDS
 70
     1
  9
$SPLFRAME
 70
     0
  9
$SPLINETYPE
 70
     6
  9
$SPLINESEGS
 70
     8
  9
$ATTDIA
 70
     1
  9
$ATTREQ
 70
     1
  9
$HANDLING
 70
     1
  9
$HANDSEED
  5
2F3CE
  9
$SURFTAB1
 70
     6
  9
$SURFTAB2
 70
     6
  9
$SURFTYPE
 70
     6
  9
$SURFU
 70
     6
  9
$SURFV
 70
     6
  9
$UCSNAME
  2

  9
$UCSORG
 10
0.0
 20
0.0
 30
0.0
  9
$UCSXDIR
 10
1.0
 20
0.0
 30
0.0
  9
$UCSYDIR
 10
0.0
 20
1.0
 30
0.0
  9
$PUCSNAME
  2

  9
$PUCSORG
 10
0.0
 20
0.0
 30
0.0
  9
$PUCSXDIR
 10
1.0
 20
0.0
 30
0.0
  9
$PUCSYDIR
 10
0.0
 20
1.0
 30
0.0
  9
$USERI1
 70
     0
  9
$USERI2
 70
     0
  9
$USERI3
 70
     0
  9
$USERI4
 70
     0
  9
$USERI5
 70
     0
  9
$USERR1
 40
0.0
  9
$USERR2
 40
0.0
  9
$USERR3
 40
0.0
  9
$USERR4
 40
0.0
  9
$USERR5
 40
0.0
  9
$WORLDVIEW
 70
     1
  9
$SHADEDGE
 70
     3
  9
$SHADEDIF
 70
    70
  9
$TILEMODE
 70
     1
  9
$MAXACTVP
 70
    64
  9
$PLIMCHECK
 70
     0
  9
$PEXTMIN
 10
1.0000000000000000E+20
 20
1.0000000000000000E+20
 30
1.0000000000000000E+20
  9
$PEXTMAX
 10
-1.0000000000000000E+20
 20
-1.0000000000000000E+20
 30
-1.0000000000000000E+20
  9
$PLIMMIN
 10
0.0
 20
0.0
  9
$PLIMMAX
 10
12.0
 20
9.0
  9
$UNITMODE
 70
     0
  9
$VISRETAIN
 70
     1
  9
$PLINEGEN
 70
     0
  9
$PSLTSCALE
 70
     1
  0
ENDSEC
  0
SECTION
  2
TABLES
  0
TABLE
  2
VPORT
 70
     1
  0
VPORT
  2
*ACTIVE
 70
     0
 10
0.0
 20
0.0
 11
1.0
 21
1.0
 12
2706.0383493664580783
 22
161.2248829091871016
 13
0.0
 23
0.0
 14
1.0
 24
1.0
 15
0.0
 25
0.0
 16
0.0
 26
0.0
 36
60.4960186965801583
 17
3911.3653564453120453
 27
132.5796051025390057
 37
0.0
 40
7.6584747960265602
 41
2.1449438202247189
 42
50.0
 43
0.0
 44
0.0
 50
0.0
 51
0.0
 71
     0
 72
   100
 73
     1
 74
     1
 75
     0
 76
     0
 77
     0
 78
     0
  0
ENDTAB
  0
TABLE
  2
LTYPE
 70
     2
  0
LTYPE
  2
CONTINUOUS
 70
     0
  3
Solid line
 72
    65
 73
     0
 40
0.0
  0
LTYPE
  2
PHANTOM2
 70
     0
  3
___ _ _ ___ _ _ ___ _ _ ___ _ _
 72
    65
 73
     6
 40
1.25
 49
0.625
 49
-0.125
 49
0.125
 49
-0.125
 49
0.125
 49
-0.125
  0
ENDTAB
  0
TABLE
  2
LAYER
 70
     2
  0
LAYER
  2
0
 70
     0
 62
   255
  6
CONTINUOUS
  0
LAYER
  2
DEFPOINTS
 70
     0
 62
     7
  6
CONTINUOUS
  0
ENDTAB
  0
TABLE
  2
STYLE
 70
     1
  0
STYLE
  2
STANDARD
 70
     0
 40
0.0
 41
0.8
 50
0.0
 71
     0
 42
0.2
  3
txt
  4

  0
ENDTAB
  0
TABLE
  2
VIEW
 70
     0
  0
ENDTAB
  0
TABLE
  2
UCS
 70
     0
  0
ENDTAB
  0
TABLE
  2
APPID
 70
    11
  0
APPID
  2
ACAD
 70
     0
  0
APPID
  2
ACAD_MLEADERVER
 70
     0
  0
APPID
  2
ACAD_EXEMPT_FROM_CAD_STANDARDS
 70
     0
  0
APPID
  2
ACAD_NAV_VCDISPLAY
 70
     0
  0
APPID
  2
ACAECLAYERSTANDARD
 70
     0
  0
APPID
  2
ACCMTRANSPARENCY
 70
     0
  0
APPID
  2
ACAD_DSTYLE_DIMJAG
 70
     0
  0
APPID
  2
ACAD_DSTYLE_DIMTALN
 70
     0
  0
APPID
  2
ACDBATTR
 70
     0
  0
APPID
  2
ACADANNOTATIVE
 70
     0
  0
APPID
  2
DCO15
 70
     0
  0
ENDTAB
  0
TABLE
  2
DIMSTYLE
 70
     1
  0
DIMSTYLE
  2
STANDARD
 70
     0
  3

  4

  5

  6

  7

 40
1.0
 41
0.1875
 42
0.0625
 43
0.38
 44
0.125
 45
0.0
 46
0.0
 47
0.01
 48
0.01
140
0.15625
141
0.09
142
0.0
143
25.3999999999999986
144
1.0
145
0.0
146
1.0
147
0.09
 71
     1
 72
     0
 73
     1
 74
     1
 75
     0
 76
     0
 77
     0
 78
     4
170
     0
171
     2
172
     0
173
     0
174
     0
175
     0
176
     0
177
     0
178
     0
  0
ENDTAB
  0
ENDSEC
  0
SECTION
  2
BLOCKS
  0
BLOCK
  8
0
  2
$MODEL_SPACE
 70
     0
 10
0.0
 20
0.0
 30
0.0
  3
$MODEL_SPACE
  1

  0
ENDBLK
  5
21
  8
0
  0
BLOCK
 67
     1
  8
0
  2
$PAPER_SPACE
 70
     0
 10
0.0
 20
0.0
 30
0.0
  3
$PAPER_SPACE
  1

  0
ENDBLK
  5
1D
 67
     1
  8
0
  0
BLOCK
  8
0
  2
_FILLED
 70
     0
 10
0.0
 20
0.0
 30
0.0
  3
_FILLED
  1

  0
SOLID
  5
2EA64
  8
0
  6
BYBLOCK
 62
     0
 10
0.0
 20
0.0
 30
0.0
 11
-1.0
 21
0.1666666667
 31
0.0
 12
-1.0
 22
-0.1666666667
 32
0.0
 13
-1.0
 23
-0.1666666667
 33
0.0
  0
ENDBLK
  5
2EA65
  8
0
  6
BYBLOCK
 62
     0
  0
ENDSEC
  0
SECTION
  2
ENTITIES
  0
ATTDEF
  5
26A5B
  8
DEFPOINTS
 10
6617.2942967174531077
 20
290.0271549191814984
 30
0.0
 40
0.001
  1
P34884-BN
  3

  2
MODELNUMBER
 70
     0
1001
ACDBATTR
1070
     0
1070
     1
  0
ATTDEF
  5
26A5C
  8
DEFPOINTS
 10
6617.2941709077958876
 20
290.0254880788024252
 30
0.0
 40
0.001
  1

  3

  2
TRADENAME
 70
     0
1001
ACDBATTR
1070
     0
1070
     1
  0
ATTDEF
  5
26A5D
  8
DEFPOINTS
 10
6617.2942967174531077
 20
290.0238215858482249
 30
0.0
 40
0.001
  1
BATHROOM SINK FAUCET
  3

  2
PRODUCT
 70
     0
1001
ACDBATTR
1070
     0
1070
     1
  0
LINE
  5
2F1D3
  8
0
 10
6616.1727684875577324
 20
290.0486655100327198
 30
0.0
 11
6616.1727684875577324
 21
290.2348518131454966
 31
0.0
  0
LINE
  5
2F1D4
  8
0
 10
6616.746587385157909
 20
297.0386654832325917
 30
0.0
 11
6616.746587385157909
 21
295.9922418997326758
 31
0.0
  0
LINE
  5
2F1D5
  8
0
 10
6612.1727681926577134
 20
290.0286655100326811
 30
0.0
 11
6614.4227687824577515
 21
290.0286655100326811
 31
0.0
  0
LINE
  5
2F1D6
  8
0
 10
6616.1927684875572595
 20
290.0286655100326811
 30
0.0
 11
6618.4027684875591149
 21
290.0286655100326811
 31
0.0
  0
LINE
  5
2F1D7
  8
0
 10
6612.5935111504613815
 20
290.3618774832326039
 30
0.0
 11
6614.0020258246549929
 21
290.3618774832326039
 31
0.0
  0
LINE
  5
2F1D8
  8
0
 10
6616.5935114457706732
 20
290.3618774832326039
 30
0.0
 11
6618.0020255293457012
 21
290.3618774832326039
 31
0.0
  0
LINE
  5
2F1D9
  8
0
 10
6612.1727681926577134
 20
290.0286655100326811
 30
0.0
 11
6612.1727681926577134
 21
290.2348516778113208
 31
0.0
  0
LINE
  5
2F1DA
  8
0
 10
6612.2029127589776181
 20
290.2731491574594997
 30
0.0
 11
6612.5472574730110864
 21
290.3563676797483026
 31
0.0
  0
ARC
  5
2F1DB
  8
0
 10
6612.2121681926591918
 20
290.2348516778113208
 30
0.0
 40
0.0394
 50
103.5862872427742047
 51
180.0000000000032117
  0
ARC
  5
2F1DC
  8
0
 10
6612.5935111504613815
 20
290.1649774832326898
 30
0.0
 40
0.1969
 50
90.0
 51
103.5862872427742047
  0
LINE
  5
2F1DD
  8
0
 10
6611.5914792419225705
 20
291.1689641399327115
 30
0.0
 11
6614.7540998104668688
 21
291.1689161610964902
 31
0.0
  0
LINE
  5
2F1DE
  8
0
 10
6612.6713762285589837
 20
290.8841687209302904
 30
0.0
 11
6612.3862478523578829
 21
291.1689641399327115
 31
0.0
  0
LINE
  5
2F1DF
  8
0
 10
6612.7348084668710726
 20
290.8513374652326888
 30
0.0
 11
6612.797737765176862
 21
290.8513374652326888
 31
0.0
  0
LINE
  5
2F1E0
  8
0
 10
6613.7977992099386029
 20
290.8513374652326888
 30
0.0
 11
6613.8607285082462113
 21
290.8513374652326888
 31
0.0
  0
ARC
  5
2F1E1
  8
0
 10
6612.7147752588125513
 20
290.7349385883355808
 30
0.0
 40
0.1181102365080359
 50
1.0000000909349369
 51
80.2353820852288919
  0
ARC
  5
2F1E2
  8
0
 10
6612.7548367379031333
 20
290.9677268047992129
 30
0.0
 40
0.1181
 50
225.0334729664135978
 51
260.2353820852288777
  0
LINE
  5
2F1E3
  8
0
 10
6612.8328675065577045
 20
290.7369998963749822
 30
0.0
 11
6612.8389007796577062
 21
290.3913539110400848
 31
0.0
  0
ARC
  5
2F1E4
  8
0
 10
6612.8689459436091056
 20
290.3918783513262838
 30
0.0
 40
0.0300497406715615
 50
180.9999999974156992
 51
266.7317989249032735
  0
LINE
  5
2F1E5
  8
0
 10
6612.7758047402803641
 20
290.8913643793326855
 30
0.0
 11
6613.8197322348341913
 21
290.8913643793326855
 31
0.0
  0
LINE
  5
2F1E6
  8
0
 10
6612.8981659718983792
 20
290.8016900952326864
 30
0.0
 11
6613.6973710032161762
 21
290.8016900952326864
 31
0.0
  0
ARC
  5
2F1E7
  8
0
 10
6612.7911357703605972
 20
290.8824949802793753
 30
0.0
 40
0.0257365284265966
 50
176.8270467660333054
 51
226.4801306192177037
  0
ARC
  5
2F1E8
  8
0
 10
6612.806897637401562
 20
290.899092990991619
 30
0.0
 40
0.0486260546825982
 50
226.4801306192177037
 51
259.1420592169928909
  0
ARC
  5
2F1E9
  8
0
 10
6612.7515508332753598
 20
290.6819052836364108
 30
0.0
 40
0.1756146259257324
 50
57.756054442300389
 51
74.7517706483264845
  0
ARC
  5
2F1EA
  8
0
 10
6619.5073502199702489
 20
301.453372627723013
 30
0.0
 40
12.5391543164402002
 50
237.9063874453790106
 51
238.0901615505106008
  0
ARC
  5
2F1EB
  8
0
 10
6612.907547948242609
 20
290.8529591854937166
 30
0.0
 40
0.0521204479669967
 50
237.2505496005591965
 51
259.6299097256774076
  0
ARC
  5
2F1EC
  8
0
 10
6612.7762631379982849
 20
290.8797869814630985
 30
0.0
 40
0.0115864692593064
 50
92.2673957356396386
 51
159.1043064531577045
  0
LINE
  5
2F1ED
  8
0
 10
6611.8961021235963926
 20
291.5626649273327189
 30
0.0
 11
6614.7280391642207178
 21
291.5626169484966113
 31
0.0
  0
LINE
  5
2F1EE
  8
0
 10
6611.8503435724305746
 20
291.1889514407603201
 30
0.0
 11
6611.8552064732812141
 21
291.5223614046853982
 31
0.0
  0
ARC
  5
2F1EF
  8
0
 10
6611.8700414773511511
 20
291.1886641399327118
 30
0.0
 40
0.0197
 50
179.164380282274891
 51
270.0
  0
LINE
  5
2F1F0
  8
0
 10
6611.5717822131318826
 20
291.1890062755182953
 30
0.0
 11
6611.5868359424430309
 21
292.0556619294650886
 31
0.0
  0
ARC
  5
2F1F1
  8
0
 10
6611.5914792419225705
 20
291.1886641399327118
 30
0.0
 40
0.0197
 50
179.0048776315541943
 51
270.0
  0
LINE
  5
2F1F2
  8
0
 10
6611.6467388378368923
 20
292.1138461478327031
 30
0.0
 11
6611.9960422317826669
 21
292.1138461478327031
 31
0.0
  0
LINE
  5
2F1F3
  8
0
 10
6611.6330540679582555
 20
292.1083171419177802
 30
0.0
 11
6611.592848201356901
 21
292.0694907879646962
 31
0.0
  0
ARC
  5
2F1F4
  8
0
 10
6611.6467388378368923
 20
292.0941461478327028
 30
0.0
 40
0.0197
 50
90.0
 51
133.9999999224473868
  0
ARC
  5
2F1F5
  8
0
 10
6611.6065329712364473
 20
292.0553197938795051
 30
0.0
 40
0.0197
 50
133.999999922445113
 51
179.0048776315638861
  0
ARC
  5
2F1F6
  8
0
 10
6611.8961021235963926
 20
291.5217649273325833
 30
0.0
 40
0.0409
 50
90.0
 51
179.1643802822717078
  0
LINE
  5
2F1F7
  8
0
 10
6612.0559125900826984
 20
292.0556949986951736
 30
0.0
 11
6612.0645184619379506
 21
291.5626649273327189
 31
0.0
  0
LINE
  5
2F1F8
  8
0
 10
6612.0097270016804032
 20
292.1083171419001019
 30
0.0
 11
6612.0499003603836172
 21
292.0695221803579784
 31
0.0
  0
ARC
  5
2F1F9
  8
0
 10
6611.9960422317826669
 20
292.0941461478327028
 30
0.0
 40
0.0197
 50
46.000000003362878
 51
90.0
  0
ARC
  5
2F1FA
  8
0
 10
6612.0362155904867905
 20
292.0553511862905225
 30
0.0
 40
0.0197
 50
0.9999999939360863
 51
46.0000000033583589
  0
LINE
  5
2F1FB
  8
0
 10
6612.0499327937177441
 20
292.0694907879646962
 30
0.0
 11
6611.592848201356901
 21
292.0694907879646962
 31
0.0
  0
LINE
  5
2F1FC
  8
0
 10
6614.4227687824577515
 20
290.0286655100326811
 30
0.0
 11
6614.4227687824577515
 21
290.2348516778113208
 31
0.0
  0
LINE
  5
2F1FD
  8
0
 10
6614.3926242161378468
 20
290.2731491574594997
 30
0.0
 11
6614.0482795021061975
 21
290.3563676797483026
 31
0.0
  0
ARC
  5
2F1FE
  8
0
 10
6614.383368782458092
 20
290.2348516778113208
 30
0.0
 40
0.0394
 50
359.9999999999968168
 51
76.413712757225781
  0
ARC
  5
2F1FF
  8
0
 10
6614.0020258246549929
 20
290.1649774832326898
 30
0.0
 40
0.1969
 50
76.413712757225781
 51
90.0
  0
LINE
  5
2F200
  8
0
 10
6613.9241607465583002
 20
290.8841687209302904
 30
0.0
 11
6614.2092891227594009
 21
291.1689641399327115
 31
0.0
  0
ARC
  5
2F201
  8
0
 10
6613.8807617163020041
 20
290.7349385883355808
 30
0.0
 40
0.1181102365080359
 50
99.7646179147711081
 51
178.9999999090649965
  0
ARC
  5
2F202
  8
0
 10
6613.8407002372114221
 20
290.9677268047992129
 30
0.0
 40
0.1181
 50
279.7646179147711223
 51
314.9665270335863738
  0
LINE
  5
2F203
  8
0
 10
6613.7626694685595794
 20
290.7369998963749822
 30
0.0
 11
6613.7566361954577587
 21
290.3913539110400848
 31
0.0
  0
ARC
  5
2F204
  8
0
 10
6613.7265910315072688
 20
290.3918783513262838
 30
0.0
 40
0.0300497406715615
 50
273.2682010750967265
 51
359.0000000025842724
  0
ARC
  5
2F205
  8
0
 10
6613.8044012047539582
 20
290.8824949802793753
 30
0.0
 40
0.0257365284265966
 50
313.5198693807823247
 51
3.1729532339667061
  0
ARC
  5
2F206
  8
0
 10
6613.7886393377139029
 20
290.899092990991619
 30
0.0
 40
0.0486260546825982
 50
280.857940783006427
 51
313.5198693807823247
  0
ARC
  5
2F207
  8
0
 10
6613.8439861418419241
 20
290.6819052836364108
 30
0.0
 40
0.1756146259257324
 50
105.2482293516735012
 51
122.2439455576996039
  0
ARC
  5
2F208
  8
0
 10
6607.0881867551461255
 20
301.453372627723013
 30
0.0
 40
12.5391543164402002
 50
301.9098384494894276
 51
302.0936125546210178
  0
ARC
  5
2F209
  8
0
 10
6613.6879890268746749
 20
290.8529591854937166
 30
0.0
 40
0.0521204479669967
 50
280.3700902743225924
 51
302.7494503994407751
  0
ARC
  5
2F20A
  8
0
 10
6613.8192738371189989
 20
290.8797869814630985
 30
0.0
 40
0.0115864692593064
 50
20.8956935468422706
 51
87.7326042643603756
  0
LINE
  5
2F20B
  8
0
 10
6614.7737977153856264
 20
291.1889034619242125
 30
0.0
 11
6614.7689348145377153
 21
291.5223134258492905
 31
0.0
  0
ARC
  5
2F20C
  8
0
 10
6614.7540998104668688
 20
291.1886161610964905
 30
0.0
 40
0.0197
 50
270.0
 51
0.8356197177250821
  0
ARC
  5
2F20D
  8
0
 10
6614.7280391642207178
 20
291.5217169484964757
 30
0.0
 40
0.0409
 50
0.8356197177283387
 51
90.0
  0
LINE
  5
2F20E
  8
0
 10
6612.2029127589776181
 20
290.2731491574594997
 30
0.0
 11
6614.3926242161378468
 21
290.2731491574594997
 31
0.0
  0
LINE
  5
2F20F
  8
0
 10
6616.2029124939053872
 20
290.2731491574594997
 30
0.0
 11
6618.3926244812109871
 21
290.2731491574594997
 31
0.0
  0
LINE
  5
2F210
  8
0
 10
6616.2029130681112292
 20
290.2731492962331004
 30
0.0
 11
6616.5472578394410448
 21
290.3563676969363883
 31
0.0
  0
ARC
  5
2F211
  8
0
 10
6616.1927684875572595
 20
290.0486655100327198
 30
0.0
 40
0.02
 50
180.0
 51
270.0
  0
ARC
  5
2F212
  8
0
 10
6616.2121684875583014
 20
290.2348518131454966
 30
0.0
 40
0.0394
 50
103.5862659514684054
 51
180.0
  0
ARC
  5
2F213
  8
0
 10
6616.5935114457706732
 20
290.1649774832326898
 30
0.0
 40
0.1969
 50
90.0
 51
103.5862659514177011
  0
ARC
  5
2F214
  8
0
 10
6617.2977684875586419
 20
297.0386654832325917
 30
0.0
 40
0.5511811024000002
 50
90.0
 51
180.0
  0
LINE
  5
2F215
  8
0
 10
6616.8631559277519045
 20
295.8756733572326993
 30
0.0
 11
6617.7323810473635604
 21
295.8756733572326993
 31
0.0
  0
LINE
  5
2F216
  8
0
 10
6616.7583031139292871
 20
295.9639576284675968
 30
0.0
 11
6616.834871656523319
 21
295.8873890859676976
 31
0.0
  0
ARC
  5
2F217
  8
0
 10
6616.7865873851578726
 20
295.9922418997326758
 30
0.0
 40
0.04
 50
180.0
 51
225.000000035514006
  0
ARC
  5
2F218
  8
0
 10
6616.8631559277519045
 20
295.9156733572326061
 30
0.0
 40
0.04
 50
225.000000035514006
 51
270.0
  0
LINE
  5
2F219
  8
0
 10
6616.77505960165945
 20
295.9472011407585228
 30
0.0
 11
6616.77505960165945
 21
295.2059342639861939
 31
0.0
  0
ARC
  5
2F21A
  8
0
 10
6617.3026425215148265
 20
294.73407762011459
 30
0.0
 40
0.535131099638058
 50
211.3668656529991097
 51
269.4781435582754057
  0
ARC
  5
2F21B
  8
0
 10
6617.4288767861444285
 20
294.8110311781647965
 30
0.0
 40
0.6829720265261426
 50
183.8510089472312075
 51
211.3668656529991097
  0
ARC
  5
2F21C
  8
0
 10
6617.316415277611668
 20
294.8034609237737982
 30
0.0
 40
0.5702560132332807
 50
175.8882888712107899
 51
183.8510089472312075
  0
ARC
  5
2F21D
  8
0
 10
6623.0719095278363966
 20
294.3897194940594773
 30
0.0
 40
6.3406022797073076
 50
174.4264937720274986
 51
175.8882888712107899
  0
ARC
  5
2F21E
  8
0
 10
6613.270289041018259
 20
295.3462011151004276
 30
0.0
 40
3.5075762959978278
 50
354.426493772027527
 51
357.7081490314666894
  0
LINE
  5
2F21F
  8
0
 10
6616.746587385157909
 20
290.3618774832326039
 30
0.0
 11
6616.746587385157909
 21
294.7813680830917065
 31
0.0
  0
LINE
  5
2F220
  8
0
 10
6616.746587385157909
 20
294.8255537644558899
 30
0.0
 11
6616.746587385157909
 21
297.0386654832325917
 31
0.0
  0
LINE
  5
2F221
  8
0
 10
6617.1625584039147725
 20
294.3849843579826029
 30
0.0
 11
6617.4329786318030528
 21
294.3849843579826029
 31
0.0
  0
LINE
  5
2F222
  8
0
 10
6617.0377637020928887
 20
294.506055085790706
 30
0.0
 11
6617.1242358772378793
 21
294.4028691910198745
 31
0.0
  0
ARC
  5
2F223
  8
0
 10
6617.0891158878421265
 20
294.5490894095208887
 30
0.0
 40
0.067
 50
179.5973538528774043
 51
219.9637889176761121
  0
LINE
  5
2F224
  8
0
 10
6617.0314369568568509
 20
295.8756733572326993
 30
0.0
 11
6617.022117542257547
 21
294.5495602482114919
 31
0.0
  0
ARC
  5
2F225
  8
0
 10
6617.1625584039147725
 20
294.4349843579827279
 30
0.0
 40
0.05
 50
219.9637889176761121
 51
270.0
  0
LINE
  5
2F226
  8
0
 10
6617.1252113726577591
 20
295.8756733572326993
 30
0.0
 11
6617.1252113726577591
 21
294.4017398207420797
 31
0.0
  0
LINE
  5
2F227
  8
0
 10
6618.4227684875586419
 20
290.0486655100327198
 30
0.0
 11
6618.4227684875586419
 21
290.2348518131454966
 31
0.0
  0
LINE
  5
2F228
  8
0
 10
6617.8489495899593749
 20
297.0386654832325917
 30
0.0
 11
6617.8489495899593749
 21
295.9922418997326758
 31
0.0
  0
LINE
  5
2F229
  8
0
 10
6618.3926239070060547
 20
290.2731492962331004
 30
0.0
 11
6618.0482791356753296
 21
290.3563676969363883
 31
0.0
  0
ARC
  5
2F22A
  8
0
 10
6618.4027684875591149
 20
290.0486655100327198
 30
0.0
 40
0.02
 50
270.0
 51
0.0
  0
ARC
  5
2F22B
  8
0
 10
6618.383368487558073
 20
290.2348518131454966
 30
0.0
 40
0.0394
 50
0.0
 51
76.413734048531623
  0
ARC
  5
2F22C
  8
0
 10
6618.0020255293457012
 20
290.1649774832326898
 30
0.0
 40
0.1969
 50
76.4137340485822847
 51
90.0
  0
ARC
  5
2F22D
  8
0
 10
6617.2977684875586419
 20
297.0386654832325917
 30
0.0
 40
0.5511811024000002
 50
0.0
 51
90.0
  0
LINE
  5
2F22E
  8
0
 10
6617.8372338611870873
 20
295.9639576284675968
 30
0.0
 11
6617.7606653185930554
 21
295.8873890859676976
 31
0.0
  0
ARC
  5
2F22F
  8
0
 10
6617.8089495899575923
 20
295.9922418997326758
 30
0.0
 40
0.04
 50
314.9999999644858804
 51
0.0
  0
ARC
  5
2F230
  8
0
 10
6617.7323810473635604
 20
295.9156733572326061
 30
0.0
 40
0.04
 50
270.0
 51
314.9999999644858804
  0
LINE
  5
2F231
  8
0
 10
6617.8204773734578339
 20
295.9472011407585228
 30
0.0
 11
6617.8204773734578339
 21
295.2059342639861939
 31
0.0
  0
ARC
  5
2F232
  8
0
 10
6617.2928944536006384
 20
294.73407762011459
 30
0.0
 40
0.535131099638058
 50
270.5218564417245943
 51
328.6331343470009188
  0
ARC
  5
2F233
  8
0
 10
6617.1666601889719459
 20
294.8110311781647965
 30
0.0
 40
0.6829720265261426
 50
328.6331343470009188
 51
356.1489910527687925
  0
ARC
  5
2F234
  8
0
 10
6617.2791216975037969
 20
294.8034609237737982
 30
0.0
 40
0.5702560132332807
 50
356.1489910527687925
 51
4.1117111287892376
  0
ARC
  5
2F235
  8
0
 10
6611.5236274472799778
 20
294.3897194940594773
 30
0.0
 40
6.3406022797073076
 50
4.1117111287892376
 51
5.5735062279725067
  0
ARC
  5
2F236
  8
0
 10
6621.3252479340981154
 20
295.3462011151004276
 30
0.0
 40
3.5075762959978278
 50
182.2918509685333106
 51
185.5735062279725014
  0
LINE
  5
2F237
  8
0
 10
6617.8489495899593749
 20
290.3618774832326039
 30
0.0
 11
6617.8489495899593749
 21
294.7813680830917065
 31
0.0
  0
LINE
  5
2F238
  8
0
 10
6617.8489495899593749
 20
294.8255537644558899
 30
0.0
 11
6617.8489495899593749
 21
297.0386654832325917
 31
0.0
  0
LINE
  5
2F239
  8
0
 10
6617.5577092965086194
 20
294.5059786713030121
 30
0.0
 11
6617.471301158478127
 21
294.4028691910198745
 31
0.0
  0
ARC
  5
2F23A
  8
0
 10
6617.5063571107602911
 20
294.5490129950330811
 30
0.0
 40
0.067
 50
320.0362110823239732
 51
0.3998590892518081
  0
LINE
  5
2F23B
  8
0
 10
6617.564100018260433
 20
295.8756733572326993
 30
0.0
 11
6617.5733554791659117
 21
294.5494805747002829
 31
0.0
  0
ARC
  5
2F23C
  8
0
 10
6617.4329786318030528
 20
294.4349843579827279
 30
0.0
 40
0.05
 50
270.0
 51
320.0362110823239732
  0
LINE
  5
2F23D
  8
0
 10
6617.4703256024577058
 20
295.8756733572326993
 30
0.0
 11
6617.4703256024577058
 21
294.4017397526639002
 31
0.0
  0
LINE
  5
2F23E
  8
0
 10
6622.4227687824577515
 20
290.0286655100326811
 30
0.0
 11
6620.1727681926577134
 21
290.0286655100326811
 31
0.0
  0
LINE
  5
2F23F
  8
0
 10
6622.0020258246549929
 20
290.3618774832326039
 30
0.0
 11
6620.5935111504613815
 21
290.3618774832326039
 31
0.0
  0
LINE
  5
2F240
  8
0
 10
6622.4227687824577515
 20
290.0286655100326811
 30
0.0
 11
6622.4227687824577515
 21
290.2348516778113208
 31
0.0
  0
LINE
  5
2F241
  8
0
 10
6622.3926242161378468
 20
290.2731491574594997
 30
0.0
 11
6622.0482795021061975
 21
290.3563676797483026
 31
0.0
  0
ARC
  5
2F242
  8
0
 10
6622.383368782458092
 20
290.2348516778113208
 30
0.0
 40
0.0394
 50
359.9999999999968168
 51
76.413712757225781
  0
ARC
  5
2F243
  8
0
 10
6622.0020258246549929
 20
290.1649774832326898
 30
0.0
 40
0.1969
 50
76.413712757225781
 51
90.0
  0
LINE
  5
2F244
  8
0
 10
6623.0040577331938039
 20
291.1689641399327115
 30
0.0
 11
6619.8414374378517095
 21
291.1689641399399875
 31
0.0
  0
LINE
  5
2F245
  8
0
 10
6621.9241607465583002
 20
290.8841687209302904
 30
0.0
 11
6622.2092891227594009
 21
291.1689641399327115
 31
0.0
  0
LINE
  5
2F246
  8
0
 10
6621.8607285082453018
 20
290.8513374652326888
 30
0.0
 11
6621.7977992099386029
 21
290.8513374652326888
 31
0.0
  0
LINE
  5
2F247
  8
0
 10
6620.797737765176862
 20
290.8513374652326888
 30
0.0
 11
6620.7348084668701631
 21
290.8513374652326888
 31
0.0
  0
ARC
  5
2F248
  8
0
 10
6621.8807617163038231
 20
290.7349385883355808
 30
0.0
 40
0.1181102365080359
 50
99.7646179147711081
 51
178.9999999090649965
  0
ARC
  5
2F249
  8
0
 10
6621.8407002372114221
 20
290.9677268047992129
 30
0.0
 40
0.1181
 50
279.7646179147711223
 51
314.9665270335863738
  0
LINE
  5
2F24A
  8
0
 10
6621.7626694685586699
 20
290.7369998963749822
 30
0.0
 11
6621.7566361954577587
 21
290.3913539110400848
 31
0.0
  0
ARC
  5
2F24B
  8
0
 10
6621.7265910315072688
 20
290.3918783513262838
 30
0.0
 40
0.0300497406715615
 50
273.2682010750967265
 51
359.0000000025842724
  0
LINE
  5
2F24C
  8
0
 10
6621.8197322348341913
 20
290.8913643793326855
 30
0.0
 11
6620.775804740282183
 21
290.8913643793326855
 31
0.0
  0
LINE
  5
2F24D
  8
0
 10
6621.6973710032179952
 20
290.8016900952326864
 30
0.0
 11
6620.8981659719001982
 21
290.8016900952326864
 31
0.0
  0
ARC
  5
2F24E
  8
0
 10
6621.8044012047548676
 20
290.8824949802793753
 30
0.0
 40
0.0257365284265966
 50
313.5198693807823247
 51
3.1729532339667061
  0
ARC
  5
2F24F
  8
0
 10
6621.7886393377139029
 20
290.899092990991619
 30
0.0
 40
0.0486260546825982
 50
280.857940783006427
 51
313.5198693807823247
  0
ARC
  5
2F250
  8
0
 10
6621.8439861418419241
 20
290.6819052836364108
 30
0.0
 40
0.1756146259257324
 50
105.2482293516735012
 51
122.2439455576996039
  0
ARC
  5
2F251
  8
0
 10
6615.0881867551461255
 20
301.453372627723013
 30
0.0
 40
12.5391543164402002
 50
301.9098384494894276
 51
302.0936125546210178
  0
ARC
  5
2F252
  8
0
 10
6621.6879890268737654
 20
290.8529591854937166
 30
0.0
 40
0.0521204479669967
 50
280.3700902743225924
 51
302.7494503994407751
  0
ARC
  5
2F253
  8
0
 10
6621.8192738371180894
 20
290.8797869814630985
 30
0.0
 40
0.0115864692593064
 50
20.8956935468422706
 51
87.7326042643603756
  0
LINE
  5
2F254
  8
0
 10
6622.6994348515199817
 20
291.5626649273327189
 30
0.0
 11
6619.8674980840960416
 21
291.5626649273399948
 31
0.0
  0
LINE
  5
2F255
  8
0
 10
6622.7451934026848903
 20
291.1889514407603201
 30
0.0
 11
6622.7403305018351602
 21
291.5223614046853982
 31
0.0
  0
ARC
  5
2F256
  8
0
 10
6622.7254954977652233
 20
291.1886641399327118
 30
0.0
 40
0.0197
 50
270.0
 51
0.8356197177250821
  0
LINE
  5
2F257
  8
0
 10
6623.0237547619854013
 20
291.1890062755182953
 30
0.0
 11
6623.0087010326742529
 21
292.0556619294650886
 31
0.0
  0
ARC
  5
2F258
  8
0
 10
6623.0040577331938039
 20
291.1886641399327118
 30
0.0
 40
0.0197
 50
270.0
 51
0.9951223684458174
  0
LINE
  5
2F259
  8
0
 10
6622.9487981372785725
 20
292.1138461478327031
 30
0.0
 11
6622.599494743332798
 21
292.1138461478327031
 31
0.0
  0
LINE
  5
2F25A
  8
0
 10
6622.9624829071581189
 20
292.1083171419177802
 30
0.0
 11
6623.0026887737585639
 21
292.0694907879646962
 31
0.0
  0
ARC
  5
2F25B
  8
0
 10
6622.9487981372785725
 20
292.0941461478327028
 30
0.0
 40
0.0197
 50
46.0000000775526132
 51
90.0
  0
ARC
  5
2F25C
  8
0
 10
6622.9890040038808365
 20
292.0553197938795051
 30
0.0
 40
0.0197
 50
0.9951223684393045
 51
46.0000000775548727
  0
ARC
  5
2F25D
  8
0
 10
6622.6994348515199817
 20
291.5217649273325833
 30
0.0
 40
0.0409
 50
0.8356197177283387
 51
90.0
  0
LINE
  5
2F25E
  8
0
 10
6622.5396243850336759
 20
292.0556949986951736
 30
0.0
 11
6622.5310185131784237
 21
291.5626649273327189
 31
0.0
  0
LINE
  5
2F25F
  8
0
 10
6622.5858099734359712
 20
292.1083171419001019
 30
0.0
 11
6622.5456366147309382
 21
292.0695221803579784
 31
0.0
  0
ARC
  5
2F260
  8
0
 10
6622.599494743332798
 20
292.0941461478327028
 30
0.0
 40
0.0197
 50
90.0
 51
133.9999999966370865
  0
ARC
  5
2F261
  8
0
 10
6622.5593213846277649
 20
292.0553511862905225
 30
0.0
 40
0.0197
 50
133.9999999966416055
 51
179.0000000060639138
  0
LINE
  5
2F262
  8
0
 10
6622.5456041813977208
 20
292.0694907879646962
 30
0.0
 11
6623.0026887737585639
 21
292.0694907879646962
 31
0.0
  0
LINE
  5
2F263
  8
0
 10
6620.1727681926577134
 20
290.0286655100326811
 30
0.0
 11
6620.1727681926577134
 21
290.2348516778113208
 31
0.0
  0
LINE
  5
2F264
  8
0
 10
6620.2029127589776181
 20
290.2731491574594997
 30
0.0
 11
6620.5472574730110864
 21
290.3563676797483026
 31
0.0
  0
ARC
  5
2F265
  8
0
 10
6620.2121681926582824
 20
290.2348516778113208
 30
0.0
 40
0.0394
 50
103.5862872427742047
 51
180.0000000000032117
  0
ARC
  5
2F266
  8
0
 10
6620.5935111504613815
 20
290.1649774832326898
 30
0.0
 40
0.1969
 50
90.0
 51
103.5862872427742047
  0
LINE
  5
2F267
  8
0
 10
6620.6713762285589837
 20
290.8841687209302904
 30
0.0
 11
6620.3862478523578829
 21
291.1689641399327115
 31
0.0
  0
ARC
  5
2F268
  8
0
 10
6620.7147752588143703
 20
290.7349385883355808
 30
0.0
 40
0.1181102365080359
 50
1.0000000909349369
 51
80.2353820852288919
  0
ARC
  5
2F269
  8
0
 10
6620.7548367379049523
 20
290.9677268047992129
 30
0.0
 40
0.1181
 50
225.0334729664135978
 51
260.2353820852288777
  0
LINE
  5
2F26A
  8
0
 10
6620.832867506556795
 20
290.7369998963749822
 30
0.0
 11
6620.8389007796577062
 21
290.3913539110400848
 31
0.0
  0
ARC
  5
2F26B
  8
0
 10
6620.8689459436091056
 20
290.3918783513262838
 30
0.0
 40
0.0300497406715615
 50
180.9999999974156992
 51
266.7317989249032735
  0
ARC
  5
2F26C
  8
0
 10
6620.7911357703624162
 20
290.8824949802793753
 30
0.0
 40
0.0257365284265966
 50
176.8270467660333054
 51
226.4801306192177037
  0
ARC
  5
2F26D
  8
0
 10
6620.806897637401562
 20
290.899092990991619
 30
0.0
 40
0.0486260546825982
 50
226.4801306192177037
 51
259.1420592169928909
  0
ARC
  5
2F26E
  8
0
 10
6620.7515508332753598
 20
290.6819052836364108
 30
0.0
 40
0.1756146259257324
 50
57.756054442300389
 51
74.7517706483264845
  0
ARC
  5
2F26F
  8
0
 10
6627.5073502199702489
 20
301.453372627723013
 30
0.0
 40
12.5391543164402002
 50
237.9063874453790106
 51
238.0901615505106008
  0
ARC
  5
2F270
  8
0
 10
6620.9075479482416995
 20
290.8529591854937166
 30
0.0
 40
0.0521204479669967
 50
237.2505496005591965
 51
259.6299097256774076
  0
ARC
  5
2F271
  8
0
 10
6620.7762631379973755
 20
290.8797869814630985
 30
0.0
 40
0.0115864692593064
 50
92.2673957356396386
 51
159.1043064531577045
  0
LINE
  5
2F272
  8
0
 10
6619.8217395329302235
 20
291.1889514407674824
 30
0.0
 11
6619.8266024337790441
 21
291.5223614046926741
 31
0.0
  0
ARC
  5
2F273
  8
0
 10
6619.8414374378517095
 20
291.1886641399399878
 30
0.0
 40
0.0197
 50
179.164380282274891
 51
270.0
  0
ARC
  5
2F274
  8
0
 10
6619.8674980840960416
 20
291.5217649273399729
 30
0.0
 40
0.0409
 50
90.0
 51
179.1643802822717078
  0
LINE
  5
2F275
  8
0
 10
6622.3926242161378468
 20
290.2731491574594997
 30
0.0
 11
6620.2029127589776181
 21
290.2731491574594997
 31
0.0
  0
LINE
  5
2F276
  8
0
 10
6616.7583031139292871
 20
295.9639576284675968
 30
0.0
 11
6617.8372338611870873
 21
295.9639576284675968
 31
0.0
  0
CIRCLE
  5
2F278
  8
0
 10
6617.2977684875586419
 20
295.177232507032727
 30
0.0
 40
0.1119777567
  0
CIRCLE
  5
2F279
  8
0
 10
6617.2977684875586419
 20
295.177232507032727
 30
0.0
 40
0.0971351770000002
  0
CIRCLE
  5
2F27A
  8
0
 10
6617.2977684875586419
 20
295.177232507032727
 30
0.0
 40
0.0468053359000002
  0
LINE
  5
2F27B
  8
0
 10
6617.2977740949572762
 20
295.2240728671326906
 30
0.0
 11
6617.2572063494890244
 21
295.2006575432334898
 31
0.0
  0
LINE
  5
2F27C
  8
0
 10
6617.2572063494890244
 20
295.2006575432334898
 30
0.0
 11
6617.2572007420903901
 21
295.1538171831335262
 31
0.0
  0
LINE
  5
2F27D
  8
0
 10
6617.2572007420903901
 20
295.1538171831335262
 30
0.0
 11
6617.2977628801590981
 21
295.1303921469325928
 31
0.0
  0
LINE
  5
2F27E
  8
0
 10
6617.2977628801590981
 20
295.1303921469325928
 30
0.0
 11
6617.3383306256273499
 21
295.1538074708317936
 31
0.0
  0
LINE
  5
2F27F
  8
0
 10
6617.3383306256273499
 20
295.1538074708317936
 30
0.0
 11
6617.3383362330268938
 21
295.200647830931814
 31
0.0
  0
LINE
  5
2F280
  8
0
 10
6617.3383362330268938
 20
295.200647830931814
 30
0.0
 11
6617.2977740949572762
 21
295.2240728671326906
 31
0.0
  0
LINE
  5
2F281
  8
0
 10
6617.2477684875575505
 20
294.3849843579826029
 30
0.0
 11
6617.2477684875575505
 21
294.3833751348325904
 31
0.0
  0
LINE
  5
2F282
  8
0
 10
6617.2477684875575505
 20
294.3833751348325904
 30
0.0
 11
6617.3477684875579143
 21
294.3833751348325904
 31
0.0
  0
LINE
  5
2F283
  8
0
 10
6617.3477684875579143
 20
294.3833751348325904
 30
0.0
 11
6617.3477684875579143
 21
294.3849843579826029
 31
0.0
  0
ENDSEC
  0
EOF
