  0
SECTION
  2
HEADER
  9
$ACADVER
  1
AC1009
  9
$INSBASE
 10
6636.0346455407143367
 20
291.1851174607637063
 30
0.0
  9
$EXTMIN
 10
6628.9834644461143398
 20
291.1802735365791932
 30
0.0
  9
$EXTMAX
 10
6637.5106918596138712
 20
298.7462985363637245
 30
0.0
  9
$LIMMIN
 10
0.0
 20
0.0
  9
$LIMMAX
 10
11.6929133858000007
 20
8.2677165353999982
  9
$ORTHOMODE
 70
     0
  9
$REGENMODE
 70
     1
  9
$FILLMODE
 70
     1
  9
$QTEXTMODE
 70
     0
  9
$MIRRTEXT
 70
     0
  9
$DRAGMODE
 70
     2
  9
$LTSCALE
 40
0.6431102362
  9
$OSMODE
 70
  4095
  9
$ATTMODE
 70
     1
  9
$TEXTSIZE
 40
0.2
  9
$TRACEWID
 40
0.05
  9
$TEXTSTYLE
  7
STANDARD
  9
$CLAYER
  8
0
  9
$CELTYPE
  6
BYLAYER
  9
$CECOLOR
 62
   256
  9
$DIMSCALE
 40
1.0
  9
$DIMASZ
 40
0.1875
  9
$DIMEXO
 40
0.0625
  9
$DIMDLI
 40
0.4443307087
  9
$DIMRND
 40
0.0
  9
$DIMDLE
 40
0.0
  9
$DIMEXE
 40
0.125
  9
$DIMTP
 40
0.01
  9
$DIMTM
 40
0.01
  9
$DIMTXT
 40
2.0
  9
$DIMCEN
 40
0.1052362205
  9
$DIMTSZ
 40
0.0
  9
$DIMTOL
 70
     1
  9
$DIMLIM
 70
     0
  9
$DIMTIH
 70
     1
  9
$DIMTOH
 70
     1
  9
$DIMSE1
 70
     0
  9
$DIMSE2
 70
     0
  9
$DIMTAD
 70
     0
  9
$DIMZIN
 70
     0
  9
$DIMBLK
  1

  9
$DIMASO
 70
     1
  9
$DIMSHO
 70
     1
  9
$DIMPOST
  1
\X
  9
$DIMAPOST
  1

  9
$DIMALT
 70
     1
  9
$DIMALTD
 70
     2
  9
$DIMALTF
 40
25.3999999999999986
  9
$DIMLFAC
 40
1.0
  9
$DIMTOFL
 70
     0
  9
$DIMTVP
 40
0.0
  9
$DIMTIX
 70
     0
  9
$DIMSOXD
 70
     0
  9
$DIMSAH
 70
     0
  9
$DIMBLK1
  1

  9
$DIMBLK2
  1

  9
$DIMSTYLE
  2
STANDARD
  9
$DIMCLRD
 70
     0
  9
$DIMCLRE
 70
     0
  9
$DIMCLRT
 70
     0
  9
$DIMTFAC
 40
1.0
  9
$DIMGAP
 40
0.09
  9
$LUNITS
 70
     2
  9
$LUPREC
 70
     4
  9
$SKETCHINC
 40
0.1
  9
$FILLETRAD
 40
0.0
  9
$AUNITS
 70
     0
  9
$AUPREC
 70
     0
  9
$MENU
  1
.
  9
$ELEVATION
 40
0.0
  9
$PELEVATION
 40
0.0
  9
$THICKNESS
 40
0.0
  9
$LIMCHECK
 70
     0
  9
$BLIPMODE
 70
     0
  9
$CHAMFERA
 40
0.0
  9
$CHAMFERB
 40
0.0
  9
$SKPOLY
 70
     0
  9
$TDCREATE
 40
2458060.468368056230247
  9
$TDUPDATE
 40
2460725.7165046301670372
  9
$TDINDWG
 40
0.8144052083
  9
$TDUSRTIMER
 40
0.8144052083
  9
$USRTIMER
 70
     1
  9
$ANGBASE
 50
0.0
  9
$ANGDIR
 70
     0
  9
$PDMODE
 70
     0
  9
$PDSIZE
 40
0.3125
  9
$PLINEWID
 40
0.0
  9
$COORDS
 70
     1
  9
$SPLFRAME
 70
     0
  9
$SPLINETYPE
 70
     6
  9
$SPLINESEGS
 70
     8
  9
$ATTDIA
 70
     1
  9
$ATTREQ
 70
     1
  9
$HANDLING
 70
     1
  9
$HANDSEED
  5
2F5BB
  9
$SURFTAB1
 70
     6
  9
$SURFTAB2
 70
     6
  9
$SURFTYPE
 70
     6
  9
$SURFU
 70
     6
  9
$SURFV
 70
     6
  9
$UCSNAME
  2

  9
$UCSORG
 10
0.0
 20
0.0
 30
0.0
  9
$UCSXDIR
 10
1.0
 20
0.0
 30
0.0
  9
$UCSYDIR
 10
0.0
 20
1.0
 30
0.0
  9
$PUCSNAME
  2

  9
$PUCSORG
 10
0.0
 20
0.0
 30
0.0
  9
$PUCSXDIR
 10
1.0
 20
0.0
 30
0.0
  9
$PUCSYDIR
 10
0.0
 20
1.0
 30
0.0
  9
$USERI1
 70
     0
  9
$USERI2
 70
     0
  9
$USERI3
 70
     0
  9
$USERI4
 70
     0
  9
$USERI5
 70
     0
  9
$USERR1
 40
0.0
  9
$USERR2
 40
0.0
  9
$USERR3
 40
0.0
  9
$USERR4
 40
0.0
  9
$USERR5
 40
0.0
  9
$WORLDVIEW
 70
     1
  9
$SHADEDGE
 70
     3
  9
$SHADEDIF
 70
    70
  9
$TILEMODE
 70
     1
  9
$MAXACTVP
 70
    64
  9
$PLIMCHECK
 70
     0
  9
$PEXTMIN
 10
1.0000000000000000E+20
 20
1.0000000000000000E+20
 30
1.0000000000000000E+20
  9
$PEXTMAX
 10
-1.0000000000000000E+20
 20
-1.0000000000000000E+20
 30
-1.0000000000000000E+20
  9
$PLIMMIN
 10
0.0
 20
0.0
  9
$PLIMMAX
 10
12.0
 20
9.0
  9
$UNITMODE
 70
     0
  9
$VISRETAIN
 70
     1
  9
$PLINEGEN
 70
     0
  9
$PSLTSCALE
 70
     1
  0
ENDSEC
  0
SECTION
  2
TABLES
  0
TABLE
  2
VPORT
 70
     1
  0
VPORT
  2
*ACTIVE
 70
     0
 10
0.0
 20
0.0
 11
1.0
 21
1.0
 12
2721.8817217075520603
 22
162.3836809339323111
 13
0.0
 23
0.0
 14
1.0
 24
1.0
 15
0.0
 25
0.0
 16
0.0
 26
0.0
 36
60.4960186965801583
 17
3911.3653564453120453
 27
132.5796051025390057
 37
0.0
 40
7.6171002132395156
 41
2.1449438202247189
 42
50.0
 43
0.0
 44
0.0
 50
0.0
 51
0.0
 71
     0
 72
   100
 73
     1
 74
     1
 75
     0
 76
     0
 77
     0
 78
     0
  0
ENDTAB
  0
TABLE
  2
LTYPE
 70
     2
  0
LTYPE
  2
CONTINUOUS
 70
     0
  3
Solid line
 72
    65
 73
     0
 40
0.0
  0
LTYPE
  2
PHANTOM2
 70
     0
  3
___ _ _ ___ _ _ ___ _ _ ___ _ _
 72
    65
 73
     6
 40
1.25
 49
0.625
 49
-0.125
 49
0.125
 49
-0.125
 49
0.125
 49
-0.125
  0
ENDTAB
  0
TABLE
  2
LAYER
 70
     2
  0
LAYER
  2
0
 70
     0
 62
   255
  6
CONTINUOUS
  0
LAYER
  2
DEFPOINTS
 70
     0
 62
     7
  6
CONTINUOUS
  0
ENDTAB
  0
TABLE
  2
STYLE
 70
     1
  0
STYLE
  2
STANDARD
 70
     0
 40
0.0
 41
0.8
 50
0.0
 71
     0
 42
0.2
  3
txt
  4

  0
ENDTAB
  0
TABLE
  2
VIEW
 70
     0
  0
ENDTAB
  0
TABLE
  2
UCS
 70
     0
  0
ENDTAB
  0
TABLE
  2
APPID
 70
    11
  0
APPID
  2
ACAD
 70
     0
  0
APPID
  2
ACAD_MLEADERVER
 70
     0
  0
APPID
  2
ACAD_EXEMPT_FROM_CAD_STANDARDS
 70
     0
  0
APPID
  2
ACAD_NAV_VCDISPLAY
 70
     0
  0
APPID
  2
ACAECLAYERSTANDARD
 70
     0
  0
APPID
  2
ACCMTRANSPARENCY
 70
     0
  0
APPID
  2
ACAD_DSTYLE_DIMJAG
 70
     0
  0
APPID
  2
ACAD_DSTYLE_DIMTALN
 70
     0
  0
APPID
  2
ACDBATTR
 70
     0
  0
APPID
  2
ACADANNOTATIVE
 70
     0
  0
APPID
  2
DCO15
 70
     0
  0
ENDTAB
  0
TABLE
  2
DIMSTYLE
 70
     1
  0
DIMSTYLE
  2
STANDARD
 70
     0
  3

  4

  5

  6

  7

 40
1.0
 41
0.1875
 42
0.0625
 43
0.38
 44
0.125
 45
0.0
 46
0.0
 47
0.01
 48
0.01
140
0.15625
141
0.09
142
0.0
143
25.3999999999999986
144
1.0
145
0.0
146
1.0
147
0.09
 71
     1
 72
     0
 73
     1
 74
     1
 75
     0
 76
     0
 77
     0
 78
     4
170
     0
171
     2
172
     0
173
     0
174
     0
175
     0
176
     0
177
     0
178
     0
  0
ENDTAB
  0
ENDSEC
  0
SECTION
  2
BLOCKS
  0
BLOCK
  8
0
  2
$MODEL_SPACE
 70
     0
 10
0.0
 20
0.0
 30
0.0
  3
$MODEL_SPACE
  1

  0
ENDBLK
  5
21
  8
0
  0
BLOCK
 67
     1
  8
0
  2
$PAPER_SPACE
 70
     0
 10
0.0
 20
0.0
 30
0.0
  3
$PAPER_SPACE
  1

  0
ENDBLK
  5
1D
 67
     1
  8
0
  0
BLOCK
  8
0
  2
_FILLED
 70
     0
 10
0.0
 20
0.0
 30
0.0
  3
_FILLED
  1

  0
SOLID
  5
2EA64
  8
0
  6
BYBLOCK
 62
     0
 10
0.0
 20
0.0
 30
0.0
 11
-1.0
 21
0.1666666667
 31
0.0
 12
-1.0
 22
-0.1666666667
 32
0.0
 13
-1.0
 23
-0.1666666667
 33
0.0
  0
ENDBLK
  5
2EA65
  8
0
  6
BYBLOCK
 62
     0
  0
ENDSEC
  0
SECTION
  2
ENTITIES
  0
ATTDEF
  5
26A5B
  8
DEFPOINTS
 10
6636.0303100381552213
 20
291.1836068699125235
 30
0.0
 40
0.001
  1
P34884-BV
  3

  2
MODELNUMBER
 70
     0
1001
ACDBATTR
1070
     0
1070
     1
  0
ATTDEF
  5
26A5C
  8
DEFPOINTS
 10
6636.0301842284980012
 20
291.1819400295332798
 30
0.0
 40
0.001
  1

  3

  2
TRADENAME
 70
     0
1001
ACDBATTR
1070
     0
1070
     1
  0
ATTDEF
  5
26A5D
  8
DEFPOINTS
 10
6636.0303100381552213
 20
291.1802735365791932
 30
0.0
 40
0.001
  1
BATHROOM SINK FAUCET
  3

  2
PRODUCT
 70
     0
1001
ACDBATTR
1070
     0
1070
     1
  0
LINE
  5
2F35D
  8
0
 10
6629.1000329886092004
 20
297.0321253079637245
 30
0.0
 11
6629.9692581083209006
 21
297.0321253079637245
 31
0.0
  0
LINE
  5
2F35E
  8
0
 10
6628.9951801748857179
 20
297.1204095791986219
 30
0.0
 11
6630.0741109203609085
 21
297.1204095791986219
 31
0.0
  0
LINE
  5
2F35F
  8
0
 10
6629.53466444611513
 20
298.7462985363637245
 30
0.0
 11
6635.0626674692693996
 21
298.7462985363637245
 31
0.0
  0
LINE
  5
2F360
  8
0
 10
6628.9834644461143398
 20
297.1486938504635873
 30
0.0
 11
6628.9834644461143398
 21
298.1950985363636164
 31
0.0
  0
LINE
  5
2F361
  8
0
 10
6630.0858197520647082
 20
297.1486869517137279
 30
0.0
 11
6630.0858197520647082
 21
297.4975747616637136
 31
0.0
  0
LINE
  5
2F362
  8
0
 10
6630.2322197520643385
 20
297.6439747616636282
 30
0.0
 11
6633.1957951212880289
 21
297.6439747616636282
 31
0.0
  0
LINE
  5
2F363
  8
0
 10
6629.071748717360606
 20
297.0438410367170832
 30
0.0
 11
6628.9951801748647995
 21
297.1204095792170961
 31
0.0
  0
LINE
  5
2F364
  8
0
 10
6629.9975423795667666
 20
297.0438410367170832
 30
0.0
 11
6630.074104023313339
 21
297.120402680467123
 31
0.0
  0
ARC
  5
2F365
  8
0
 10
6629.1000329886092004
 20
297.0721253079635744
 30
0.0
 40
0.04
 50
224.9999999980884979
 51
270.0
  0
ARC
  5
2F366
  8
0
 10
6629.0234644461152129
 20
297.1486938504635873
 30
0.0
 40
0.04
 50
179.9999999999967031
 51
224.9999999980884979
  0
ARC
  5
2F367
  8
0
 10
6629.9692581083209006
 20
297.0721253079635744
 30
0.0
 40
0.04
 50
270.0
 51
315.0000000019138042
  0
ARC
  5
2F368
  8
0
 10
6630.045819752065654
 20
297.1486869517136142
 30
0.0
 40
0.04
 50
315.0000000019114168
 51
0.0000000000065138
  0
ARC
  5
2F369
  8
0
 10
6630.2322197520643385
 20
297.4975747616637136
 30
0.0
 40
0.1464
 50
90.0
 51
180.0
  0
ARC
  5
2F36A
  8
0
 10
6629.53466444611513
 20
298.1950985363636164
 30
0.0
 40
0.5512000000000001
 50
90.0
 51
180.0
  0
LINE
  5
2F36B
  8
0
 10
6633.2252347938137973
 20
297.654689926169624
 30
0.0
 11
6633.8085381725113621
 21
298.1441395761266904
 31
0.0
  0
ARC
  5
2F36C
  8
0
 10
6633.1957951212880289
 20
297.6897747616637275
 30
0.0
 40
0.0458
 50
270.0
 51
310.0000000015817818
  0
LINE
  5
2F36D
  8
0
 10
6635.9808717831438116
 20
295.9659159651693017
 30
0.0
 11
6635.4951090982040114
 21
295.3867688032560181
 31
0.0
  0
LINE
  5
2F36E
  8
0
 10
6636.0339575092157247
 20
297.9982174339637027
 30
0.0
 11
6636.0339575092157247
 21
296.2027653353803203
 31
0.0
  0
LINE
  5
2F36F
  8
0
 10
6634.0431125314144083
 20
298.1951174339636736
 30
0.0
 11
6635.8370575092149011
 21
298.1951174339636736
 31
0.0
  0
ARC
  5
2F370
  8
0
 10
6634.0431125314144083
 20
297.7451174339636282
 30
0.0
 40
0.45
 50
90.0
 51
129.9999999960118942
  0
ARC
  5
2F371
  8
0
 10
6634.0330778231536897
 20
297.7451174339636282
 30
0.0
 40
0.45
 50
90.0
 51
130.0000000015837998
  0
ARC
  5
2F372
  8
0
 10
6635.8370575092149011
 20
297.9982174339637027
 30
0.0
 40
0.1969
 50
0.0
 51
90.0
  0
ARC
  5
2F373
  8
0
 10
6635.5839575092149971
 20
296.1929421452725251
 30
0.0
 40
0.45
 50
320.011583120607213
 51
0.0
  0
LINE
  5
2F374
  8
0
 10
6635.6015746823150039
 20
295.5511597167271134
 30
0.0
 11
6635.6015746823150039
 21
297.4619253892453798
 31
0.0
  0
LINE
  5
2F375
  8
0
 10
6635.483464582113811
 20
295.3547656932893233
 30
0.0
 11
6635.483464582113811
 21
292.7191168780635735
 31
0.0
  0
ARC
  5
2F376
  8
0
 10
6635.5332645821154074
 20
295.3547656932893233
 30
0.0
 40
0.0498
 50
140.0115831206121015
 51
179.9999999999901945
  0
LINE
  5
2F377
  8
0
 10
6635.3014018611929714
 20
297.7620465681637256
 30
0.0
 11
6633.3906869399716015
 21
297.7620465681637256
 31
0.0
  0
ARC
  5
2F378
  8
0
 10
6633.3906869399716015
 20
297.7720465681636028
 30
0.0
 40
0.01
 50
129.9999999960118942
 51
270.0
  0
LINE
  5
2F379
  8
0
 10
6635.5563619404529163
 20
297.5710512803613028
 30
0.0
 11
6635.4104891193310323
 21
297.7168724592796138
 31
0.0
  0
ARC
  5
2F37A
  8
0
 10
6635.4472746823148555
 20
297.4619253892453798
 30
0.0
 40
0.1543
 50
359.9999999999968168
 51
45.0101437816305818
  0
ARC
  5
2F37B
  8
0
 10
6635.3014018611929714
 20
297.6077465681635772
 30
0.0
 40
0.1543
 50
45.0101437816282726
 51
90.0
  0
LINE
  5
2F37C
  8
0
 10
6636.5858262440142425
 20
297.2231395894937123
 30
0.0
 11
6636.5858262440142425
 21
292.7191168780635735
 31
0.0
  0
LINE
  5
2F37D
  8
0
 10
6636.5758256325607363
 20
297.2404604505787233
 30
0.0
 11
6636.560919455297153
 21
297.2490658344240728
 31
0.0
  0
ARC
  5
2F37E
  8
0
 10
6636.5658262440147155
 20
297.2231395894937123
 30
0.0
 40
0.02
 50
0.0
 51
60.0020226562463819
  0
LINE
  5
2F37F
  8
0
 10
6635.0799883149247762
 20
298.7362979516341852
 30
0.0
 11
6635.0885945398185868
 21
298.7213903706365272
 31
0.0
  0
ARC
  5
2F380
  8
0
 10
6635.0626674692693996
 20
298.7262985363635721
 30
0.0
 40
0.02
 50
29.9980657496172185
 51
90.0
  0
ARC
  5
2F381
  8
0
 10
6635.1338299257995459
 20
298.7640325991137047
 30
0.0
 40
0.0621659054014436
 50
223.309763776728289
 51
238.0401171322646121
  0
ARC
  5
2F382
  8
0
 10
6635.2329171813207722
 20
298.9228526945169051
 30
0.0
 40
0.2493612763660094
 50
238.0401171322646121
 51
250.1149108394643861
  0
ARC
  5
2F383
  8
0
 10
6635.2643056108163364
 20
299.0096328298383241
 30
0.0
 40
0.3416435899074017
 50
250.1149108394643861
 51
265.3202333677461979
  0
ARC
  5
2F384
  8
0
 10
6635.2586885935270402
 20
298.9410150065464222
 30
0.0
 40
0.2727962475002033
 50
265.3202333677461979
 51
270.2820837121776094
  0
LINE
  5
2F385
  8
0
 10
6635.2600316430143721
 20
298.6682220651637181
 30
0.0
 11
6636.0364370274110115
 21
298.6682220651637181
 31
0.0
  0
LINE
  5
2F386
  8
0
 10
6636.5077370270646497
 20
298.1969401207559258
 30
0.0
 11
6636.5077668816647929
 21
297.4176539595637223
 31
0.0
  0
ARC
  5
2F387
  8
0
 10
6636.0364370274110115
 20
298.1969220651636192
 30
0.0
 40
0.4713
 50
0.0021950121644566
 51
90.0
  0
ARC
  5
2F388
  8
0
 10
6636.7882205087380498
 20
297.4176647037951966
 30
0.0
 40
0.2804536272777243
 50
180.0021950121644068
 51
188.9345504586395066
  0
ARC
  5
2F389
  8
0
 10
6636.8603134744826093
 20
297.4289987046802821
 30
0.0
 40
0.3534320849629995
 50
188.9345504586395066
 51
202.3156799894850053
  0
ARC
  5
2F38A
  8
0
 10
6636.7231235843855757
 20
297.3726891656743874
 30
0.0
 40
0.2051356584111764
 50
202.3156799894850053
 51
212.686049727589392
  0
ARC
  5
2F38B
  8
0
 10
6636.6260414247190056
 20
297.3103969011689856
 30
0.0
 40
0.0897871779575292
 50
212.6860497275922057
 51
219.9952184340733936
  0
ARC
  5
2F38C
  8
0
 10
6636.578510548968552
 20
297.2705205198981275
 30
0.0
 40
0.0277443706974238
 50
219.9952184340708925
 51
230.6510402670743929
  0
LINE
  5
2F38D
  8
0
 10
6635.111826473858855
 20
298.741653959763596
 30
0.0
 11
6635.3136095464587925
 21
298.741653959763596
 31
0.0
  0
LINE
  5
2F38E
  8
0
 10
6635.5478783126136477
 20
298.741653959763596
 30
0.0
 11
6636.0381820742150012
 21
298.741653959763596
 31
0.0
  0
ARC
  5
2F38F
  8
0
 10
6635.1118473260876272
 20
298.7216376117135042
 30
0.0
 40
0.0200163589116324
 50
90.0596884265043229
 51
190.8350555735916032
  0
LINE
  5
2F390
  8
0
 10
6636.5811820742146665
 20
298.1986539597635897
 30
0.0
 11
6636.5811820742146665
 21
297.7064681109907838
 31
0.0
  0
LINE
  5
2F391
  8
0
 10
6636.5811820742146665
 20
297.4752785875364793
 30
0.0
 11
6636.5811820742146665
 21
297.2705252202916881
 31
0.0
  0
ARC
  5
2F392
  8
0
 10
6636.0381820742150012
 20
298.1986539597635897
 30
0.0
 40
0.5430000000000001
 50
0.0
 51
90.0
  0
ARC
  5
2F393
  8
0
 10
6636.5611318823712281
 20
297.272454906772623
 30
0.0
 40
0.0201428370110532
 50
258.9049160582430886
 51
354.502625843015494
  0
LINE
  5
2F394
  8
0
 10
6637.1596458356152652
 20
291.1851174607637063
 30
0.0
 11
6634.9096452458143176
 21
291.1851174607637063
 31
0.0
  0
LINE
  5
2F395
  8
0
 10
6636.7389028778115971
 20
291.5183294339635722
 30
0.0
 11
6635.3303882036188952
 21
291.5183294339635722
 31
0.0
  0
LINE
  5
2F396
  8
0
 10
6637.1596458356152652
 20
291.1851174607637063
 30
0.0
 11
6637.1596458356152652
 21
291.3913036285422891
 31
0.0
  0
LINE
  5
2F397
  8
0
 10
6637.129501269294451
 20
291.4296011081904112
 30
0.0
 11
6636.7851565552618922
 21
291.5128196304793278
 31
0.0
  0
ARC
  5
2F398
  8
0
 10
6637.1202458356146963
 20
291.3913036285422891
 30
0.0
 40
0.0394
 50
359.9999999999968168
 51
76.413712757225781
  0
ARC
  5
2F399
  8
0
 10
6636.7389028778115971
 20
291.3214294339637149
 30
0.0
 40
0.1969
 50
76.413712757225781
 51
90.0
  0
LINE
  5
2F39A
  8
0
 10
6637.4909918596140415
 20
292.3254160906636798
 30
0.0
 11
6634.5782992373151501
 21
292.3254160906636798
 31
0.0
  0
ARC
  5
2F39B
  8
0
 10
6635.8046924142126954
 20
292.3451160906636801
 30
0.0
 40
0.0197
 50
179.0000000060672107
 51
270.0
  0
LINE
  5
2F39C
  8
0
 10
6636.6682462514399958
 20
292.0478207057561235
 30
0.0
 11
6636.9461661759141862
 21
292.3254160906636798
 31
0.0
  0
ARC
  5
2F39D
  8
0
 10
6636.6176387694586083
 20
291.8913905390664922
 30
0.0
 40
0.1181102365080359
 50
145.5883264826117909
 51
178.9999999090649965
  0
LINE
  5
2F39E
  8
0
 10
6636.4995465217152741
 20
291.8934518471060073
 30
0.0
 11
6636.493513248614363
 21
291.5478058617711099
 31
0.0
  0
ARC
  5
2F39F
  8
0
 10
6636.4634680846629635
 20
291.5483303020573089
 30
0.0
 40
0.0300497406715615
 50
273.2682010750967265
 51
359.0000000025842724
  0
LINE
  5
2F3A0
  8
0
 10
6635.7612577653371773
 20
291.9581420459635979
 30
0.0
 11
6635.5490908274286994
 21
291.9581420459635979
 31
0.0
  0
LINE
  5
2F3A1
  8
0
 10
6637.4649312133687999
 20
292.7191168780635735
 30
0.0
 11
6636.3108504001866095
 21
292.7191168780635735
 31
0.0
  0
LINE
  5
2F3A2
  8
0
 10
6635.7537573492991214
 20
292.7191168780635735
 30
0.0
 11
6634.6043598835585726
 21
292.7191168780635735
 31
0.0
  0
LINE
  5
2F3A3
  8
0
 10
6637.510689764534618
 20
292.3454033914911747
 30
0.0
 11
6637.5058268636848879
 21
292.6788133554164233
 31
0.0
  0
ARC
  5
2F3A4
  8
0
 10
6637.4909918596140415
 20
292.3451160906636801
 30
0.0
 40
0.0197
 50
270.0
 51
0.8356197177250821
  0
LINE
  5
2F3A5
  8
0
 10
6636.2842538701434023
 20
292.3454582262493204
 30
0.0
 11
6636.269200140832254
 21
293.2121138801960001
 31
0.0
  0
ARC
  5
2F3A6
  8
0
 10
6636.2645568413508954
 20
292.3451160906636801
 30
0.0
 40
0.0197
 50
270.0
 51
0.9951223684458174
  0
LINE
  5
2F3A7
  8
0
 10
6636.2092972454383926
 20
293.2702980985636145
 30
0.0
 11
6635.859993851490799
 21
293.2702980985636145
 31
0.0
  0
LINE
  5
2F3A8
  8
0
 10
6636.2229820153179389
 20
293.264769092648919
 30
0.0
 11
6636.2631878819192934
 21
293.2259427386957213
 31
0.0
  0
ARC
  5
2F3A9
  8
0
 10
6636.2092972454383926
 20
293.2505980985636143
 30
0.0
 40
0.0197
 50
46.0000000775526132
 51
90.0
  0
ARC
  5
2F3AA
  8
0
 10
6636.2495031120388376
 20
293.2117717446104734
 30
0.0
 40
0.0197
 50
0.9951223684360483
 51
46.0000000775548727
  0
ARC
  5
2F3AB
  8
0
 10
6637.4649312133687999
 20
292.6782168780637221
 30
0.0
 40
0.0409
 50
0.8356197177283387
 51
90.0
  0
LINE
  5
2F3AC
  8
0
 10
6635.8001234931944055
 20
293.2121469494261987
 30
0.0
 11
6635.7849954146167875
 21
292.345459903068388
 31
0.0
  0
LINE
  5
2F3AD
  8
0
 10
6635.8463090815939722
 20
293.264769092631127
 30
0.0
 11
6635.8061357228907582
 21
293.2259741310890035
 31
0.0
  0
ARC
  5
2F3AE
  8
0
 10
6635.859993851490799
 20
293.2505980985636143
 30
0.0
 40
0.0197
 50
90.0
 51
133.9999999966370865
  0
ARC
  5
2F3AF
  8
0
 10
6635.819820492787585
 20
293.2118031370214908
 30
0.0
 40
0.0197
 50
133.9999999966416055
 51
179.0000000060639138
  0
LINE
  5
2F3B0
  8
0
 10
6635.8061032895566314
 20
293.2259427386957213
 30
0.0
 11
6636.2631878819192934
 21
293.2259427386957213
 31
0.0
  0
LINE
  5
2F3B1
  8
0
 10
6634.9096452458143176
 20
291.1851174607637063
 30
0.0
 11
6634.9096452458143176
 21
291.3913036285422891
 31
0.0
  0
LINE
  5
2F3B2
  8
0
 10
6634.9397898121351318
 20
291.4296011081904112
 30
0.0
 11
6635.2841345261658716
 21
291.5128196304793278
 31
0.0
  0
ARC
  5
2F3B3
  8
0
 10
6634.9490452458148866
 20
291.3913036285422891
 30
0.0
 40
0.0394
 50
103.5862872427742047
 51
180.0000000000032117
  0
ARC
  5
2F3B4
  8
0
 10
6635.3303882036188952
 20
291.3214294339637149
 30
0.0
 40
0.1969
 50
90.0
 51
103.5862872427742047
  0
LINE
  5
2F3B5
  8
0
 10
6635.4010448299868585
 20
292.0478207057561235
 30
0.0
 11
6635.1231249055153967
 21
292.3254160906636798
 31
0.0
  0
ARC
  5
2F3B6
  8
0
 10
6635.4516523119700651
 20
291.8913905390664922
 30
0.0
 40
0.1181102365080359
 50
1.0000000909349369
 51
34.4116621879189424
  0
LINE
  5
2F3B7
  8
0
 10
6635.5697445597133992
 20
291.8934518471060073
 30
0.0
 11
6635.5757778328143104
 21
291.5478058617711099
 31
0.0
  0
ARC
  5
2F3B8
  8
0
 10
6635.6058229967638908
 20
291.5483303020573089
 30
0.0
 40
0.0300497406715615
 50
180.9999999974156992
 51
266.7317989249032735
  0
LINE
  5
2F3B9
  8
0
 10
6634.5586013323945735
 20
292.3454033914911747
 30
0.0
 11
6634.5634642332443036
 21
292.6788133554164233
 31
0.0
  0
ARC
  5
2F3BA
  8
0
 10
6634.5782992373151501
 20
292.3451160906636801
 30
0.0
 40
0.0197
 50
179.164380282274891
 51
270.0
  0
ARC
  5
2F3BB
  8
0
 10
6634.6043598835585726
 20
292.6782168780637221
 30
0.0
 40
0.0409
 50
90.0
 51
179.1643802822717078
  0
LINE
  5
2F3BC
  8
0
 10
6637.129501269294451
 20
291.4296011081904112
 30
0.0
 11
6634.9397898121351318
 21
291.4296011081904112
 31
0.0
  0
ARC
  5
2F3BD
  8
0
 10
6635.7520678913097072
 20
292.7629356847662052
 30
0.0
 40
0.0438513635948715
 50
272.2079763837569999
 51
335.4807746998434936
  0
ARC
  5
2F3BE
  8
0
 10
6636.3183152061246801
 20
292.7636245781810089
 30
0.0
 40
0.0451293551629135
 50
204.7097989340321078
 51
260.4789993706535824
  0
LINE
  5
2F3BF
  8
0
 10
6635.4834644461152493
 20
292.0420588450637069
 30
0.0
 11
6635.4834644461152493
 21
291.5183294339635722
 31
0.0
  0
LINE
  5
2F3C0
  8
0
 10
6636.5858266508148517
 20
292.0420588450637069
 30
0.0
 11
6636.5858266508148517
 21
291.5183294339635722
 31
0.0
  0
LINE
  5
2F3C1
  8
0
 10
6635.4149666931052707
 20
292.0420588450637069
 30
0.0
 11
6636.6543243883243122
 21
292.0420588450637069
 31
0.0
  0
ARC
  5
2F3C2
  8
0
 10
6635.4149666931052707
 20
292.0617588450637072
 30
0.0
 40
0.0197
 50
225.0334729664043891
 51
270.0
  0
ARC
  5
2F3C3
  8
0
 10
6636.6543243883243122
 20
292.0617588450637072
 30
0.0
 40
0.0197
 50
270.0
 51
314.9665270335887044
  0
LINE
  5
2F3C4
  8
0
 10
6636.5236455484146063
 20
291.9692719410504083
 30
0.0
 11
6636.5236455484146063
 21
292.0420588450637069
 31
0.0
  0
ARC
  5
2F3C5
  8
0
 10
6636.5039455484138671
 20
291.9692719410504083
 30
0.0
 40
0.0197
 50
325.5883264828963206
 51
359.9999999998991029
  0
LINE
  5
2F3C6
  8
0
 10
6635.5456455484154503
 20
291.9692719185690066
 30
0.0
 11
6635.5456455484154503
 21
292.0420588450637069
 31
0.0
  0
ARC
  5
2F3C7
  8
0
 10
6635.5653455484143706
 20
291.9692719185690066
 30
0.0
 40
0.0197
 50
180.0000000001139995
 51
214.4116621876102045
  0
LINE
  5
2F3C8
  8
0
 10
6635.7015416313051901
 20
292.0420588450637069
 30
0.0
 11
6635.7549631061392574
 21
292.0155503172728118
 31
0.0
  0
ARC
  5
2F3C9
  8
0
 10
6635.8015067758688019
 20
292.1093477360054749
 30
0.0
 40
0.1047104051795088
 50
243.6087110169260086
 51
255.9059047908313005
  0
ARC
  5
2F3CA
  8
0
 10
6635.7652731528742152
 20
291.9650326909930982
 30
0.0
 40
0.0440837736456569
 50
65.0378176973681406
 51
75.9059047908313573
  0
ARC
  5
2F3CB
  8
0
 10
6635.777470590744997
 20
291.9912353207362798
 30
0.0
 40
0.015181259981785
 50
340.5293893358282276
 51
65.0378176973681406
  0
ARC
  5
2F3CC
  8
0
 10
6635.7462478673278383
 20
292.0022738465193015
 30
0.0
 40
0.0482978345194324
 50
311.9664563677687852
 51
340.5293893358282276
  0
ARC
  5
2F3CD
  8
0
 10
6635.7560544141515493
 20
291.9913697417762819
 30
0.0
 40
0.0336326423667343
 50
278.9000553367010866
 51
311.9664563677687852
  0
LINE
  5
2F3CE
  8
0
 10
6636.3080333160924056
 20
291.9581420459635979
 30
0.0
 11
6636.5202002539990644
 21
291.9581420459635979
 31
0.0
  0
LINE
  5
2F3CF
  8
0
 10
6636.3677494501262117
 20
292.0420588450637069
 30
0.0
 11
6636.3143279752903254
 21
292.0155503172728118
 31
0.0
  0
ARC
  5
2F3D0
  8
0
 10
6636.2677843055607809
 20
292.1093477360054749
 30
0.0
 40
0.1047104051795088
 50
284.0940952091686995
 51
296.3912889830739914
  0
ARC
  5
2F3D1
  8
0
 10
6636.3040179285553677
 20
291.9650326909930982
 30
0.0
 40
0.0440837736456569
 50
104.0940952091686
 51
114.9621823026318026
  0
ARC
  5
2F3D2
  8
0
 10
6636.2918204906827668
 20
291.9912353207362798
 30
0.0
 40
0.015181259981785
 50
114.9621823026318026
 51
199.4706106641718861
  0
ARC
  5
2F3D3
  8
0
 10
6636.3230432141017445
 20
292.0022738465193015
 30
0.0
 40
0.0482978345194324
 50
199.4706106641718861
 51
228.0335436322311864
  0
ARC
  5
2F3D4
  8
0
 10
6636.3132366672771241
 20
291.9913697417762819
 30
0.0
 40
0.0336326423667343
 50
228.0335436322311864
 51
261.0999446632987997
  0
LINE
  5
2F3D5
  8
0
 10
6634.320711339927584
 20
298.3305553638635956
 30
0.0
 11
6636.0629834783148908
 21
298.3305553638635956
 31
0.0
  0
ARC
  5
2F3D6
  8
0
 10
6634.320711339927584
 20
297.5337553638635768
 30
0.0
 40
0.7968
 50
90.0
 51
130.0000000015837998
  0
LINE
  5
2F3D7
  8
0
 10
6636.170083478313245
 20
298.2234553638637067
 30
0.0
 11
6636.170083478313245
 21
296.4859343704922026
 31
0.0
  0
ARC
  5
2F3D8
  8
0
 10
6636.0629834783148908
 20
298.2234553638637067
 30
0.0
 40
0.1071
 50
0.0
 51
90.0
  0
ARC
  5
2F3D9
  8
0
 10
6635.3608834783135535
 20
296.4859343704922026
 30
0.0
 40
0.8092
 50
320.011583120607213
 51
0.0
  0
LINE
  5
2F3DB
  8
0
 10
6633.5134688258021924
 20
297.8650728032637858
 30
0.0
 11
6635.3441156302169475
 21
297.8650728033636028
 31
0.0
  0
ARC
  5
2F3DC
  8
0
 10
6633.5134688258012829
 20
297.8750728032637767
 30
0.0
 40
0.01
 50
129.9999999960118942
 51
270.0000000031266154
  0
LINE
  5
2F3DD
  8
0
 10
6635.4532222066618488
 20
297.8198793795991719
 30
0.0
 11
6635.6594071690542478
 21
297.6136944168250125
 31
0.0
  0
ARC
  5
2F3DE
  8
0
 10
6635.3441156302242234
 20
297.7107728033636249
 30
0.0
 40
0.1543
 50
44.9999999466494529
 51
90.0000000031266296
  0
LINE
  5
2F3DF
  8
0
 10
6635.7046005926149519
 20
297.5045878405895223
 30
0.0
 11
6635.7046005926149519
 21
295.6739412154885827
 31
0.0
  0
ARC
  5
2F3E0
  8
0
 10
6635.5503005926148035
 20
297.5045878405895223
 30
0.0
 40
0.1543
 50
0.0
 51
44.9999999466494529
  0
LINE
  5
2F3E1
  8
0
 10
6635.9286775086548005
 20
295.9135109110646908
 30
0.0
 11
6635.6192351267463891
 21
295.5447318406311865
 31
0.0
  0
ARC
  5
2F3E2
  8
0
 10
6635.6115746823143127
 20
295.5511597167271134
 30
0.0
 40
0.01
 50
180.0
 51
320.0000000071808017
  0
ARC
  5
2F3E3
  8
0
 10
6635.7146005926133512
 20
295.6739412154885827
 30
0.0
 40
0.01
 50
180.0
 51
320.0000000071808017
  0
ARC
  5
2F3E4
  8
0
 10
6635.5839575092149971
 20
296.2027653353803203
 30
0.0
 40
0.45
 50
320.0000000071808017
 51
0.0
  0
ARC
  5
2F3E5
  8
0
 10
6635.4638212213112638
 20
295.6712814824725797
 30
0.0
 40
0.207089283106145
 50
322.9921988503738248
 51
334.6040583695390183
  0
ARC
  5
2F3E6
  8
0
 10
6635.492187642393219
 20
295.8718956802482012
 30
0.0
 40
0.3143075878828951
 50
322.5599392929174769
 51
331.819859104079228
  0
LINE
  5
2F3E7
  8
0
 10
6633.7538581070793953
 20
298.089837433387288
 30
0.0
 11
6633.3842590638769252
 21
297.7797070125952814
 31
0.0
  0
ARC
  5
2F3E8
  8
0
 10
6633.5283372379153661
 20
297.6479419588636119
 30
0.0
 40
0.2000000000000305
 50
115.4288981839225983
 51
129.9073289797024131
  0
ARC
  5
2F3E9
  8
0
 10
6633.744596360412288
 20
297.6056247416369729
 30
0.0
 40
0.3718112269717614
 50
118.9960420543721966
 51
127.3901002787746961
  0
ARC
  5
2F3EA
  8
0
 10
6635.4307439295371296
 20
299.2687148023568966
 30
0.0
 40
0.5399199899004782
 50
257.4701821247235785
 51
282.5298178752764215
  0
ARC
  5
2F3EB
  8
0
 10
6637.1147586567158214
 20
297.5908733492635747
 30
0.0
 40
0.5459543189072283
 50
167.7762617446126967
 51
192.2237382553871896
  0
ENDSEC
  0
EOF
