  0
SECTION
  2
HEADER
  9
$ACADVER
  1
AC1009
  9
$INSBASE
 10
6667.8055143881947515
 20
292.9074745105644979
 30
0.0
  9
$EXTMIN
 10
6657.9632325244929234
 20
291.4218156789366958
 30
-0.0000000000112498
  9
$EXTMAX
 10
6668.1376848876097938
 20
294.3866604627755237
 30
0.0000000000002956
  9
$LIMMIN
 10
0.0
 20
0.0
  9
$LIMMAX
 10
11.6929133858000007
 20
8.2677165353999982
  9
$ORTHOMODE
 70
     0
  9
$REGENMODE
 70
     1
  9
$FILLMODE
 70
     1
  9
$QTEXTMODE
 70
     0
  9
$MIRRTEXT
 70
     0
  9
$DRAGMODE
 70
     2
  9
$LTSCALE
 40
0.6431102362
  9
$OSMODE
 70
  4095
  9
$ATTMODE
 70
     1
  9
$TEXTSIZE
 40
0.2
  9
$TRACEWID
 40
0.05
  9
$TEXTSTYLE
  7
STANDARD
  9
$CLAYER
  8
0
  9
$CELTYPE
  6
BYLAYER
  9
$CECOLOR
 62
   256
  9
$DIMSCALE
 40
1.0
  9
$DIMASZ
 40
0.1875
  9
$DIMEXO
 40
0.0625
  9
$DIMDLI
 40
0.4443307087
  9
$DIMRND
 40
0.0
  9
$DIMDLE
 40
0.0
  9
$DIMEXE
 40
0.125
  9
$DIMTP
 40
0.01
  9
$DIMTM
 40
0.01
  9
$DIMTXT
 40
2.0
  9
$DIMCEN
 40
0.1052362205
  9
$DIMTSZ
 40
0.0
  9
$DIMTOL
 70
     1
  9
$DIMLIM
 70
     0
  9
$DIMTIH
 70
     1
  9
$DIMTOH
 70
     1
  9
$DIMSE1
 70
     0
  9
$DIMSE2
 70
     0
  9
$DIMTAD
 70
     0
  9
$DIMZIN
 70
     0
  9
$DIMBLK
  1

  9
$DIMASO
 70
     1
  9
$DIMSHO
 70
     1
  9
$DIMPOST
  1
\X
  9
$DIMAPOST
  1

  9
$DIMALT
 70
     1
  9
$DIMALTD
 70
     2
  9
$DIMALTF
 40
25.3999999999999986
  9
$DIMLFAC
 40
1.0
  9
$DIMTOFL
 70
     0
  9
$DIMTVP
 40
0.0
  9
$DIMTIX
 70
     0
  9
$DIMSOXD
 70
     0
  9
$DIMSAH
 70
     0
  9
$DIMBLK1
  1

  9
$DIMBLK2
  1

  9
$DIMSTYLE
  2
STANDARD
  9
$DIMCLRD
 70
     0
  9
$DIMCLRE
 70
     0
  9
$DIMCLRT
 70
     0
  9
$DIMTFAC
 40
1.0
  9
$DIMGAP
 40
0.09
  9
$LUNITS
 70
     2
  9
$LUPREC
 70
     4
  9
$SKETCHINC
 40
0.1
  9
$FILLETRAD
 40
0.0
  9
$AUNITS
 70
     0
  9
$AUPREC
 70
     0
  9
$MENU
  1
.
  9
$ELEVATION
 40
0.0
  9
$PELEVATION
 40
0.0
  9
$THICKNESS
 40
0.0
  9
$LIMCHECK
 70
     0
  9
$BLIPMODE
 70
     0
  9
$CHAMFERA
 40
0.0
  9
$CHAMFERB
 40
0.0
  9
$SKPOLY
 70
     0
  9
$TDCREATE
 40
2458060.468368056230247
  9
$TDUPDATE
 40
2460738.6685879630967975
  9
$TDINDWG
 40
0.8205626157
  9
$TDUSRTIMER
 40
0.8205626157
  9
$USRTIMER
 70
     1
  9
$ANGBASE
 50
0.0
  9
$ANGDIR
 70
     0
  9
$PDMODE
 70
     0
  9
$PDSIZE
 40
0.3125
  9
$PLINEWID
 40
0.0
  9
$COORDS
 70
     1
  9
$SPLFRAME
 70
     0
  9
$SPLINETYPE
 70
     6
  9
$SPLINESEGS
 70
     8
  9
$ATTDIA
 70
     1
  9
$ATTREQ
 70
     1
  9
$HANDLING
 70
     1
  9
$HANDSEED
  5
2F689
  9
$SURFTAB1
 70
     6
  9
$SURFTAB2
 70
     6
  9
$SURFTYPE
 70
     6
  9
$SURFU
 70
     6
  9
$SURFV
 70
     6
  9
$UCSNAME
  2

  9
$UCSORG
 10
0.0
 20
0.0
 30
0.0
  9
$UCSXDIR
 10
1.0
 20
0.0
 30
0.0
  9
$UCSYDIR
 10
0.0
 20
1.0
 30
0.0
  9
$PUCSNAME
  2

  9
$PUCSORG
 10
0.0
 20
0.0
 30
0.0
  9
$PUCSXDIR
 10
1.0
 20
0.0
 30
0.0
  9
$PUCSYDIR
 10
0.0
 20
1.0
 30
0.0
  9
$USERI1
 70
     0
  9
$USERI2
 70
     0
  9
$USERI3
 70
     0
  9
$USERI4
 70
     0
  9
$USERI5
 70
     0
  9
$USERR1
 40
0.0
  9
$USERR2
 40
0.0
  9
$USERR3
 40
0.0
  9
$USERR4
 40
0.0
  9
$USERR5
 40
0.0
  9
$WORLDVIEW
 70
     1
  9
$SHADEDGE
 70
     3
  9
$SHADEDIF
 70
    70
  9
$TILEMODE
 70
     1
  9
$MAXACTVP
 70
    64
  9
$PLIMCHECK
 70
     0
  9
$PEXTMIN
 10
1.0000000000000000E+20
 20
1.0000000000000000E+20
 30
1.0000000000000000E+20
  9
$PEXTMAX
 10
-1.0000000000000000E+20
 20
-1.0000000000000000E+20
 30
-1.0000000000000000E+20
  9
$PLIMMIN
 10
0.0
 20
0.0
  9
$PLIMMAX
 10
12.0
 20
9.0
  9
$UNITMODE
 70
     0
  9
$VISRETAIN
 70
     1
  9
$PLINEGEN
 70
     0
  9
$PSLTSCALE
 70
     1
  0
ENDSEC
  0
SECTION
  2
TABLES
  0
TABLE
  2
VPORT
 70
     1
  0
VPORT
  2
*ACTIVE
 70
     0
 10
0.0
 20
0.0
 11
1.0
 21
1.0
 12
2751.6851022607388586
 22
160.3246329683169904
 13
0.0
 23
0.0
 14
1.0
 24
1.0
 15
0.0
 25
0.0
 16
0.0
 26
0.0
 36
60.4960186965801583
 17
3911.3653564453120453
 27
132.5796051025390057
 37
0.0
 40
4.7583506614553057
 41
2.1449438202247189
 42
50.0
 43
0.0
 44
0.0
 50
0.0
 51
0.0
 71
     0
 72
   100
 73
     1
 74
     1
 75
     0
 76
     0
 77
     0
 78
     0
  0
ENDTAB
  0
TABLE
  2
LTYPE
 70
     2
  0
LTYPE
  2
CONTINUOUS
 70
     0
  3
Solid line
 72
    65
 73
     0
 40
0.0
  0
LTYPE
  2
PHANTOM2
 70
     0
  3
___ _ _ ___ _ _ ___ _ _ ___ _ _
 72
    65
 73
     6
 40
1.25
 49
0.625
 49
-0.125
 49
0.125
 49
-0.125
 49
0.125
 49
-0.125
  0
ENDTAB
  0
TABLE
  2
LAYER
 70
     2
  0
LAYER
  2
0
 70
     0
 62
   255
  6
CONTINUOUS
  0
LAYER
  2
DEFPOINTS
 70
     0
 62
     7
  6
CONTINUOUS
  0
ENDTAB
  0
TABLE
  2
STYLE
 70
     1
  0
STYLE
  2
STANDARD
 70
     0
 40
0.0
 41
0.8
 50
0.0
 71
     0
 42
0.2
  3
txt
  4

  0
ENDTAB
  0
TABLE
  2
VIEW
 70
     0
  0
ENDTAB
  0
TABLE
  2
UCS
 70
     0
  0
ENDTAB
  0
TABLE
  2
APPID
 70
    11
  0
APPID
  2
ACAD
 70
     0
  0
APPID
  2
ACAD_MLEADERVER
 70
     0
  0
APPID
  2
ACAD_EXEMPT_FROM_CAD_STANDARDS
 70
     0
  0
APPID
  2
ACAD_NAV_VCDISPLAY
 70
     0
  0
APPID
  2
ACAECLAYERSTANDARD
 70
     0
  0
APPID
  2
ACCMTRANSPARENCY
 70
     0
  0
APPID
  2
ACAD_DSTYLE_DIMJAG
 70
     0
  0
APPID
  2
ACAD_DSTYLE_DIMTALN
 70
     0
  0
APPID
  2
ACDBATTR
 70
     0
  0
APPID
  2
ACADANNOTATIVE
 70
     0
  0
APPID
  2
DCO15
 70
     0
  0
ENDTAB
  0
TABLE
  2
DIMSTYLE
 70
     1
  0
DIMSTYLE
  2
STANDARD
 70
     0
  3

  4

  5

  6

  7

 40
1.0
 41
0.1875
 42
0.0625
 43
0.38
 44
0.125
 45
0.0
 46
0.0
 47
0.01
 48
0.01
140
0.15625
141
0.09
142
0.0
143
25.3999999999999986
144
1.0
145
0.0
146
1.0
147
0.09
 71
     1
 72
     0
 73
     1
 74
     1
 75
     0
 76
     0
 77
     0
 78
     4
170
     0
171
     2
172
     0
173
     0
174
     0
175
     0
176
     0
177
     0
178
     0
  0
ENDTAB
  0
ENDSEC
  0
SECTION
  2
BLOCKS
  0
BLOCK
  8
0
  2
$MODEL_SPACE
 70
     0
 10
0.0
 20
0.0
 30
0.0
  3
$MODEL_SPACE
  1

  0
ENDBLK
  5
21
  8
0
  0
BLOCK
 67
     1
  8
0
  2
$PAPER_SPACE
 70
     0
 10
0.0
 20
0.0
 30
0.0
  3
$PAPER_SPACE
  1

  0
ENDBLK
  5
1D
 67
     1
  8
0
  0
BLOCK
  8
0
  2
_FILLED
 70
     0
 10
0.0
 20
0.0
 30
0.0
  3
_FILLED
  1

  0
SOLID
  5
2EA64
  8
0
  6
BYBLOCK
 62
     0
 10
0.0
 20
0.0
 30
0.0
 11
-1.0
 21
0.1666666667
 31
0.0
 12
-1.0
 22
-0.1666666667
 32
0.0
 13
-1.0
 23
-0.1666666667
 33
0.0
  0
ENDBLK
  5
2EA65
  8
0
  6
BYBLOCK
 62
     0
  0
ENDSEC
  0
SECTION
  2
ENTITIES
  0
ATTDEF
  5
26A5B
  8
DEFPOINTS
 10
6667.8058688219825854
 20
292.9070601349071126
 30
0.0
 40
0.001
  1
P34885-BN
  3

  2
MODELNUMBER
 70
     0
1001
ACDBATTR
1070
     0
1070
     1
  0
ATTDEF
  5
26A5C
  8
DEFPOINTS
 10
6667.8057430123262748
 20
292.9053932945279826
 30
0.0
 40
0.001
  1

  3

  2
TRADENAME
 70
     0
1001
ACDBATTR
1070
     0
1070
     1
  0
ATTDEF
  5
26A5D
  8
DEFPOINTS
 10
6667.8058688219825854
 20
292.9037268015737823
 30
0.0
 40
0.001
  1
BATHROOM SINK FAUCET
  3

  2
PRODUCT
 70
     0
1001
ACDBATTR
1070
     0
1070
     1
  0
LINE
  5
2F481
  8
0
 10
6658.476210528284355
 20
291.7274745105644911
 30
0.0
 11
6659.2699363582951264
 21
291.7274745105644911
 31
0.0
  0
LINE
  5
2F482
  8
0
 10
6658.3218923409449417
 20
291.8817926979145909
 30
0.0
 11
6658.3218923409449417
 21
292.9062745105645149
 31
0.0
  0
LINE
  5
2F483
  8
0
 10
6659.42424764689531
 20
291.8817857991541018
 30
0.0
 11
6659.42424764689531
 21
292.2087507358644984
 31
0.0
  0
LINE
  5
2F484
  8
0
 10
6659.5706476468940309
 20
292.3551507358645267
 30
0.0
 11
6663.3824653973470049
 21
292.3551507358645267
 31
0.0
  0
ARC
  5
2F485
  8
0
 10
6659.5706476468940309
 20
292.2087507358644984
 30
0.0
 40
0.1464
 50
90.0
 51
180.0
  0
ARC
  5
2F486
  8
0
 10
6658.875113831991257
 20
292.9054371815570903
 30
0.0
 40
0.5532221247157062
 50
90.2093610465280022
 51
179.9132799749611138
  0
LINE
  5
2F487
  8
0
 10
6667.8055143881947515
 20
291.647631990864511
 30
0.0
 11
6667.8055143881947515
 21
294.1673170302644849
 31
0.0
  0
ARC
  5
2F488
  8
0
 10
6667.7955143881954427
 20
294.0224748054145039
 30
0.0
 40
0.01
 50
0.0
 51
90.0
  0
LINE
  5
2F489
  8
0
 10
6667.3155143881958793
 20
292.2217165925644053
 30
0.0
 11
6667.3155143881958793
 21
293.5932324285644768
 31
0.0
  0
LINE
  5
2F48A
  8
0
 10
6667.7955143881954427
 20
291.7824742156143998
 30
0.0
 11
6667.4379309124551582
 21
291.7824742156143998
 31
0.0
  0
ARC
  5
2F48B
  8
0
 10
6667.7955143881954427
 20
291.7924742156145044
 30
0.0
 40
0.01
 50
270.0
 51
0.0
  0
LINE
  5
2F48C
  8
0
 10
6666.5084277314963401
 20
291.4511431601811182
 30
0.0
 11
6666.5084277314963401
 21
294.3638058609478207
 31
0.0
  0
ARC
  5
2F48D
  8
0
 10
6666.4887277314937819
 20
293.1374276370164011
 30
0.0
 40
0.0197
 50
0.0
 51
90.9999999939300466
  0
LINE
  5
2F48E
  8
0
 10
6666.7860231164031575
 20
292.273873799787907
 30
0.0
 11
6666.5084277314963401
 21
291.9959538753145125
 31
0.0
  0
ARC
  5
2F48F
  8
0
 10
6666.9424532830907992
 20
292.3244812817700904
 30
0.0
 40
0.1181102365080359
 50
91.0000000909219153
 51
124.4116735173856938
  0
LINE
  5
2F490
  8
0
 10
6666.9403919750529894
 20
292.4425735295137088
 30
0.0
 11
6667.2860379603871479
 21
292.4486068026142789
 31
0.0
  0
ARC
  5
2F491
  8
0
 10
6667.285513520101631
 20
292.4786519665648825
 30
0.0
 40
0.0300497406715615
 50
270.9999999974219236
 51
356.7317989249003176
  0
LINE
  5
2F492
  8
0
 10
6666.8757017761963652
 20
293.1808622858923172
 30
0.0
 11
6666.8757017761963652
 21
293.393029223799374
 31
0.0
  0
LINE
  5
2F493
  8
0
 10
6666.1147269440962191
 20
291.4772038064264166
 30
0.0
 11
6666.1147269440962191
 21
292.6312696510415776
 31
0.0
  0
LINE
  5
2F494
  8
0
 10
6666.1147269440962191
 20
293.1883627019303162
 30
0.0
 11
6666.1147269440962191
 21
294.3377452147025224
 31
0.0
  0
LINE
  5
2F495
  8
0
 10
6666.4884404306676515
 20
291.4314452552612238
 30
0.0
 11
6666.1550304667425735
 21
291.4363081561103854
 31
0.0
  0
ARC
  5
2F496
  8
0
 10
6666.4887277314937819
 20
291.4511431601811182
 30
0.0
 40
0.0197
 50
269.1643802822948146
 51
359.9999999999935199
  0
LINE
  5
2F497
  8
0
 10
6666.4883855959096763
 20
292.6578661810859217
 30
0.0
 11
6665.6217299419622577
 21
292.6729199103976953
 31
0.0
  0
ARC
  5
2F498
  8
0
 10
6666.4887277314937819
 20
292.6775632098780875
 30
0.0
 40
0.0197
 50
269.004877631567183
 51
359.9999999999968168
  0
LINE
  5
2F499
  8
0
 10
6665.5635457235939612
 20
292.7328228057912725
 30
0.0
 11
6665.5635457235939612
 21
293.0821261997376155
 31
0.0
  0
LINE
  5
2F49A
  8
0
 10
6665.5690747295102483
 20
292.7191380359124082
 30
0.0
 11
6665.6079010834628207
 21
292.6789321693111106
 31
0.0
  0
ARC
  5
2F49B
  8
0
 10
6665.5832457235947004
 20
292.7328228057912725
 30
0.0
 40
0.0197
 50
180.0
 51
223.9999999224588123
  0
ARC
  5
2F49C
  8
0
 10
6665.6220720775481823
 20
292.692616939189918
 30
0.0
 40
0.0197
 50
223.999999922454208
 51
269.004877631567183
  0
ARC
  5
2F49D
  8
0
 10
6666.1556269440952747
 20
291.4772038064264166
 30
0.0
 40
0.0409
 50
180.0
 51
269.1643802822948146
  0
LINE
  5
2F49E
  8
0
 10
6665.6216968727321728
 20
293.1419965580362259
 30
0.0
 11
6666.4883839190906656
 21
293.1571246366111154
 31
0.0
  0
LINE
  5
2F49F
  8
0
 10
6665.5690747295284382
 20
293.095810969634897
 30
0.0
 11
6665.6078696910690269
 21
293.1359843283387931
 31
0.0
  0
ARC
  5
2F4A0
  8
0
 10
6665.5832457235947004
 20
293.0821261997376155
 30
0.0
 40
0.0197
 50
136.0000000033465142
 51
179.9999999999967031
  0
ARC
  5
2F4A1
  8
0
 10
6665.6220406851371081
 20
293.1222995584416253
 30
0.0
 40
0.0197
 50
90.9999999939300466
 51
136.0000000033419099
  0
LINE
  5
2F4A2
  8
0
 10
6665.6079010834628207
 20
293.1360167616732042
 30
0.0
 11
6665.6079010834628207
 21
292.6789321693111106
 31
0.0
  0
LINE
  5
2F4A3
  8
0
 10
6667.7955143881954427
 20
294.0324748054144948
 30
0.0
 11
6667.4379309125306463
 21
294.0324748054144948
 31
0.0
  0
LINE
  5
2F4A4
  8
0
 10
6666.7860231164031575
 20
293.5410752212411012
 30
0.0
 11
6666.5084277314963401
 21
293.8189951457144957
 31
0.0
  0
ARC
  5
2F4A5
  8
0
 10
6666.9424532830907992
 20
293.4904677392589178
 30
0.0
 40
0.1181102365080359
 50
235.5883378120880991
 51
268.9999999090780989
  0
LINE
  5
2F4A6
  8
0
 10
6666.9403919750529894
 20
293.3723754915152995
 30
0.0
 11
6667.2860379603871479
 21
293.3663422184146157
 31
0.0
  0
ARC
  5
2F4A7
  8
0
 10
6667.285513520101631
 20
293.3362970544641257
 30
0.0
 40
0.0300497406715615
 50
3.268201075099709
 51
89.0000000025781048
  0
LINE
  5
2F4A8
  8
0
 10
6666.4884404306676515
 20
294.383503765867772
 30
0.0
 11
6666.1550304667425735
 21
294.3786408650184967
 31
0.0
  0
ARC
  5
2F4A9
  8
0
 10
6666.4887277314937819
 20
294.3638058609478207
 30
0.0
 40
0.0197
 50
0.0000000000065138
 51
90.8356197177051712
  0
ARC
  5
2F4AA
  8
0
 10
6666.1556269440952747
 20
294.3377452147025224
 30
0.0
 40
0.0409
 50
90.8356197177051712
 51
180.0
  0
ARC
  5
2F4AB
  8
0
 10
6666.0709081373915978
 20
293.1900521599188778
 30
0.0
 40
0.0438513635948715
 50
294.5192253001417271
 51
357.7920236162627248
  0
ARC
  5
2F4AC
  8
0
 10
6666.0702192439766804
 20
292.6238048451039049
 30
0.0
 40
0.0451293551629135
 50
9.5210006293538445
 51
65.2902010659422558
  0
LINE
  5
2F4AD
  8
0
 10
6666.7917849770938119
 20
293.4586556051144726
 30
0.0
 11
6667.3155143881958793
 21
293.4586556051144726
 31
0.0
  0
LINE
  5
2F4AE
  8
0
 10
6666.7917849770938119
 20
293.5271533581242807
 30
0.0
 11
6666.7917849770938119
 21
292.2877956629047276
 31
0.0
  0
ARC
  5
2F4AF
  8
0
 10
6666.7720849770939822
 20
293.5271533581242807
 30
0.0
 40
0.0197
 50
0.0
 51
44.9665270336071288
  0
ARC
  5
2F4B0
  8
0
 10
6666.7720849770939822
 20
292.2877956629047276
 30
0.0
 40
0.0197
 50
315.0334729663998132
 51
0.0
  0
LINE
  5
2F4B1
  8
0
 10
6666.8645718811094412
 20
292.4184745028144903
 30
0.0
 11
6666.7917849770938119
 21
292.4184745028144903
 31
0.0
  0
ARC
  5
2F4B2
  8
0
 10
6666.8645718811094412
 20
292.4381745028147179
 30
0.0
 40
0.0197
 50
270.000000000104194
 51
304.4116735171216988
  0
LINE
  5
2F4B3
  8
0
 10
6666.8645719035894217
 20
293.3964745028144989
 30
0.0
 11
6666.7917849770938119
 21
293.3964745028144989
 31
0.0
  0
ARC
  5
2F4B4
  8
0
 10
6666.8645719035894217
 20
293.3767745028142144
 30
0.0
 40
0.0197
 50
55.5883378124061593
 51
89.9999999998957776
  0
LINE
  5
2F4B5
  8
0
 10
6666.7917849770938119
 20
293.2405784199248728
 30
0.0
 11
6666.8182935048862419
 21
293.1871569450905213
 31
0.0
  0
ARC
  5
2F4B6
  8
0
 10
6666.7244960861526124
 20
293.1406132753604084
 30
0.0
 40
0.1047104051795088
 50
14.0940952091615692
 51
26.3912889830667616
  0
ARC
  5
2F4B7
  8
0
 10
6666.8688111311648754
 20
293.1768468983552225
 30
0.0
 40
0.0440837736456569
 50
194.0940952091615088
 51
204.9621823026394907
  0
ARC
  5
2F4B8
  8
0
 10
6666.8426085014225464
 20
293.1646494604834743
 30
0.0
 40
0.015181259981785
 50
204.9621823026394907
 51
289.4706106641812084
  0
ARC
  5
2F4B9
  8
0
 10
6666.8315699756385584
 20
293.1958721839015993
 30
0.0
 40
0.0482978345194324
 50
289.4706106641812084
 51
318.033543632210808
  0
ARC
  5
2F4BA
  8
0
 10
6666.8424740803820896
 20
293.186065637076581
 30
0.0
 40
0.0336326423667343
 50
318.0335436322133091
 51
351.0999446632861236
  0
LINE
  5
2F4BB
  8
0
 10
6666.8757017761963652
 20
292.634086735136691
 30
0.0
 11
6666.8757017761963652
 21
292.4219197972295774
 31
0.0
  0
LINE
  5
2F4BC
  8
0
 10
6666.7917849770938119
 20
292.5743706011040786
 30
0.0
 11
6666.8182935048862419
 21
292.627792075938487
 31
0.0
  0
ARC
  5
2F4BD
  8
0
 10
6666.7244960861526124
 20
292.6743357456684862
 30
0.0
 40
0.1047104051795088
 50
333.6087110169332277
 51
345.9059047908385196
  0
ARC
  5
2F4BE
  8
0
 10
6666.8688111311648754
 20
292.6381021226737857
 30
0.0
 40
0.0440837736456569
 50
155.0378176973605093
 51
165.9059047908384059
  0
ARC
  5
2F4BF
  8
0
 10
6666.8426085014225464
 20
292.6502995605454771
 30
0.0
 40
0.015181259981785
 50
70.5293893358187347
 51
155.0378176973605093
  0
ARC
  5
2F4C0
  8
0
 10
6666.8315699756385584
 20
292.6190768371274089
 30
0.0
 40
0.0482978345194324
 50
41.9664563677891707
 51
70.5293893358187347
  0
ARC
  5
2F4C1
  8
0
 10
6666.8424740803820896
 20
292.6288833839523136
 30
0.0
 40
0.0336326423667343
 50
8.9000553367138444
 51
41.9664563677867477
  0
LINE
  5
2F4C2
  8
0
 10
6658.4196419857862566
 20
291.7509059680735959
 30
0.0
 11
6658.345323798445861
 21
291.8252241554238253
 31
0.0
  0
LINE
  5
2F4C3
  8
0
 10
6659.3265049007859488
 20
291.750905968065581
 30
0.0
 11
6659.4008161893862052
 21
291.8252172566553213
 31
0.0
  0
ARC
  5
2F4C4
  8
0
 10
6659.2699363582951264
 20
291.8074745105644752
 30
0.0
 40
0.08
 50
270.0
 51
314.9999999960251102
  0
ARC
  5
2F4C5
  8
0
 10
6658.476210528284355
 20
291.8074745105644752
 30
0.0
 40
0.08
 50
224.9999999958754131
 51
270.0
  0
ARC
  5
2F4C6
  8
0
 10
6658.4018923409439594
 20
291.8817926979145909
 30
0.0
 40
0.08
 50
180.0
 51
224.9999999958731109
  0
ARC
  5
2F4C7
  8
0
 10
6659.3442476468953828
 20
291.8817857991541018
 30
0.0
 40
0.08
 50
314.999999996027384
 51
359.9999999999968168
  0
LINE
  5
2F4C8
  8
0
 10
6658.3465049008045753
 20
291.8240430530644858
 30
0.0
 11
6659.3996419857940054
 21
291.8240430530644858
 31
0.0
  0
LINE
  5
2F4C9
  8
0
 10
6667.3094418925447826
 20
292.4604745105644952
 30
0.0
 11
6667.3155143881958793
 21
292.4604745105644952
 31
0.0
  0
LINE
  5
2F4CA
  8
0
 10
6667.8055143881947515
 20
291.647631990864511
 30
0.0
 11
6667.4834512430797986
 21
291.647631990864511
 31
0.0
  0
LINE
  5
2F4CB
  8
0
 10
6667.8055143881947515
 20
294.1673170302644849
 30
0.0
 11
6667.4834544900932087
 21
294.1673170302644849
 31
0.0
  0
LINE
  5
2F4CC
  8
0
 10
6667.3330734432947793
 20
293.734874938920882
 30
0.0
 11
6667.3330734432947793
 21
293.6903922708032724
 31
0.0
  0
LINE
  5
2F4CD
  8
0
 10
6667.3330734432947793
 20
292.1245567502414247
 30
0.0
 11
6667.3330734432947793
 21
292.0800740818233976
 31
0.0
  0
LINE
  5
2F4CE
  8
0
 10
6667.3987987178716139
 20
291.8141873979416232
 30
0.0
 11
6667.3184649265940607
 21
292.1935414124645263
 31
0.0
  0
ARC
  5
2F4CF
  8
0
 10
6667.4379309124551582
 20
291.8224742156144771
 30
0.0
 40
0.04
 50
191.9565842383219945
 51
270.0
  0
LINE
  5
2F4D0
  8
0
 10
6667.3155143881958793
 20
292.2217165925644053
 30
0.0
 11
6667.3184649265940607
 21
292.1935414124645263
 31
0.0
  0
LINE
  5
2F4D1
  8
0
 10
6667.3155143881958793
 20
293.5932324285644768
 30
0.0
 11
6667.3184649265940607
 21
293.6214076086645264
 31
0.0
  0
LINE
  5
2F4D2
  8
0
 10
6667.39879871795074
 20
294.0007616230971053
 30
0.0
 11
6667.3184649265940607
 21
293.6214076086645264
 31
0.0
  0
ARC
  5
2F4D3
  8
0
 10
6667.4379309125306463
 20
293.9924748054144743
 30
0.0
 40
0.04
 50
90.0
 51
168.0434157474967947
  0
LINE
  5
2F4D4
  8
0
 10
6667.3155143881958793
 20
293.3652656793644837
 30
0.0
 11
6667.293495471897586
 21
293.3652656793644837
 31
0.0
  0
LINE
  5
2F4D5
  8
0
 10
6667.4457162314256493
 20
294.1392388601885841
 30
0.0
 11
6667.410387891094615
 21
294.021481390358872
 31
0.0
  0
LINE
  5
2F4D6
  8
0
 10
6667.3859047633368391
 20
293.9398735041334021
 30
0.0
 11
6667.3413779323445851
 21
293.791455352932303
 31
0.0
  0
ARC
  5
2F4D7
  8
0
 10
6667.4834544900932087
 20
294.1279170302644843
 30
0.0
 40
0.0394
 50
90.0
 51
163.300265021346803
  0
ARC
  5
2F4D8
  8
0
 10
6667.5299734432946934
 20
293.734874938920882
 30
0.0
 40
0.1969
 50
163.3002650213406071
 51
180.0000000000032117
  0
LINE
  5
2F4D9
  8
0
 10
6667.3413774477367042
 20
292.023495283148975
 30
0.0
 11
6667.3859080888532844
 21
291.8750598127792841
 31
0.0
  0
LINE
  5
2F4DA
  8
0
 10
6667.4103848879312864
 20
291.79347048252788
 30
0.0
 11
6667.4457128874419141
 21
291.6757104841718728
 31
0.0
  0
ARC
  5
2F4DB
  8
0
 10
6667.5299734432946934
 20
292.0800740818233976
 30
0.0
 40
0.1969
 50
180.0000000000032117
 51
196.6992442359120901
  0
ARC
  5
2F4DC
  8
0
 10
6667.4834512430797986
 20
291.6870319908645115
 30
0.0
 40
0.0394
 50
196.6992442359396023
 51
270.0
  0
LINE
  5
2F4DD
  8
0
 10
6665.8154605024892589
 20
293.4472627251813037
 30
0.0
 11
6665.8310747479881684
 21
293.4201763542051253
 31
0.0
  0
ARC
  5
2F4DE
  8
0
 10
6665.7946348405130266
 20
293.4339257176338833
 30
0.0
 40
0.0247302237555182
 50
32.6359936749633732
 51
89.7047144603275939
  0
ARC
  5
2F4DF
  8
0
 10
6665.8784474788617445
 20
293.4547593481672152
 30
0.0
 40
0.0586528695103558
 50
216.1301545771034966
 51
237.4442695011759099
  0
ARC
  5
2F4E0
  8
0
 10
6665.9723023035639926
 20
293.6011450635191977
 30
0.0
 40
0.232542137732663
 50
237.3619188293226046
 51
270.6679515850324265
  0
LINE
  5
2F4E1
  8
0
 10
6665.9750132077961098
 20
293.368618727764499
 30
0.0
 11
6666.1147269440962191
 21
293.368618727764499
 31
0.0
  0
LINE
  5
2F4E2
  8
0
 10
6666.0940415479399235
 20
293.4480377839943799
 30
0.0
 11
6665.852675299405746
 21
293.4480377330027068
 31
0.0
  0
ARC
  5
2F4E3
  8
0
 10
6665.8526753035039292
 20
293.428637733002688
 30
0.0
 40
0.0194
 50
90.0000121044717361
 51
209.9979664004341942
  0
LINE
  5
2F4E4
  8
0
 10
6665.5635457235939612
 20
293.0401608380644802
 30
0.0
 11
6664.2080289522946259
 21
293.0401608372644091
 31
0.0
  0
LINE
  5
2F4E5
  8
0
 10
6663.3966075329699379
 20
292.3610086002394155
 30
0.0
 11
6663.9346522313962851
 21
292.8990532985645245
 31
0.0
  0
ARC
  5
2F4E6
  8
0
 10
6663.3824653973470049
 20
292.3751507358645085
 30
0.0
 40
0.02
 50
270.0
 51
314.999999994640973
  0
ARC
  5
2F4E7
  8
0
 10
6664.3664848045073086
 20
292.4672207253710781
 30
0.0
 40
0.6107034816274916
 50
119.8540908448265014
 51
134.9999999946410014
  0
ARC
  5
2F4E8
  8
0
 10
6664.2268406022112686
 20
292.7105203529051778
 30
0.0
 40
0.3301768126756049
 50
93.2661655186244047
 51
119.8540908448265014
  0
LINE
  5
2F4E9
  8
0
 10
6666.1147269440962191
 20
292.4604745105644952
 30
0.0
 11
6663.5462155788964083
 21
292.4604745105644952
 31
0.0
  0
ARC
  5
2F4EA
  8
0
 10
6663.5462155788964083
 20
292.4704745105644861
 30
0.0
 40
0.01
 50
134.9999999973447018
 51
270.0
  0
LINE
  5
2F4EB
  8
0
 10
6665.5635457235939612
 20
292.9074745027645008
 30
0.0
 11
6664.0881382566940374
 21
292.9074745105644979
 31
0.0
  0
ARC
  5
2F4EC
  8
0
 10
6664.0968583272488104
 20
292.598974510518417
 30
0.0
 40
0.3085
 50
89.9999996970833678
 51
134.9999999973447018
  0
ARC
  5
2F4ED
  8
0
 10
6664.0881382540374034
 20
292.4046365095172177
 30
0.0
 40
0.5028380010473441
 50
89.9999996970833678
 51
98.8112877305327828
  0
ARC
  5
2F4EE
  8
0
 10
6664.0533152244779558
 20
292.6292868463349919
 30
0.0
 40
0.2755047275918927
 50
98.8112877305327828
 51
130.5150179124914018
  0
LINE
  5
2F4EF
  8
0
 10
6667.39879871795074
 20
294.0007616230971053
 30
0.0
 11
6667.39879871795074
 21
291.8141873975686167
 31
0.0
  0
LINE
  5
2F4F0
  8
0
 10
6667.4457128874419141
 20
291.6757104841718728
 30
0.0
 11
6667.4457128874419141
 21
291.7824742156143998
 31
0.0
  0
LINE
  5
2F4F1
  8
0
 10
6667.4457128874419141
 20
294.0324748054144948
 30
0.0
 11
6667.4457128874419141
 21
294.1392277139206044
 31
0.0
  0
LINE
  5
2F4F3
  8
0
 10
6658.8730923409439129
 20
293.4586556129644919
 30
0.0
 11
6665.7947622922238224
 21
293.4586556129644919
 31
0.0
  0
LINE
  5
2F4F4
  8
0
 10
6663.8787158852637731
 20
292.8171169525246
 30
0.0
 11
6663.5391445110835775
 21
292.4775455783766915
 31
0.0
  0
ARC
  5
2F4F5
  8
0
 10
6663.6396090274938615
 20
292.325622154964492
 30
0.0
 40
0.1968499999999973
 50
110.0403449241901939
 51
135.0000000053312874
  0
LINE
  5
2F4F6
  8
0
 10
6665.841485250713049
 20
293.409218676322098
 30
0.0
 11
6665.8358740663998105
 21
293.418938329322998
 31
0.0
  0
LINE
  5
2F4F7
  8
0
 10
6666.0970279263610792
 20
293.4477202031584966
 30
0.0
 11
6666.1147269440962191
 21
293.4439128039643947
 31
0.0
  0
ARC
  5
2F4F8
  8
0
 10
6666.0940415509403465
 20
293.4338377839944201
 30
0.0
 40
0.0142
 50
77.8595900484701957
 51
90.0000121044717361
  0
LINE
  5
2F4F9
  8
0
 10
6663.6857026459947519
 20
292.6028905097642792
 30
0.0
 11
6666.1147269440962191
 21
292.6028905097642792
 31
0.0
  0
ARC
  5
2F4FA
  8
0
 10
6663.6894374055082153
 20
292.6135967247196277
 30
0.0
 40
0.0113389358973507
 50
162.3609415151389044
 51
250.7691684352548975
  0
ENDSEC
  0
EOF
