  0
SECTION
  2
HEADER
  9
$ACADVER
  1
AC1009
  9
$INSBASE
 10
6648.0059059112018076
 20
291.9086061753341141
 30
0.0
  9
$EXTMIN
 10
6641.9431904034490799
 20
290.4111549949349182
 30
-0.0000000000000058
  9
$EXTMAX
 10
6654.1268810428664437
 20
293.3883301114906885
 30
0.0000000000000104
  9
$LIMMIN
 10
0.0
 20
0.0
  9
$LIMMAX
 10
11.6929133858000007
 20
8.2677165353999982
  9
$ORTHOMODE
 70
     0
  9
$REGENMODE
 70
     1
  9
$FILLMODE
 70
     1
  9
$QTEXTMODE
 70
     0
  9
$MIRRTEXT
 70
     0
  9
$DRAGMODE
 70
     2
  9
$LTSCALE
 40
0.6431102362
  9
$OSMODE
 70
  4095
  9
$ATTMODE
 70
     1
  9
$TEXTSIZE
 40
0.2
  9
$TRACEWID
 40
0.05
  9
$TEXTSTYLE
  7
STANDARD
  9
$CLAYER
  8
0
  9
$CELTYPE
  6
BYLAYER
  9
$CECOLOR
 62
   256
  9
$DIMSCALE
 40
1.0
  9
$DIMASZ
 40
0.1875
  9
$DIMEXO
 40
0.0625
  9
$DIMDLI
 40
0.4443307087
  9
$DIMRND
 40
0.0
  9
$DIMDLE
 40
0.0
  9
$DIMEXE
 40
0.125
  9
$DIMTP
 40
0.01
  9
$DIMTM
 40
0.01
  9
$DIMTXT
 40
2.0
  9
$DIMCEN
 40
0.1052362205
  9
$DIMTSZ
 40
0.0
  9
$DIMTOL
 70
     1
  9
$DIMLIM
 70
     0
  9
$DIMTIH
 70
     1
  9
$DIMTOH
 70
     1
  9
$DIMSE1
 70
     0
  9
$DIMSE2
 70
     0
  9
$DIMTAD
 70
     0
  9
$DIMZIN
 70
     0
  9
$DIMBLK
  1

  9
$DIMASO
 70
     1
  9
$DIMSHO
 70
     1
  9
$DIMPOST
  1
\X
  9
$DIMAPOST
  1

  9
$DIMALT
 70
     1
  9
$DIMALTD
 70
     2
  9
$DIMALTF
 40
25.3999999999999986
  9
$DIMLFAC
 40
1.0
  9
$DIMTOFL
 70
     0
  9
$DIMTVP
 40
0.0
  9
$DIMTIX
 70
     0
  9
$DIMSOXD
 70
     0
  9
$DIMSAH
 70
     0
  9
$DIMBLK1
  1

  9
$DIMBLK2
  1

  9
$DIMSTYLE
  2
STANDARD
  9
$DIMCLRD
 70
     0
  9
$DIMCLRE
 70
     0
  9
$DIMCLRT
 70
     0
  9
$DIMTFAC
 40
1.0
  9
$DIMGAP
 40
0.09
  9
$LUNITS
 70
     2
  9
$LUPREC
 70
     4
  9
$SKETCHINC
 40
0.1
  9
$FILLETRAD
 40
0.0
  9
$AUNITS
 70
     0
  9
$AUPREC
 70
     0
  9
$MENU
  1
.
  9
$ELEVATION
 40
0.0
  9
$PELEVATION
 40
0.0
  9
$THICKNESS
 40
0.0
  9
$LIMCHECK
 70
     0
  9
$BLIPMODE
 70
     0
  9
$CHAMFERA
 40
0.0
  9
$CHAMFERB
 40
0.0
  9
$SKPOLY
 70
     0
  9
$TDCREATE
 40
2458060.468368056230247
  9
$TDUPDATE
 40
2460738.671493056230247
  9
$TDINDWG
 40
0.8219283565
  9
$TDUSRTIMER
 40
0.8219283565
  9
$USRTIMER
 70
     1
  9
$ANGBASE
 50
0.0
  9
$ANGDIR
 70
     0
  9
$PDMODE
 70
     0
  9
$PDSIZE
 40
0.3125
  9
$PLINEWID
 40
0.0
  9
$COORDS
 70
     1
  9
$SPLFRAME
 70
     0
  9
$SPLINETYPE
 70
     6
  9
$SPLINESEGS
 70
     8
  9
$ATTDIA
 70
     1
  9
$ATTREQ
 70
     1
  9
$HANDLING
 70
     1
  9
$HANDSEED
  5
2F614
  9
$SURFTAB1
 70
     6
  9
$SURFTAB2
 70
     6
  9
$SURFTYPE
 70
     6
  9
$SURFU
 70
     6
  9
$SURFV
 70
     6
  9
$UCSNAME
  2

  9
$UCSORG
 10
0.0
 20
0.0
 30
0.0
  9
$UCSXDIR
 10
1.0
 20
0.0
 30
0.0
  9
$UCSYDIR
 10
0.0
 20
1.0
 30
0.0
  9
$PUCSNAME
  2

  9
$PUCSORG
 10
0.0
 20
0.0
 30
0.0
  9
$PUCSXDIR
 10
1.0
 20
0.0
 30
0.0
  9
$PUCSYDIR
 10
0.0
 20
1.0
 30
0.0
  9
$USERI1
 70
     0
  9
$USERI2
 70
     0
  9
$USERI3
 70
     0
  9
$USERI4
 70
     0
  9
$USERI5
 70
     0
  9
$USERR1
 40
0.0
  9
$USERR2
 40
0.0
  9
$USERR3
 40
0.0
  9
$USERR4
 40
0.0
  9
$USERR5
 40
0.0
  9
$WORLDVIEW
 70
     1
  9
$SHADEDGE
 70
     3
  9
$SHADEDIF
 70
    70
  9
$TILEMODE
 70
     1
  9
$MAXACTVP
 70
    64
  9
$PLIMCHECK
 70
     0
  9
$PEXTMIN
 10
1.0000000000000000E+20
 20
1.0000000000000000E+20
 30
1.0000000000000000E+20
  9
$PEXTMAX
 10
-1.0000000000000000E+20
 20
-1.0000000000000000E+20
 30
-1.0000000000000000E+20
  9
$PLIMMIN
 10
0.0
 20
0.0
  9
$PLIMMAX
 10
12.0
 20
9.0
  9
$UNITMODE
 70
     0
  9
$VISRETAIN
 70
     1
  9
$PLINEGEN
 70
     0
  9
$PSLTSCALE
 70
     1
  0
ENDSEC
  0
SECTION
  2
TABLES
  0
TABLE
  2
VPORT
 70
     1
  0
VPORT
  2
*ACTIVE
 70
     0
 10
0.0
 20
0.0
 11
1.0
 21
1.0
 12
2736.6696792778461713
 22
159.3201374506737125
 13
0.0
 23
0.0
 14
1.0
 24
1.0
 15
0.0
 25
0.0
 16
0.0
 26
0.0
 36
60.4960186965801583
 17
3911.3653564453120453
 27
132.5796051025390057
 37
0.0
 40
5.7037356577867468
 41
2.1449438202247189
 42
50.0
 43
0.0
 44
0.0
 50
0.0
 51
0.0
 71
     0
 72
   100
 73
     1
 74
     1
 75
     0
 76
     0
 77
     0
 78
     0
  0
ENDTAB
  0
TABLE
  2
LTYPE
 70
     2
  0
LTYPE
  2
CONTINUOUS
 70
     0
  3
Solid line
 72
    65
 73
     0
 40
0.0
  0
LTYPE
  2
PHANTOM2
 70
     0
  3
___ _ _ ___ _ _ ___ _ _ ___ _ _
 72
    65
 73
     6
 40
1.25
 49
0.625
 49
-0.125
 49
0.125
 49
-0.125
 49
0.125
 49
-0.125
  0
ENDTAB
  0
TABLE
  2
LAYER
 70
     2
  0
LAYER
  2
0
 70
     0
 62
   255
  6
CONTINUOUS
  0
LAYER
  2
DEFPOINTS
 70
     0
 62
     7
  6
CONTINUOUS
  0
ENDTAB
  0
TABLE
  2
STYLE
 70
     1
  0
STYLE
  2
STANDARD
 70
     0
 40
0.0
 41
0.8
 50
0.0
 71
     0
 42
0.2
  3
txt
  4

  0
ENDTAB
  0
TABLE
  2
VIEW
 70
     0
  0
ENDTAB
  0
TABLE
  2
UCS
 70
     0
  0
ENDTAB
  0
TABLE
  2
APPID
 70
    11
  0
APPID
  2
ACAD
 70
     0
  0
APPID
  2
ACAD_MLEADERVER
 70
     0
  0
APPID
  2
ACAD_EXEMPT_FROM_CAD_STANDARDS
 70
     0
  0
APPID
  2
ACAD_NAV_VCDISPLAY
 70
     0
  0
APPID
  2
ACAECLAYERSTANDARD
 70
     0
  0
APPID
  2
ACCMTRANSPARENCY
 70
     0
  0
APPID
  2
ACAD_DSTYLE_DIMJAG
 70
     0
  0
APPID
  2
ACAD_DSTYLE_DIMTALN
 70
     0
  0
APPID
  2
ACDBATTR
 70
     0
  0
APPID
  2
ACADANNOTATIVE
 70
     0
  0
APPID
  2
DCO15
 70
     0
  0
ENDTAB
  0
TABLE
  2
DIMSTYLE
 70
     1
  0
DIMSTYLE
  2
STANDARD
 70
     0
  3

  4

  5

  6

  7

 40
1.0
 41
0.1875
 42
0.0625
 43
0.38
 44
0.125
 45
0.0
 46
0.0
 47
0.01
 48
0.01
140
0.15625
141
0.09
142
0.0
143
25.3999999999999986
144
1.0
145
0.0
146
1.0
147
0.09
 71
     1
 72
     0
 73
     1
 74
     1
 75
     0
 76
     0
 77
     0
 78
     4
170
     0
171
     2
172
     0
173
     0
174
     0
175
     0
176
     0
177
     0
178
     0
  0
ENDTAB
  0
ENDSEC
  0
SECTION
  2
BLOCKS
  0
BLOCK
  8
0
  2
$MODEL_SPACE
 70
     0
 10
0.0
 20
0.0
 30
0.0
  3
$MODEL_SPACE
  1

  0
ENDBLK
  5
21
  8
0
  0
BLOCK
 67
     1
  8
0
  2
$PAPER_SPACE
 70
     0
 10
0.0
 20
0.0
 30
0.0
  3
$PAPER_SPACE
  1

  0
ENDBLK
  5
1D
 67
     1
  8
0
  0
BLOCK
  8
0
  2
_FILLED
 70
     0
 10
0.0
 20
0.0
 30
0.0
  3
_FILLED
  1

  0
SOLID
  5
2EA64
  8
0
  6
BYBLOCK
 62
     0
 10
0.0
 20
0.0
 30
0.0
 11
-1.0
 21
0.1666666667
 31
0.0
 12
-1.0
 22
-0.1666666667
 32
0.0
 13
-1.0
 23
-0.1666666667
 33
0.0
  0
ENDBLK
  5
2EA65
  8
0
  6
BYBLOCK
 62
     0
  0
ENDSEC
  0
SECTION
  2
ENTITIES
  0
ATTDEF
  5
26A5B
  8
DEFPOINTS
 10
6648.0012225774780745
 20
291.9072446721543201
 30
0.0
 40
0.001
  1
P34885-CP
  3

  2
MODELNUMBER
 70
     0
1001
ACDBATTR
1070
     0
1070
     1
  0
ATTDEF
  5
26A5C
  8
DEFPOINTS
 10
6648.0010967678208544
 20
291.9055778317750764
 30
0.0
 40
0.001
  1

  3

  2
TRADENAME
 70
     0
1001
ACDBATTR
1070
     0
1070
     1
  0
ATTDEF
  5
26A5D
  8
DEFPOINTS
 10
6648.0012225774780745
 20
291.9039113388208762
 30
0.0
 40
0.001
  1
BATHROOM SINK FAUCET
  3

  2
PRODUCT
 70
     0
1001
ACDBATTR
1070
     0
1070
     1
  0
ARC
  5
2F373
  8
0
 10
6642.5295279584015589
 20
291.9086061753341141
 30
0.0
 40
0.2496503996000001
 50
93.8422292770211044
 51
266.1577707229787961
  0
ARC
  5
2F374
  8
0
 10
6642.5094485943263862
 20
291.6096292847241784
 30
0.0
 40
0.05
 50
11.2983510055132204
 51
86.1577707229789098
  0
ARC
  5
2F375
  8
0
 10
6642.5094485943263862
 20
292.2075830659438793
 30
0.0
 40
0.05
 50
273.8422292770210902
 51
348.7016489944867885
  0
CIRCLE
  5
2F376
  8
0
 10
6642.5295279584015589
 20
291.9086061753341141
 30
0.0
 40
0.2345219471000002
  0
CIRCLE
  5
2F377
  8
0
 10
6642.5295279584015589
 20
291.9086061753341141
 30
0.0
 40
0.1883321189
  0
ARC
  5
2F378
  8
0
 10
6644.0059059112027171
 20
291.9086061753341141
 30
0.0
 40
1.4760313503833491
 50
191.2983510055132115
 51
168.7016489944867885
  0
ARC
  5
2F379
  8
0
 10
6644.0059059112027171
 20
291.9086061753341141
 30
0.0
 40
1.3030211456999989
 50
186.5283075282623031
 51
173.4716924717376116
  0
CIRCLE
  5
2F37A
  8
0
 10
6644.0059059112027171
 20
291.9086061753341141
 30
0.0
 40
0.9796044354999996
  0
ARC
  5
2F37B
  8
0
 10
6644.0059059112027171
 20
291.9086061753341141
 30
0.0
 40
0.6057737488000008
 50
215.0000000012877024
 51
325.0000000792621222
  0
ARC
  5
2F37C
  8
0
 10
6644.0059059112027171
 20
291.9086061753341141
 30
0.0
 40
0.6057737488000008
 50
34.9999999929086414
 51
145.0000000074402919
  0
ARC
  5
2F37D
  8
0
 10
6644.0059059112027171
 20
291.9086061753341141
 30
0.0
 40
0.4693149605999985
 50
215.0000000012877024
 51
325.0000000792621222
  0
ARC
  5
2F37E
  8
0
 10
6644.0059059112027171
 20
291.9086061753341141
 30
0.0
 40
0.4693149605999985
 50
34.9999999929086414
 51
145.0000000074402919
  0
ARC
  5
2F37F
  8
0
 10
6643.5655753541141166
 20
292.2169289506263112
 30
0.0
 40
0.0682293941000004
 50
145.0000000074402919
 51
325.0000000074404056
  0
ARC
  5
2F380
  8
0
 10
6644.4462364682885891
 20
292.216928950628926
 30
0.0
 40
0.0682293941000012
 50
214.999999992911313
 51
34.999999992911313
  0
ARC
  5
2F381
  8
0
 10
6644.4462364686778528
 20
291.6002834005935824
 30
0.0
 40
0.0682293940999995
 50
325.0000000792621222
 51
145.0000000792321941
  0
ARC
  5
2F382
  8
0
 10
6643.5655753541614104
 20
291.6002833999747281
 30
0.0
 40
0.0682293941000003
 50
35.0000000012876811
 51
215.0000000012850023
  0
ARC
  5
2F383
  8
0
 10
6648.0059059112018076
 20
291.9086061753341141
 30
0.0
 40
0.5511811024000001
 50
3.7341545467856561
 51
176.4595132187984063
  0
ARC
  5
2F384
  8
0
 10
6653.4822838640020564
 20
291.9086061753341141
 30
0.0
 40
0.2496503996000001
 50
273.8422292770210902
 51
86.1577707229789098
  0
ARC
  5
2F385
  8
0
 10
6653.5023632280799575
 20
291.6096292847241784
 30
0.0
 40
0.05
 50
93.8422292770211044
 51
168.7016489944867885
  0
ARC
  5
2F386
  8
0
 10
6653.5023632280799575
 20
292.2075830659438793
 30
0.0
 40
0.05
 50
191.2983510055132115
 51
266.1577707229787961
  0
CIRCLE
  5
2F387
  8
0
 10
6653.4822838640020564
 20
291.9086061753341141
 30
0.0
 40
0.2345219471000002
  0
CIRCLE
  5
2F388
  8
0
 10
6653.4822838640020564
 20
291.9086061753341141
 30
0.0
 40
0.1883321189
  0
ARC
  5
2F389
  8
0
 10
6652.0059059112018076
 20
291.9086061753341141
 30
0.0
 40
1.4760313503833491
 50
11.2983510055132204
 51
348.7016489944867885
  0
ARC
  5
2F38A
  8
0
 10
6652.0059059112018076
 20
291.9086061753341141
 30
0.0
 40
1.3030211456999989
 50
6.5283075282623422
 51
353.4716924717375832
  0
CIRCLE
  5
2F38B
  8
0
 10
6652.0059059112018076
 20
291.9086061753341141
 30
0.0
 40
0.9796044354999996
  0
ARC
  5
2F38C
  8
0
 10
6652.0059059112018076
 20
291.9086061753341141
 30
0.0
 40
0.6057737488000008
 50
214.9999999207379062
 51
324.999999998712326
  0
ARC
  5
2F38D
  8
0
 10
6652.0059059112018076
 20
291.9086061753341141
 30
0.0
 40
0.6057737488000008
 50
34.999999992559637
 51
145.000000007088687
  0
ARC
  5
2F38E
  8
0
 10
6652.0059059112018076
 20
291.9086061753341141
 30
0.0
 40
0.4693149605999985
 50
214.9999999207379062
 51
324.999999998712326
  0
ARC
  5
2F38F
  8
0
 10
6652.0059059112018076
 20
291.9086061753341141
 30
0.0
 40
0.4693149605999985
 50
34.999999992559637
 51
145.000000007091387
  0
ARC
  5
2F390
  8
0
 10
6652.4462364682922271
 20
292.2169289506263112
 30
0.0
 40
0.0682293941000004
 50
214.9999999925595944
 51
34.999999992559637
  0
ARC
  5
2F391
  8
0
 10
6651.5655753541159356
 20
292.216928950628926
 30
0.0
 40
0.0682293941000012
 50
145.000000007088687
 51
325.0000000070887154
  0
ARC
  5
2F392
  8
0
 10
6651.5655753537266719
 20
291.6002834005935824
 30
0.0
 40
0.0682293940999995
 50
34.9999999207678201
 51
214.9999999207379062
  0
ARC
  5
2F393
  8
0
 10
6652.4462364682431144
 20
291.6002833999747281
 30
0.0
 40
0.0682293941000003
 50
324.9999999987149977
 51
144.9999999987122976
  0
LINE
  5
2F395
  8
0
 10
6647.4557767871865508
 20
291.9426437215623764
 30
0.0
 11
6647.4557767871865508
 21
290.8818723799491863
 31
0.0
  0
LINE
  5
2F396
  8
0
 10
6648.5559168410536586
 20
291.9445030371239795
 30
0.0
 11
6648.5559168410536586
 21
290.8817541945858807
 31
0.0
  0
ARC
  5
2F397
  8
0
 10
6648.0059059112018076
 20
291.9086061753341141
 30
0.0
 40
0.8839722494
 50
308.477249909564307
 51
231.5129635761944087
  0
CIRCLE
  5
2F398
  8
0
 10
6648.0059059112018076
 20
291.9086061753341141
 30
0.0
 40
1.2598425152999999
  0
LINE
  5
2F399
  8
0
 10
6647.6090429917931033
 20
290.7286061753341073
 30
0.0
 11
6648.4027688219130141
 21
290.7286061753341073
 31
0.0
  0
LINE
  5
2F39A
  8
0
 10
6647.5524744492950049
 20
290.7520376328430984
 30
0.0
 11
6647.4792082446892891
 21
290.8253038374581934
 31
0.0
  0
ARC
  5
2F39B
  8
0
 10
6647.6090429917931033
 20
290.8086061753340914
 30
0.0
 40
0.08
 50
224.9999999960182038
 51
270.0
  0
LINE
  5
2F39C
  8
0
 10
6648.4593373644502208
 20
290.7520376328818088
 30
0.0
 11
6648.5324853835918475
 21
290.8251856521335981
 31
0.0
  0
ARC
  5
2F39D
  8
0
 10
6648.4027688219130141
 20
290.8086061753340914
 30
0.0
 40
0.08
 50
270.0
 51
315.0000000431346052
  0
ARC
  5
2F39E
  8
0
 10
6647.5357767871855685
 20
290.8818723799491863
 30
0.0
 40
0.08
 50
180.0
 51
224.9999999960182038
  0
ARC
  5
2F39F
  8
0
 10
6648.4759168410537313
 20
290.8817541945858807
 30
0.0
 40
0.08
 50
315.0000000431346052
 51
0.0
  0
LINE
  5
2F3A0
  8
0
 10
6647.4792082446892891
 20
290.8253038374581934
 30
0.0
 11
6648.5326033225137508
 21
290.8253038374581934
 31
0.0
  0
ARC
  5
2F3A1
  8
0
 10
6648.0059059068025817
 20
291.9086061753341141
 30
0.0
 40
1.2317853497999931
 50
253.3272612419150107
 51
286.6727387580850177
  0
ENDSEC
  0
EOF
