  0
SECTION
  2
HEADER
  9
$ACADVER
  1
AC1009
  9
$INSBASE
 10
6759.1004671353575759
 20
333.1741832767501137
 30
0.0
  9
$EXTMIN
 10
6756.442986577721058
 20
328.6374115436501029
 30
0.0
  9
$EXTMAX
 10
6761.7579474707190457
 20
333.1794519526671934
 30
0.0
  9
$LIMMIN
 10
0.0
 20
0.0
  9
$LIMMAX
 10
11.6929133858000007
 20
8.2677165353999982
  9
$ORTHOMODE
 70
     0
  9
$REGENMODE
 70
     1
  9
$FILLMODE
 70
     1
  9
$QTEXTMODE
 70
     0
  9
$MIRRTEXT
 70
     0
  9
$DRAGMODE
 70
     2
  9
$LTSCALE
 40
0.6431102362
  9
$OSMODE
 70
  4095
  9
$ATTMODE
 70
     1
  9
$TEXTSIZE
 40
0.2
  9
$TRACEWID
 40
0.05
  9
$TEXTSTYLE
  7
STANDARD
  9
$CLAYER
  8
0
  9
$CELTYPE
  6
BYLAYER
  9
$CECOLOR
 62
   256
  9
$DIMSCALE
 40
1.0
  9
$DIMASZ
 40
0.1875
  9
$DIMEXO
 40
0.0625
  9
$DIMDLI
 40
0.4443307087
  9
$DIMRND
 40
0.0
  9
$DIMDLE
 40
0.0
  9
$DIMEXE
 40
0.125
  9
$DIMTP
 40
0.01
  9
$DIMTM
 40
0.01
  9
$DIMTXT
 40
2.0
  9
$DIMCEN
 40
0.1052362205
  9
$DIMTSZ
 40
0.0
  9
$DIMTOL
 70
     1
  9
$DIMLIM
 70
     0
  9
$DIMTIH
 70
     1
  9
$DIMTOH
 70
     1
  9
$DIMSE1
 70
     0
  9
$DIMSE2
 70
     0
  9
$DIMTAD
 70
     0
  9
$DIMZIN
 70
     0
  9
$DIMBLK
  1

  9
$DIMASO
 70
     1
  9
$DIMSHO
 70
     1
  9
$DIMPOST
  1
\X
  9
$DIMAPOST
  1

  9
$DIMALT
 70
     1
  9
$DIMALTD
 70
     2
  9
$DIMALTF
 40
25.3999999999999986
  9
$DIMLFAC
 40
1.0
  9
$DIMTOFL
 70
     0
  9
$DIMTVP
 40
0.0
  9
$DIMTIX
 70
     0
  9
$DIMSOXD
 70
     0
  9
$DIMSAH
 70
     0
  9
$DIMBLK1
  1

  9
$DIMBLK2
  1

  9
$DIMSTYLE
  2
STANDARD
  9
$DIMCLRD
 70
     0
  9
$DIMCLRE
 70
     0
  9
$DIMCLRT
 70
     0
  9
$DIMTFAC
 40
1.0
  9
$DIMGAP
 40
0.09
  9
$LUNITS
 70
     2
  9
$LUPREC
 70
     4
  9
$SKETCHINC
 40
0.1
  9
$FILLETRAD
 40
0.0
  9
$AUNITS
 70
     0
  9
$AUPREC
 70
     0
  9
$MENU
  1
.
  9
$ELEVATION
 40
0.0
  9
$PELEVATION
 40
0.0
  9
$THICKNESS
 40
0.0
  9
$LIMCHECK
 70
     0
  9
$BLIPMODE
 70
     0
  9
$CHAMFERA
 40
0.0
  9
$CHAMFERB
 40
0.0
  9
$SKPOLY
 70
     0
  9
$TDCREATE
 40
2458060.468368056230247
  9
$TDUPDATE
 40
2460332.5946643520146608
  9
$TDINDWG
 40
1.5608751157
  9
$TDUSRTIMER
 40
1.5608751157
  9
$USRTIMER
 70
     1
  9
$ANGBASE
 50
0.0
  9
$ANGDIR
 70
     0
  9
$PDMODE
 70
     0
  9
$PDSIZE
 40
0.3125
  9
$PLINEWID
 40
0.0
  9
$COORDS
 70
     1
  9
$SPLFRAME
 70
     0
  9
$SPLINETYPE
 70
     6
  9
$SPLINESEGS
 70
     8
  9
$ATTDIA
 70
     1
  9
$ATTREQ
 70
     1
  9
$HANDLING
 70
     1
  9
$HANDSEED
  5
3D2D6
  9
$SURFTAB1
 70
     6
  9
$SURFTAB2
 70
     6
  9
$SURFTYPE
 70
     6
  9
$SURFU
 70
     6
  9
$SURFV
 70
     6
  9
$UCSNAME
  2

  9
$UCSORG
 10
0.0
 20
0.0
 30
0.0
  9
$UCSXDIR
 10
1.0
 20
0.0
 30
0.0
  9
$UCSYDIR
 10
0.0
 20
1.0
 30
0.0
  9
$PUCSNAME
  2

  9
$PUCSORG
 10
0.0
 20
0.0
 30
0.0
  9
$PUCSXDIR
 10
1.0
 20
0.0
 30
0.0
  9
$PUCSYDIR
 10
0.0
 20
1.0
 30
0.0
  9
$USERI1
 70
     0
  9
$USERI2
 70
     0
  9
$USERI3
 70
     0
  9
$USERI4
 70
     0
  9
$USERI5
 70
     0
  9
$USERR1
 40
0.0
  9
$USERR2
 40
0.0
  9
$USERR3
 40
0.0
  9
$USERR4
 40
0.0
  9
$USERR5
 40
0.0
  9
$WORLDVIEW
 70
     1
  9
$SHADEDGE
 70
     3
  9
$SHADEDIF
 70
    70
  9
$TILEMODE
 70
     1
  9
$MAXACTVP
 70
    64
  9
$PLIMCHECK
 70
     0
  9
$PEXTMIN
 10
1.0000000000000000E+20
 20
1.0000000000000000E+20
 30
1.0000000000000000E+20
  9
$PEXTMAX
 10
-1.0000000000000000E+20
 20
-1.0000000000000000E+20
 30
-1.0000000000000000E+20
  9
$PLIMMIN
 10
0.0
 20
0.0
  9
$PLIMMAX
 10
12.0
 20
9.0
  9
$UNITMODE
 70
     0
  9
$VISRETAIN
 70
     1
  9
$PLINEGEN
 70
     0
  9
$PSLTSCALE
 70
     1
  0
ENDSEC
  0
SECTION
  2
TABLES
  0
TABLE
  2
VPORT
 70
     1
  0
VPORT
  2
*ACTIVE
 70
     0
 10
0.0
 20
0.0
 11
1.0
 21
1.0
 12
2847.7351105789080066
 22
198.3288266456196141
 13
0.0
 23
0.0
 14
1.0
 24
1.0
 15
0.0
 25
0.0
 16
0.0
 26
0.0
 36
60.4960186965801583
 17
3911.3653564453120453
 27
132.5796051025390057
 37
0.0
 40
4.5723604764009647
 41
2.1211111111111101
 42
50.0
 43
0.0
 44
0.0
 50
0.0
 51
0.0
 71
     0
 72
   100
 73
     1
 74
     1
 75
     0
 76
     0
 77
     0
 78
     0
  0
ENDTAB
  0
TABLE
  2
LTYPE
 70
     2
  0
LTYPE
  2
CONTINUOUS
 70
     0
  3
Solid line
 72
    65
 73
     0
 40
0.0
  0
LTYPE
  2
PHANTOM2
 70
     0
  3
___ _ _ ___ _ _ ___ _ _ ___ _ _
 72
    65
 73
     6
 40
1.25
 49
0.625
 49
-0.125
 49
0.125
 49
-0.125
 49
0.125
 49
-0.125
  0
ENDTAB
  0
TABLE
  2
LAYER
 70
     2
  0
LAYER
  2
0
 70
     0
 62
   255
  6
CONTINUOUS
  0
LAYER
  2
DEFPOINTS
 70
     0
 62
     7
  6
CONTINUOUS
  0
ENDTAB
  0
TABLE
  2
STYLE
 70
     1
  0
STYLE
  2
STANDARD
 70
     0
 40
0.0
 41
0.8
 50
0.0
 71
     0
 42
0.2
  3
txt
  4

  0
ENDTAB
  0
TABLE
  2
VIEW
 70
     0
  0
ENDTAB
  0
TABLE
  2
UCS
 70
     0
  0
ENDTAB
  0
TABLE
  2
APPID
 70
    11
  0
APPID
  2
ACAD
 70
     0
  0
APPID
  2
ACAD_MLEADERVER
 70
     0
  0
APPID
  2
ACAD_EXEMPT_FROM_CAD_STANDARDS
 70
     0
  0
APPID
  2
ACAD_NAV_VCDISPLAY
 70
     0
  0
APPID
  2
ACAECLAYERSTANDARD
 70
     0
  0
APPID
  2
ACCMTRANSPARENCY
 70
     0
  0
APPID
  2
ACAD_DSTYLE_DIMJAG
 70
     0
  0
APPID
  2
ACAD_DSTYLE_DIMTALN
 70
     0
  0
APPID
  2
ACDBATTR
 70
     0
  0
APPID
  2
ACADANNOTATIVE
 70
     0
  0
APPID
  2
DCO15
 70
     0
  0
ENDTAB
  0
TABLE
  2
DIMSTYLE
 70
     1
  0
DIMSTYLE
  2
STANDARD
 70
     0
  3

  4

  5

  6

  7

 40
1.0
 41
0.1875
 42
0.0625
 43
0.38
 44
0.125
 45
0.0
 46
0.0
 47
0.01
 48
0.01
140
0.15625
141
0.09
142
0.0
143
25.3999999999999986
144
1.0
145
0.0
146
1.0
147
0.09
 71
     1
 72
     0
 73
     1
 74
     1
 75
     0
 76
     0
 77
     0
 78
     4
170
     0
171
     2
172
     0
173
     0
174
     0
175
     0
176
     0
177
     0
178
     0
  0
ENDTAB
  0
ENDSEC
  0
SECTION
  2
BLOCKS
  0
BLOCK
  8
0
  2
$MODEL_SPACE
 70
     0
 10
0.0
 20
0.0
 30
0.0
  3
$MODEL_SPACE
  1

  0
ENDBLK
  5
21
  8
0
  0
BLOCK
 67
     1
  8
0
  2
$PAPER_SPACE
 70
     0
 10
0.0
 20
0.0
 30
0.0
  3
$PAPER_SPACE
  1

  0
ENDBLK
  5
1D
 67
     1
  8
0
  0
ENDSEC
  0
SECTION
  2
ENTITIES
  0
ATTDEF
  5
3A071
  8
DEFPOINTS
 10
6759.0969906364143753
 20
333.178451952667217
 30
0.0
 40
0.001
  1
P34886-00
  3

  2
MODELNUMBER
 70
     0
1001
ACDBATTR
1070
     0
1070
     1
  0
ATTDEF
  5
3A072
  8
DEFPOINTS
 10
6759.0968648267562457
 20
333.176785112288087
 30
0.0
 40
0.001
  1
VICE
  3

  2
TRADENAME
 70
     0
1001
ACDBATTR
1070
     0
1070
     1
  0
ATTDEF
  5
3A073
  8
DEFPOINTS
 10
6759.0969906364143753
 20
333.1751186193338867
 30
0.0
 40
0.001
  1
VALVE TRIM
  3

  2
PRODUCT
 70
     0
1001
ACDBATTR
1070
     0
1070
     1
  0
LINE
  5
3D128
  8
0
 10
6756.442986820356964
 20
333.1741832767501137
 30
0.0
 11
6761.7579474503590973
 21
333.1741832767501137
 31
0.0
  0
LINE
  5
3D129
  8
0
 10
6756.6999179709591772
 20
332.5641832767501
 30
0.0
 11
6761.5010162997568841
 21
332.5641832767501
 31
0.0
  0
LINE
  5
3D12A
  8
0
 10
6758.4470714620811123
 20
330.389380208250202
 30
0.0
 11
6759.753862808634949
 21
330.389380208250202
 31
0.0
  0
LINE
  5
3D12B
  8
0
 10
6758.0655321792592076
 20
330.4990732935501114
 30
0.0
 11
6760.1354020914577632
 21
330.4990732935501114
 31
0.0
  0
LINE
  5
3D12C
  8
0
 10
6758.0460006300436362
 20
331.0399313893501017
 30
0.0
 11
6760.1549336406696966
 21
331.0399313893501017
 31
0.0
  0
LINE
  5
3D12D
  8
0
 10
6758.0574750093583134
 20
331.0699314082501132
 30
0.0
 11
6760.1434592613568384
 21
331.0699314082501132
 31
0.0
  0
ARC
  5
3D12E
  8
0
 10
6758.4525497358436041
 20
330.5316344853209216
 30
0.0
 40
0.1423597233361494
 50
253.6912056068283903
 51
267.7946045484275146
  0
LINE
  5
3D12F
  8
0
 10
6758.4125731286221708
 20
330.3950030039433159
 30
0.0
 11
6758.0655321792592076
 21
330.4990732935501114
 31
0.0
  0
ARC
  5
3D130
  8
0
 10
6758.0768450885034326
 20
330.536782990131826
 30
0.0
 40
0.0393700791447689
 50
180.000000409976991
 51
253.3007553893087049
  0
LINE
  5
3D131
  8
0
 10
6758.0374750093578768
 20
330.53678298985011
 30
0.0
 11
6758.0374750093578768
 21
331.0299313893501107
 31
0.0
  0
ARC
  5
3D132
  8
0
 10
6758.0476310664553239
 20
331.0299070307058855
 30
0.0
 40
0.0101560863090255
 50
99.2381171857401654
 51
179.8625800528546961
  0
ARC
  5
3D133
  8
0
 10
6758.0574750093583134
 20
331.089931408250095
 30
0.0
 40
0.0199999999999978
 50
179.9999999999934914
 51
270.0
  0
LINE
  5
3D134
  8
0
 10
6758.0374750093578768
 20
331.089931408250095
 30
0.0
 11
6758.0374750093578768
 21
332.5591832767501046
 31
0.0
  0
ARC
  5
3D135
  8
0
 10
6758.0424963264758844
 20
332.5591832767501046
 30
0.0
 40
0.0050213171175821
 50
95.2813726100747971
 51
179.9999999999967031
  0
ARC
  5
3D136
  8
0
 10
6756.6999179709591772
 20
332.6141832767501114
 30
0.0
 40
0.0500000000000096
 50
225.0000000005896084
 51
270.000000000469015
  0
LINE
  5
3D137
  8
0
 10
6756.6645626318986615
 20
332.5788279376903915
 30
0.0
 11
6756.4576314813457429
 21
332.7857590882385921
 31
0.0
  0
ARC
  5
3D138
  8
0
 10
6756.4926121747002981
 20
332.8209592440331903
 30
0.0
 40
0.0496255969789122
 50
179.8208311004422058
 51
225.1791689720689931
  0
LINE
  5
3D139
  8
0
 10
6756.442986820356964
 20
332.8211144273500963
 30
0.0
 11
6756.442986820356964
 21
333.1741832767501137
 31
0.0
  0
LINE
  5
3D13A
  8
0
 10
6756.4576314812957207
 20
332.7857590882882732
 30
0.0
 11
6757.539173660958113
 21
332.7857589707501234
 31
0.0
  0
ARC
  5
3D13B
  8
0
 10
6757.5391736499577746
 20
332.6845404137590094
 30
0.0
 40
0.1012185569911252
 50
57.0099887173282767
 51
89.9999937732991526
  0
ARC
  5
3D13C
  8
0
 10
6757.501003782407679
 20
332.6257415328742013
 30
0.0
 40
0.1713202487115324
 50
37.3541330730793604
 51
57.0099887173282767
  0
ARC
  5
3D13D
  8
0
 10
6757.4572485389089707
 20
332.5923435917628126
 30
0.0
 40
0.2263651740382724
 50
31.3677535825671399
 51
37.354133073081961
  0
LINE
  5
3D13E
  8
0
 10
6757.6505290595569022
 20
332.7101732669501075
 30
0.0
 11
6757.7296789666579571
 21
332.5891832767500773
 31
0.0
  0
ARC
  5
3D13F
  8
0
 10
6757.7713852163360571
 20
332.6085933495551785
 30
0.0
 40
0.0460017628843537
 50
204.9572507467964044
 51
254.8838947838239051
  0
ARC
  5
3D140
  8
0
 10
6758.3256143217422505
 20
331.0099314084089883
 30
0.0
 40
0.059999999859329
 50
44.9999999157482335
 51
90.0000000151640762
  0
LINE
  5
3D141
  8
0
 10
6758.3680407285755791
 20
331.0523578151183983
 30
0.0
 11
6758.3804671543066434
 21
331.0399313893501017
 31
0.0
  0
ARC
  5
3D142
  8
0
 10
6759.7483845348715477
 20
330.5316344853209216
 30
0.0
 40
0.1423597233361494
 50
272.2053954515723717
 51
286.3087943931715813
  0
LINE
  5
3D143
  8
0
 10
6759.7883611420938905
 20
330.3950030039433159
 30
0.0
 11
6760.1354020914577632
 21
330.4990732935501114
 31
0.0
  0
ARC
  5
3D144
  8
0
 10
6760.1240891822117192
 20
330.536782990131826
 30
0.0
 40
0.0393700791447689
 50
286.6992446106912098
 51
359.9999995900229237
  0
LINE
  5
3D145
  8
0
 10
6760.1634592613581844
 20
330.53678298985011
 30
0.0
 11
6760.1634592613581844
 21
331.0299313893501107
 31
0.0
  0
ARC
  5
3D146
  8
0
 10
6760.1533032042589184
 20
331.0299070307058855
 30
0.0
 40
0.0101560863090255
 50
0.1374199471453257
 51
80.761882814259863
  0
ARC
  5
3D147
  8
0
 10
6760.1434592613568384
 20
331.089931408250095
 30
0.0
 40
0.0199999999999978
 50
270.0
 51
0.0000000000065138
  0
LINE
  5
3D148
  8
0
 10
6760.1634592613581844
 20
331.089931408250095
 30
0.0
 11
6760.1634592613581844
 21
332.5591832767501046
 31
0.0
  0
ARC
  5
3D149
  8
0
 10
6760.1584379442401769
 20
332.5591832767501046
 30
0.0
 40
0.0050213171175821
 50
0.0000000000032569
 51
84.7186273899251745
  0
ARC
  5
3D14A
  8
0
 10
6761.5010162997568841
 20
332.6141832767501114
 30
0.0
 40
0.0500000000000096
 50
269.999999999530985
 51
314.9999999994080895
  0
LINE
  5
3D14B
  8
0
 10
6761.5363716388155808
 20
332.5788279376903915
 30
0.0
 11
6761.7433027893694089
 21
332.7857590882385921
 31
0.0
  0
ARC
  5
3D14C
  8
0
 10
6761.7080562708561047
 20
332.8210693524196131
 30
0.0
 40
0.0498911998639287
 50
314.9482352146679887
 51
0.0517647127680299
  0
LINE
  5
3D14D
  8
0
 10
6761.7579474503590973
 20
332.8211144273500963
 30
0.0
 11
6761.7579474503590973
 21
333.1741832767501137
 31
0.0
  0
LINE
  5
3D14E
  8
0
 10
6761.7433027894176121
 20
332.7857590882882732
 30
0.0
 11
6760.6617606097579483
 21
332.7857589707501234
 31
0.0
  0
ARC
  5
3D14F
  8
0
 10
6760.6617606207582867
 20
332.6845404137590094
 30
0.0
 40
0.1012185569911252
 50
90.0000062267008332
 51
122.990011282671702
  0
ARC
  5
3D150
  8
0
 10
6760.6999304883065633
 20
332.6257415328742013
 30
0.0
 40
0.1713202487115324
 50
122.990011282671702
 51
142.6458669269206041
  0
ARC
  5
3D151
  8
0
 10
6760.7436857318070906
 20
332.5923435917628126
 30
0.0
 40
0.2263651740382724
 50
142.6458669269179893
 51
148.6322464174328957
  0
LINE
  5
3D152
  8
0
 10
6760.5504052111591591
 20
332.7101732669501075
 30
0.0
 11
6760.4712553040581042
 21
332.5891832767500773
 31
0.0
  0
ARC
  5
3D153
  8
0
 10
6760.4295490543800042
 20
332.6085933495551785
 30
0.0
 40
0.0460017628843537
 50
285.1161052161759812
 51
335.0427492532035103
  0
ARC
  5
3D154
  8
0
 10
6759.8753199490556653
 20
331.0099314083907984
 30
0.0
 40
0.059999999859329
 50
89.9999999848359238
 51
135.0000000842518091
  0
LINE
  5
3D155
  8
0
 10
6759.8328935422214272
 20
331.0523578151000947
 30
0.0
 11
6759.8204671164894535
 21
331.0399313893319118
 31
0.0
  0
LINE
  5
3D156
  8
0
 10
6757.6441387830063832
 20
329.5822935515500944
 30
0.0
 11
6760.8067982225165906
 21
329.5822935515500944
 31
0.0
  0
LINE
  5
3D157
  8
0
 10
6757.6696801678781412
 20
329.1885927641502008
 30
0.0
 11
6760.5030590776077588
 21
329.1885927641502008
 31
0.0
  0
ARC
  5
3D158
  8
0
 10
6757.6441387830063832
 20
329.5625935515500942
 30
0.0
 40
0.0197
 50
90.0
 51
180.0000000000065086
  0
LINE
  5
3D159
  8
0
 10
6757.6302861700032736
 20
329.2273050640608858
 30
0.0
 11
6757.6244387830083724
 21
329.5625935515500942
 31
0.0
  0
ARC
  5
3D15A
  8
0
 10
6757.6696801678781412
 20
329.2279927641502013
 30
0.0
 40
0.0394
 50
181.0001094830581962
 51
270.0
  0
LINE
  5
3D15B
  8
0
 10
6760.8264952221106796
 20
329.5622497391436241
 30
0.0
 11
6760.8113671434575735
 21
328.6955626928079255
 31
0.0
  0
ARC
  5
3D15C
  8
0
 10
6760.791670143864394
 20
328.6959065052143956
 30
0.0
 40
0.0197
 50
313.9999999937169264
 51
359.0000000008552092
  0
LINE
  5
3D15D
  8
0
 10
6760.8053549137612208
 20
328.6817355111463144
 30
0.0
 11
6760.7651815550289029
 21
328.642940549582022
 31
0.0
  0
LINE
  5
3D15E
  8
0
 10
6760.7514967851320762
 20
328.6374115436501029
 30
0.0
 11
6760.4021933911826636
 21
328.6374115436501029
 31
0.0
  0
ARC
  5
3D15F
  8
0
 10
6760.7514967851320762
 20
328.6571115436501032
 30
0.0
 40
0.0197
 50
270.0
 51
313.9999999937169264
  0
LINE
  5
3D160
  8
0
 10
6759.726861691792692
 20
329.8670866758500893
 30
0.0
 11
6760.0119877705601539
 21
329.5822935515500944
 31
0.0
  0
LINE
  5
3D161
  8
0
 10
6759.5653681163676083
 20
330.0142577952036049
 30
0.0
 11
6759.5593348432612402
 21
330.3599037805370244
 31
0.0
  0
ARC
  5
3D162
  8
0
 10
6759.6834603638089902
 20
330.0163191030501935
 30
0.0
 40
0.1181102361999987
 50
180.9999999986434034
 51
260.2345944956800281
  0
ARC
  5
3D163
  8
0
 10
6759.6433939486469171
 20
329.7835213496941833
 30
0.0
 40
0.1181102362220901
 50
45.033472937304083
 51
80.234594495679957
  0
LINE
  5
3D164
  8
0
 10
6759.4982102841067899
 20
329.9495675963501071
 30
0.0
 11
6759.1004671353575759
 21
329.9495675963501071
 31
0.0
  0
LINE
  5
3D165
  8
0
 10
6759.6194788643078937
 20
329.859893312250108
 30
0.0
 11
6759.1004671353575759
 21
329.859893312250108
 31
0.0
  0
ARC
  5
3D166
  8
0
 10
6759.7009769938313184
 20
330.1837367117888107
 30
0.0
 40
0.3017237545819423
 50
234.8055796634928925
 51
250.1927451687811867
  0
ARC
  5
3D167
  8
0
 10
6759.4833467212165488
 20
329.875162341613418
 30
0.0
 40
0.0758753416656016
 50
54.8055796634928427
 51
78.7030158804995068
  0
ARC
  5
3D168
  8
0
 10
6759.5934823150773809
 20
329.8552782989690968
 30
0.0
 40
0.0448937171111996
 50
45.5496927031592804
 51
83.2798586320398186
  0
ARC
  5
3D169
  8
0
 10
6759.6053438150847796
 20
329.8673696080214768
 30
0.0
 40
0.0279557438843133
 50
13.0252010901687694
 51
45.5496927031592804
  0
ARC
  5
3D16A
  8
0
 10
6759.6164843947472036
 20
329.8699467752913961
 30
0.0
 40
0.0165209589553176
 50
350.0309716718739992
 51
13.0252010901687694
  0
ARC
  5
3D16B
  8
0
 10
6759.6234469310293207
 20
329.8704958350306811
 30
0.0
 40
0.0099135803111236
 50
299.9462319291312724
 51
339.8864542909843749
  0
ARC
  5
3D16C
  8
0
 10
6759.6198347576000742
 20
329.8790768822219093
 30
0.0
 40
0.0191868709512214
 50
268.9371715073850169
 51
296.4992149799659273
  0
LINE
  5
3D16D
  8
0
 10
6759.726861691792692
 20
329.8670866758500893
 30
0.0
 11
6759.632755887408166
 21
329.8670866758500893
 31
0.0
  0
ARC
  5
3D16E
  8
0
 10
6760.8067982225165906
 20
329.5625935515500942
 30
0.0
 40
0.0197
 50
359.0000000008583925
 51
90.0
  0
LINE
  5
3D16F
  8
0
 10
6760.8113671434575735
 20
328.6955626928079255
 30
0.0
 11
6760.3423230328571663
 21
328.6955626928079255
 31
0.0
  0
LINE
  5
3D170
  8
0
 10
6760.3337171609582583
 20
329.1885927641502008
 30
0.0
 11
6760.3423230328571663
 21
328.6955626928079255
 31
0.0
  0
ARC
  5
3D171
  8
0
 10
6760.3620200324512552
 20
328.6959065052143956
 30
0.0
 40
0.0197
 50
180.9999999991449045
 51
226.000000006283102
  0
LINE
  5
3D172
  8
0
 10
6760.348335262555338
 20
328.6817355111463144
 30
0.0
 11
6760.3885086212858369
 21
328.642940549582022
 31
0.0
  0
ARC
  5
3D173
  8
0
 10
6760.4021933911826636
 20
328.6571115436501032
 30
0.0
 40
0.0197
 50
226.000000006283102
 51
270.0
  0
ARC
  5
3D174
  8
0
 10
6760.2838210878780956
 20
329.1742308174192999
 30
0.0
 40
0.0501391277323761
 50
1.0215310030269189
 51
16.6450568346673187
  0
LINE
  5
3D175
  8
0
 10
6760.5430054871067114
 20
329.2272757402500929
 30
0.0
 11
6760.5478914482082473
 21
329.5622649544501996
 31
0.0
  0
ARC
  5
3D176
  8
0
 10
6760.5026153041517318
 20
329.2290180739323091
 30
0.0
 40
0.0404277454956358
 50
270.6289457007669057
 51
357.529931621767787
  0
ARC
  5
3D177
  8
0
 10
6760.5283944574748602
 20
329.5627904684083092
 30
0.0
 40
0.0195040716988583
 50
358.4560466832189718
 51
89.4231303545448242
  0
ARC
  5
3D178
  8
0
 10
6759.5293531219940633
 20
330.3593941592807823
 30
0.0
 40
0.0299860521032666
 50
0.9738043323769801
 51
90.0261955590177081
  0
LINE
  5
3D179
  8
0
 10
6758.4740725789233693
 20
329.8670866758500893
 30
0.0
 11
6758.1889465001540884
 21
329.5822935515500944
 31
0.0
  0
LINE
  5
3D17A
  8
0
 10
6758.6355661543457245
 20
330.0142577952036049
 30
0.0
 11
6758.6415994274548211
 21
330.3599037805370244
 31
0.0
  0
ARC
  5
3D17B
  8
0
 10
6758.5174739069070711
 20
330.0163191030501935
 30
0.0
 40
0.1181102361999987
 50
279.7654055043199719
 51
359.000000001356625
  0
ARC
  5
3D17C
  8
0
 10
6758.5575403220673252
 20
329.7835213496941833
 30
0.0
 40
0.1181102362220901
 50
99.765405504320043
 51
134.9665270626958886
  0
LINE
  5
3D17D
  8
0
 10
6758.7027239866074524
 20
329.9495675963501071
 30
0.0
 11
6759.1004671353575759
 21
329.9495675963501071
 31
0.0
  0
LINE
  5
3D17E
  8
0
 10
6758.5814554064081676
 20
329.859893312250108
 30
0.0
 11
6759.1004671353575759
 21
329.859893312250108
 31
0.0
  0
ARC
  5
3D17F
  8
0
 10
6758.4999572768847429
 20
330.1837367117888107
 30
0.0
 40
0.3017237545819423
 50
289.8072548312188133
 51
305.1944203365071075
  0
ARC
  5
3D180
  8
0
 10
6758.717587549498603
 20
329.875162341613418
 30
0.0
 40
0.0758753416656016
 50
101.2969841195004932
 51
125.1944203365070933
  0
ARC
  5
3D181
  8
0
 10
6758.6074519556386804
 20
329.8552782989690968
 30
0.0
 40
0.0448937171111996
 50
96.7201413679601529
 51
134.4503072968406912
  0
ARC
  5
3D182
  8
0
 10
6758.5955904556312817
 20
329.8673696080214768
 30
0.0
 40
0.0279557438843133
 50
134.4503072968406912
 51
166.9747989098312075
  0
ARC
  5
3D183
  8
0
 10
6758.5844498759670387
 20
329.8699467752913961
 30
0.0
 40
0.0165209589553176
 50
166.9747989098312075
 51
189.9690283281258871
  0
ARC
  5
3D184
  8
0
 10
6758.5774873396849216
 20
329.8704958350306811
 30
0.0
 40
0.0099135803111236
 50
200.1135457090155967
 51
240.0537680708686992
  0
ARC
  5
3D185
  8
0
 10
6758.5810995131141681
 20
329.8790768822219093
 30
0.0
 40
0.0191868709512214
 50
243.5007850200341011
 51
271.0628284926149831
  0
LINE
  5
3D186
  8
0
 10
6758.4740725789233693
 20
329.8670866758500893
 30
0.0
 11
6758.5681783833078953
 21
329.8670866758500893
 31
0.0
  0
ARC
  5
3D187
  8
0
 10
6758.671581148721998
 20
330.3593941592807823
 30
0.0
 40
0.0299860521032666
 50
89.9738044409822919
 51
179.026195667623
  0
ENDSEC
  0
EOF
