  0
SECTION
  2
HEADER
  9
$ACADVER
  1
AC1009
  9
$INSBASE
 10
271.0915868180197776
 20
9.6357827853280522
 30
0.0
  9
$EXTMIN
 10
267.8267221822379156
 20
6.3853109474653058
 30
-0.0000000000112498
  9
$EXTMAX
 10
274.357243067139791
 20
12.8860462797139093
 30
0.0000000000002956
  9
$LIMMIN
 10
0.0
 20
0.0
  9
$LIMMAX
 10
11.6929133858000007
 20
8.2677165353999982
  9
$ORTHOMODE
 70
     0
  9
$REGENMODE
 70
     1
  9
$FILLMODE
 70
     1
  9
$QTEXTMODE
 70
     0
  9
$MIRRTEXT
 70
     0
  9
$DRAGMODE
 70
     2
  9
$LTSCALE
 40
0.6431102362
  9
$OSMODE
 70
  3839
  9
$ATTMODE
 70
     1
  9
$TEXTSIZE
 40
0.2
  9
$TRACEWID
 40
0.05
  9
$TEXTSTYLE
  7
STANDARD
  9
$CLAYER
  8
0
  9
$CELTYPE
  6
BYLAYER
  9
$CECOLOR
 62
   256
  9
$DIMSCALE
 40
1.0
  9
$DIMASZ
 40
0.1875
  9
$DIMEXO
 40
0.0625
  9
$DIMDLI
 40
0.4443307087
  9
$DIMRND
 40
0.0
  9
$DIMDLE
 40
0.0
  9
$DIMEXE
 40
0.125
  9
$DIMTP
 40
0.01
  9
$DIMTM
 40
0.01
  9
$DIMTXT
 40
1.0
  9
$DIMCEN
 40
0.1052362205
  9
$DIMTSZ
 40
0.0
  9
$DIMTOL
 70
     1
  9
$DIMLIM
 70
     0
  9
$DIMTIH
 70
     1
  9
$DIMTOH
 70
     1
  9
$DIMSE1
 70
     0
  9
$DIMSE2
 70
     0
  9
$DIMTAD
 70
     0
  9
$DIMZIN
 70
     0
  9
$DIMBLK
  1

  9
$DIMASO
 70
     1
  9
$DIMSHO
 70
     1
  9
$DIMPOST
  1
\X
  9
$DIMAPOST
  1

  9
$DIMALT
 70
     1
  9
$DIMALTD
 70
     2
  9
$DIMALTF
 40
25.3999999999999986
  9
$DIMLFAC
 40
1.0
  9
$DIMTOFL
 70
     0
  9
$DIMTVP
 40
0.0
  9
$DIMTIX
 70
     0
  9
$DIMSOXD
 70
     0
  9
$DIMSAH
 70
     0
  9
$DIMBLK1
  1

  9
$DIMBLK2
  1

  9
$DIMSTYLE
  2
STANDARD
  9
$DIMCLRD
 70
     0
  9
$DIMCLRE
 70
     0
  9
$DIMCLRT
 70
     0
  9
$DIMTFAC
 40
1.0
  9
$DIMGAP
 40
0.09
  9
$LUNITS
 70
     2
  9
$LUPREC
 70
     4
  9
$SKETCHINC
 40
0.1
  9
$FILLETRAD
 40
0.0
  9
$AUNITS
 70
     0
  9
$AUPREC
 70
     0
  9
$MENU
  1
.
  9
$ELEVATION
 40
0.0
  9
$PELEVATION
 40
0.0
  9
$THICKNESS
 40
0.0
  9
$LIMCHECK
 70
     0
  9
$BLIPMODE
 70
     0
  9
$CHAMFERA
 40
0.0
  9
$CHAMFERB
 40
0.0
  9
$SKPOLY
 70
     0
  9
$TDCREATE
 40
2458267.4656481482088566
  9
$TDUPDATE
 40
2460352.3975578700192273
  9
$TDINDWG
 40
0.1933130093
  9
$TDUSRTIMER
 40
0.1933130093
  9
$USRTIMER
 70
     1
  9
$ANGBASE
 50
0.0
  9
$ANGDIR
 70
     0
  9
$PDMODE
 70
     0
  9
$PDSIZE
 40
0.3125
  9
$PLINEWID
 40
0.0
  9
$COORDS
 70
     1
  9
$SPLFRAME
 70
     0
  9
$SPLINETYPE
 70
     6
  9
$SPLINESEGS
 70
     8
  9
$ATTDIA
 70
     1
  9
$ATTREQ
 70
     1
  9
$HANDLING
 70
     1
  9
$HANDSEED
  5
1E17
  9
$SURFTAB1
 70
     6
  9
$SURFTAB2
 70
     6
  9
$SURFTYPE
 70
     6
  9
$SURFU
 70
     6
  9
$SURFV
 70
     6
  9
$UCSNAME
  2

  9
$UCSORG
 10
0.0
 20
0.0
 30
0.0
  9
$UCSXDIR
 10
1.0
 20
0.0
 30
0.0
  9
$UCSYDIR
 10
0.0
 20
1.0
 30
0.0
  9
$PUCSNAME
  2

  9
$PUCSORG
 10
0.0
 20
0.0
 30
0.0
  9
$PUCSXDIR
 10
1.0
 20
0.0
 30
0.0
  9
$PUCSYDIR
 10
0.0
 20
1.0
 30
0.0
  9
$USERI1
 70
     0
  9
$USERI2
 70
     0
  9
$USERI3
 70
     0
  9
$USERI4
 70
     0
  9
$USERI5
 70
     0
  9
$USERR1
 40
0.0
  9
$USERR2
 40
0.0
  9
$USERR3
 40
0.0
  9
$USERR4
 40
0.0
  9
$USERR5
 40
0.0
  9
$WORLDVIEW
 70
     1
  9
$SHADEDGE
 70
     3
  9
$SHADEDIF
 70
    70
  9
$TILEMODE
 70
     1
  9
$MAXACTVP
 70
    64
  9
$PLIMCHECK
 70
     0
  9
$PEXTMIN
 10
1.0000000000000000E+20
 20
1.0000000000000000E+20
 30
1.0000000000000000E+20
  9
$PEXTMAX
 10
-1.0000000000000000E+20
 20
-1.0000000000000000E+20
 30
-1.0000000000000000E+20
  9
$PLIMMIN
 10
0.0
 20
0.0
  9
$PLIMMAX
 10
12.0
 20
9.0
  9
$UNITMODE
 70
     0
  9
$VISRETAIN
 70
     1
  9
$PLINEGEN
 70
     0
  9
$PSLTSCALE
 70
     1
  0
ENDSEC
  0
SECTION
  2
TABLES
  0
TABLE
  2
VPORT
 70
     1
  0
VPORT
  2
*ACTIVE
 70
     0
 10
0.0
 20
0.0
 11
1.0
 21
1.0
 12
169.1066081740052027
 22
-0.1764488791813328
 13
0.0
 23
0.0
 14
1.0
 24
1.0
 15
0.0
 25
0.0
 16
-0.0000000000000142
 26
0.0
 36
62.9619509154070727
 17
101.9853744506835938
 27
9.8121274927709443
 37
0.0
 40
6.5472799766322511
 41
2.2831541218637992
 42
50.0
 43
0.0
 44
0.0
 50
0.0
 51
0.0
 71
     0
 72
   100
 73
     1
 74
     1
 75
     0
 76
     0
 77
     0
 78
     0
  0
ENDTAB
  0
TABLE
  2
LTYPE
 70
     2
  0
LTYPE
  2
CONTINUOUS
 70
     0
  3
Solid line
 72
    65
 73
     0
 40
0.0
  0
LTYPE
  2
PHANTOM2
 70
     0
  3
___ _ _ ___ _ _ ___ _ _ ___ _ _
 72
    65
 73
     6
 40
1.25
 49
0.625
 49
-0.125
 49
0.125
 49
-0.125
 49
0.125
 49
-0.125
  0
ENDTAB
  0
TABLE
  2
LAYER
 70
     2
  0
LAYER
  2
0
 70
     0
 62
   255
  6
CONTINUOUS
  0
LAYER
  2
DEFPOINTS
 70
     0
 62
     7
  6
CONTINUOUS
  0
ENDTAB
  0
TABLE
  2
STYLE
 70
     1
  0
STYLE
  2
STANDARD
 70
     0
 40
0.0
 41
0.8
 50
0.0
 71
     0
 42
0.2
  3
txt
  4

  0
ENDTAB
  0
TABLE
  2
VIEW
 70
     0
  0
ENDTAB
  0
TABLE
  2
UCS
 70
     0
  0
ENDTAB
  0
TABLE
  2
APPID
 70
     9
  0
APPID
  2
ACAD
 70
     0
  0
APPID
  2
ACAD_MLEADERVER
 70
     0
  0
APPID
  2
ACAD_EXEMPT_FROM_CAD_STANDARDS
 70
     0
  0
APPID
  2
ACAD_DSTYLE_DIMJAG
 70
     0
  0
APPID
  2
ACAD_DSTYLE_DIMTALN
 70
     0
  0
APPID
  2
ACAD_NAV_VCDISPLAY
 70
     0
  0
APPID
  2
ACAECLAYERSTANDARD
 70
     0
  0
APPID
  2
ACCMTRANSPARENCY
 70
     0
  0
APPID
  2
ACDBATTR
 70
     0
  0
ENDTAB
  0
TABLE
  2
DIMSTYLE
 70
     1
  0
DIMSTYLE
  2
STANDARD
 70
     0
  3

  4

  5

  6

  7

 40
1.0
 41
0.1875
 42
0.0625
 43
0.38
 44
0.125
 45
0.0
 46
0.0
 47
0.01
 48
0.01
140
0.15625
141
0.09
142
0.0
143
25.3999999999999986
144
1.0
145
0.0
146
1.0
147
0.09
 71
     1
 72
     0
 73
     1
 74
     1
 75
     0
 76
     0
 77
     0
 78
     4
170
     0
171
     2
172
     0
173
     0
174
     0
175
     0
176
     0
177
     0
178
     0
  0
ENDTAB
  0
ENDSEC
  0
SECTION
  2
BLOCKS
  0
BLOCK
  8
0
  2
$MODEL_SPACE
 70
     0
 10
0.0
 20
0.0
 30
0.0
  3
$MODEL_SPACE
  1

  0
ENDBLK
  5
21
  8
0
  0
BLOCK
 67
     1
  8
0
  2
$PAPER_SPACE
 70
     0
 10
0.0
 20
0.0
 30
0.0
  3
$PAPER_SPACE
  1

  0
ENDBLK
  5
1D
 67
     1
  8
0
  0
BLOCK
  8
0
  2
_FILLED
 70
     0
 10
0.0
 20
0.0
 30
0.0
  3
_FILLED
  1

  0
SOLID
  5
1619
  8
0
  6
BYBLOCK
 62
     0
 10
0.0
 20
0.0
 30
0.0
 11
-1.0
 21
0.1666666667
 31
0.0
 12
-1.0
 22
-0.1666666667
 32
0.0
 13
-1.0
 23
-0.1666666667
 33
0.0
  0
ENDBLK
  5
161A
  8
0
  6
BYBLOCK
 62
     0
  0
ENDSEC
  0
SECTION
  2
ENTITIES
  0
ATTDEF
  5
D4F
  8
DEFPOINTS
 10
271.0916320167344225
 20
9.6397799596308786
 30
0.0
 40
0.001
  1
P34887-00
  3

  2
MODELNUMBER
 70
     0
1001
ACDBATTR
1070
     0
1070
     1
  0
ATTDEF
  5
D50
  8
DEFPOINTS
 10
271.0916320167344225
 20
9.6381132929642135
 30
0.0
 40
0.001
  1
VICE
  3

  2
TRADENAME
 70
     0
1001
ACDBATTR
1070
     0
1070
     1
  0
ATTDEF
  5
D51
  8
DEFPOINTS
 10
271.0916320167344225
 20
9.6364466262975483
 30
0.0
 40
0.001
  1
VALVE TRIM
  3

  2
PRODUCT
 70
     0
1001
ACDBATTR
1070
     0
1070
     1
  0
LINE
  5
1AF2
  8
0
 10
268.5915868180197776
 20
12.8857827853280504
 30
0.0
 11
273.5915868180197776
 21
12.8857827853280504
 31
0.0
  0
LINE
  5
1AF3
  8
0
 10
267.8415868180198913
 20
12.1357827853280504
 30
0.0
 11
267.8415868180198913
 21
7.1357827853280531
 31
0.0
  0
LINE
  5
1AF5
  8
0
 10
268.5915868180197776
 20
6.3857827853280531
 30
0.0
 11
273.5915868180197776
 21
6.3857827853280531
 31
0.0
  0
ARC
  5
1AF6
  8
0
 10
268.5915868180197776
 20
12.1357827853280504
 30
0.0
 40
0.75
 50
90.0
 51
180.0
  0
ARC
  5
1AF7
  8
0
 10
268.5915868180197776
 20
7.135782785328054
 30
0.0
 40
0.75
 50
180.0
 51
270.0
  0
LINE
  5
1AF8
  8
0
 10
269.5251148810631889
 20
12.6642069738280494
 30
0.0
 11
268.5915626295197853
 21
12.6642069738280494
 31
0.0
  0
LINE
  5
1AF9
  8
0
 10
268.0631626295198089
 20
12.1358069738280498
 30
0.0
 11
268.0631626295198089
 21
7.1357585968280537
 31
0.0
  0
LINE
  5
1AFA
  8
0
 10
269.5302933436611283
 20
6.6073585968280542
 30
0.0
 11
268.5915626295197853
 21
6.6073585968280542
 31
0.0
  0
LINE
  5
1AFB
  8
0
 10
269.621216528675177
 20
12.7139528471965502
 30
0.0
 11
269.7293596684651789
 21
12.8668903423410406
 31
0.0
  0
ARC
  5
1AFC
  8
0
 10
269.5251148810631889
 20
12.7819069738280593
 30
0.0
 40
0.1177
 50
270.0
 51
324.7356103483164134
  0
ARC
  5
1AFD
  8
0
 10
269.7658570656466281
 20
12.8410827853280498
 30
0.0
 40
0.0447
 50
90.0
 51
144.7356103483168113
  0
ARC
  5
1AFE
  8
0
 10
268.5915626295197853
 20
12.1358069738280498
 30
0.0
 40
0.5284
 50
90.0
 51
180.0
  0
ARC
  5
1AFF
  8
0
 10
268.5915626295197853
 20
7.1357585968280537
 30
0.0
 40
0.5284
 50
180.0
 51
270.0
  0
ARC
  5
1B00
  8
0
 10
271.0915868180197776
 20
9.6357827853280522
 30
0.0
 40
1.4760283524000011
 50
11.2984980752592996
 51
348.7015019286217807
  0
ARC
  5
1B01
  8
0
 10
272.5880404275807223
 20
9.9347629297539743
 30
0.0
 40
0.05
 50
191.298498075259289
 51
266.1585196831854887
  0
ARC
  5
1B02
  8
0
 10
271.0915868180197776
 20
9.6357827853780549
 30
0.0
 40
1.3030211456999989
 50
7.4264312621010182
 51
352.5735687378989951
  0
CIRCLE
  5
1B03
  8
0
 10
271.0915868180197776
 20
9.6357827853780549
 30
0.0
 40
0.9796044355000002
  0
CIRCLE
  5
1B04
  8
0
 10
272.5679647708199127
 20
9.6357827853780549
 30
0.0
 40
0.2496533976537328
  0
ARC
  5
1B05
  8
0
 10
272.5880404276010154
 20
9.3368026410034926
 30
0.0
 40
0.05
 50
93.8414803206956378
 51
168.7015019286220081
  0
CIRCLE
  5
1B06
  8
0
 10
272.5679647708199127
 20
9.6357827853780549
 30
0.0
 40
0.2345219471
  0
CIRCLE
  5
1B07
  8
0
 10
272.5679647708199127
 20
9.6357827853780549
 30
0.0
 40
0.1883321188999999
  0
ARC
  5
1B08
  8
0
 10
271.0915868180251209
 20
9.6357827853881926
 30
0.0
 40
0.4889999999898608
 50
34.9999999892503766
 51
144.9999999992521111
  0
ARC
  5
1B09
  8
0
 10
271.5376151061872179
 20
9.9480951548893657
 30
0.0
 40
0.0554999999956769
 50
214.9999999892503979
 51
35.0000002190456811
  0
ARC
  5
1B0A
  8
0
 10
271.0915868180144912
 20
9.6357827827148625
 30
0.0
 40
0.6000000015232205
 50
35.0000002190456811
 51
144.9999997898692072
  0
ARC
  5
1B0B
  8
0
 10
270.6455585298003825
 20
9.9480951548150038
 30
0.0
 40
0.0555000000043234
 50
144.9999997898692925
 51
325.0000001044646183
  0
ARC
  5
1B0C
  8
0
 10
271.0915868180144912
 20
9.6357827853679154
 30
0.0
 40
0.4889999999898618
 50
215.0000000008998029
 51
324.9999999988547756
  0
ARC
  5
1B0D
  8
0
 10
271.5376151061188921
 20
9.3234704157691901
 30
0.0
 40
0.0555000000043234
 50
325.0000000661776767
 51
144.9999999988546904
  0
ARC
  5
1B0E
  8
0
 10
271.0915868180197776
 20
9.6357827845831672
 30
0.0
 40
0.5999999995440727
 50
214.9999999393386929
 51
325.0000000661775061
  0
ARC
  5
1B0F
  8
0
 10
270.6455585299273139
 20
9.3234704157097266
 30
0.0
 40
0.0554999999755381
 50
35.0000000817598504
 51
214.9999999393386929
  0
ARC
  5
1B10
  8
0
 10
271.0915868180197776
 20
9.6357827853780549
 30
0.0
 40
0.5660813598000001
 50
150.2787582838464004
 51
209.7212417458684968
  0
ARC
  5
1B11
  8
0
 10
271.0915868180197776
 20
9.6357827853780549
 30
0.0
 40
0.5660813598000001
 50
330.2787582617622775
 51
29.7212417266758884
  0
LINE
  5
1B12
  8
0
 10
274.3415868180198913
 20
12.1357827853280504
 30
0.0
 11
274.3415868180198913
 21
7.1357827853280531
 31
0.0
  0
ARC
  5
1B13
  8
0
 10
273.5915868180197776
 20
12.1357827853280504
 30
0.0
 40
0.75
 50
0.0
 51
90.0
  0
ARC
  5
1B14
  8
0
 10
273.5915868180197776
 20
7.135782785328054
 30
0.0
 40
0.75
 50
270.0
 51
359.9999999999998863
  0
LINE
  5
1B15
  8
0
 10
272.6509924762447099
 20
12.6642069738280494
 30
0.0
 11
273.5916110065198268
 21
12.6642069738280494
 31
0.0
  0
LINE
  5
1B16
  8
0
 10
274.1200110065199169
 20
12.1358069738280498
 30
0.0
 11
274.1200110065199169
 21
7.1357585968280537
 31
0.0
  0
LINE
  5
1B17
  8
0
 10
272.6528802922472892
 20
6.607358596828055
 30
0.0
 11
273.5916110065198268
 21
6.6073585968280542
 31
0.0
  0
LINE
  5
1B18
  8
0
 10
272.5548908286327219
 20
12.7139528471965502
 30
0.0
 11
272.44674768884272
 21
12.8668903423410406
 31
0.0
  0
ARC
  5
1B19
  8
0
 10
272.6509924762447099
 20
12.7819069738280593
 30
0.0
 40
0.1177
 50
215.2643896516835014
 51
270.0
  0
ARC
  5
1B1A
  8
0
 10
272.4102502916613275
 20
12.8410827853280498
 30
0.0
 40
0.0447
 50
35.2643896516832172
 51
90.0
  0
ARC
  5
1B1B
  8
0
 10
273.5916110065198268
 20
12.1358069738280498
 30
0.0
 40
0.5284
 50
0.0
 51
90.0
  0
ARC
  5
1B1C
  8
0
 10
273.5916110065198268
 20
7.1357585968280537
 30
0.0
 40
0.5284
 50
270.0
 51
0.0
  0
ARC
  5
1BF6
  8
0
 10
272.3977679962497973
 20
6.451531409788628
 30
0.0
 40
0.0719620784311165
 50
293.984345652695481
 51
333.8693203799844014
  0
LINE
  5
1BF7
  8
0
 10
272.4623749657197891
 20
6.4198378737280537
 30
0.0
 11
272.5445882009219076
 21
6.5366586886535387
 31
0.0
  0
ARC
  5
1BF8
  8
0
 10
272.6731703303299241
 20
6.4579937962299301
 30
0.0
 40
0.1507366223023076
 50
97.7358313802105414
 51
148.5422415772781903
  0
ARC
  5
1BF9
  8
0
 10
269.5289304943775051
 20
6.5009134792454937
 30
0.0
 40
0.1064538417119
 50
54.6255834091337533
 51
89.2664647737817063
  0
ARC
  5
1BFA
  8
0
 10
269.4869605624139126
 20
6.4418001662717046
 30
0.0
 40
0.17895114483253
 50
30.1839318806264103
 51
54.6255834091337533
  0
LINE
  5
1BFB
  8
0
 10
269.6416487658198093
 20
6.5317727841280542
 30
0.0
 11
269.7232718301546015
 21
6.4148033548316779
 31
0.0
  0
ARC
  5
1BFC
  8
0
 10
269.7847876324765934
 20
6.4547762929781083
 30
0.0
 40
0.0733623181161323
 50
213.0157913949647934
 51
250.1270718956033079
  0
CIRCLE
  5
1BFD
  8
0
 10
271.0915868180197776
 20
7.3357827853280542
 30
0.0
 40
0.3827867965999996
  0
CIRCLE
  5
1BFE
  8
0
 10
271.0915868180197776
 20
7.3357827853280542
 30
0.0
 40
0.4530000000000002
  0
ENDSEC
  0
EOF
