  0
SECTION
  2
HEADER
  9
$ACADVER
  1
AC1009
  9
$INSBASE
 10
281.4661456844198142
 20
9.6357827853280202
 30
0.0
  9
$EXTMIN
 10
275.9864762325199194
 20
6.3857827853280531
 30
0.0
  9
$EXTMAX
 10
281.4786557473559014
 20
12.8857827853280593
 30
0.0
  9
$LIMMIN
 10
0.0
 20
0.0
  9
$LIMMAX
 10
11.6929133858000007
 20
8.2677165353999982
  9
$ORTHOMODE
 70
     0
  9
$REGENMODE
 70
     1
  9
$FILLMODE
 70
     1
  9
$QTEXTMODE
 70
     0
  9
$MIRRTEXT
 70
     0
  9
$DRAGMODE
 70
     2
  9
$LTSCALE
 40
0.6431102362
  9
$OSMODE
 70
  3839
  9
$ATTMODE
 70
     1
  9
$TEXTSIZE
 40
0.2
  9
$TRACEWID
 40
0.05
  9
$TEXTSTYLE
  7
STANDARD
  9
$CLAYER
  8
0
  9
$CELTYPE
  6
BYLAYER
  9
$CECOLOR
 62
   256
  9
$DIMSCALE
 40
1.0
  9
$DIMASZ
 40
0.1875
  9
$DIMEXO
 40
0.0625
  9
$DIMDLI
 40
0.4443307087
  9
$DIMRND
 40
0.0
  9
$DIMDLE
 40
0.0
  9
$DIMEXE
 40
0.125
  9
$DIMTP
 40
0.01
  9
$DIMTM
 40
0.01
  9
$DIMTXT
 40
1.0
  9
$DIMCEN
 40
0.1052362205
  9
$DIMTSZ
 40
0.0
  9
$DIMTOL
 70
     1
  9
$DIMLIM
 70
     0
  9
$DIMTIH
 70
     1
  9
$DIMTOH
 70
     1
  9
$DIMSE1
 70
     0
  9
$DIMSE2
 70
     0
  9
$DIMTAD
 70
     0
  9
$DIMZIN
 70
     0
  9
$DIMBLK
  1

  9
$DIMASO
 70
     1
  9
$DIMSHO
 70
     1
  9
$DIMPOST
  1
\X
  9
$DIMAPOST
  1

  9
$DIMALT
 70
     1
  9
$DIMALTD
 70
     2
  9
$DIMALTF
 40
25.3999999999999986
  9
$DIMLFAC
 40
1.0
  9
$DIMTOFL
 70
     0
  9
$DIMTVP
 40
0.0
  9
$DIMTIX
 70
     0
  9
$DIMSOXD
 70
     0
  9
$DIMSAH
 70
     0
  9
$DIMBLK1
  1

  9
$DIMBLK2
  1

  9
$DIMSTYLE
  2
STANDARD
  9
$DIMCLRD
 70
     0
  9
$DIMCLRE
 70
     0
  9
$DIMCLRT
 70
     0
  9
$DIMTFAC
 40
1.0
  9
$DIMGAP
 40
0.09
  9
$LUNITS
 70
     2
  9
$LUPREC
 70
     4
  9
$SKETCHINC
 40
0.1
  9
$FILLETRAD
 40
0.0
  9
$AUNITS
 70
     0
  9
$AUPREC
 70
     0
  9
$MENU
  1
.
  9
$ELEVATION
 40
0.0
  9
$PELEVATION
 40
0.0
  9
$THICKNESS
 40
0.0
  9
$LIMCHECK
 70
     0
  9
$BLIPMODE
 70
     0
  9
$CHAMFERA
 40
0.0
  9
$CHAMFERB
 40
0.0
  9
$SKPOLY
 70
     0
  9
$TDCREATE
 40
2458267.4656481482088566
  9
$TDUPDATE
 40
2460352.3971412042155862
  9
$TDINDWG
 40
0.1923060648
  9
$TDUSRTIMER
 40
0.1923060648
  9
$USRTIMER
 70
     1
  9
$ANGBASE
 50
0.0
  9
$ANGDIR
 70
     0
  9
$PDMODE
 70
     0
  9
$PDSIZE
 40
0.3125
  9
$PLINEWID
 40
0.0
  9
$COORDS
 70
     1
  9
$SPLFRAME
 70
     0
  9
$SPLINETYPE
 70
     6
  9
$SPLINESEGS
 70
     8
  9
$ATTDIA
 70
     1
  9
$ATTREQ
 70
     1
  9
$HANDLING
 70
     1
  9
$HANDSEED
  5
1EDA
  9
$SURFTAB1
 70
     6
  9
$SURFTAB2
 70
     6
  9
$SURFTYPE
 70
     6
  9
$SURFU
 70
     6
  9
$SURFV
 70
     6
  9
$UCSNAME
  2

  9
$UCSORG
 10
0.0
 20
0.0
 30
0.0
  9
$UCSXDIR
 10
1.0
 20
0.0
 30
0.0
  9
$UCSYDIR
 10
0.0
 20
1.0
 30
0.0
  9
$PUCSNAME
  2

  9
$PUCSORG
 10
0.0
 20
0.0
 30
0.0
  9
$PUCSXDIR
 10
1.0
 20
0.0
 30
0.0
  9
$PUCSYDIR
 10
0.0
 20
1.0
 30
0.0
  9
$USERI1
 70
     0
  9
$USERI2
 70
     0
  9
$USERI3
 70
     0
  9
$USERI4
 70
     0
  9
$USERI5
 70
     0
  9
$USERR1
 40
0.0
  9
$USERR2
 40
0.0
  9
$USERR3
 40
0.0
  9
$USERR4
 40
0.0
  9
$USERR5
 40
0.0
  9
$WORLDVIEW
 70
     1
  9
$SHADEDGE
 70
     3
  9
$SHADEDIF
 70
    70
  9
$TILEMODE
 70
     1
  9
$MAXACTVP
 70
    64
  9
$PLIMCHECK
 70
     0
  9
$PEXTMIN
 10
1.0000000000000000E+20
 20
1.0000000000000000E+20
 30
1.0000000000000000E+20
  9
$PEXTMAX
 10
-1.0000000000000000E+20
 20
-1.0000000000000000E+20
 30
-1.0000000000000000E+20
  9
$PLIMMIN
 10
0.0
 20
0.0
  9
$PLIMMAX
 10
12.0
 20
9.0
  9
$UNITMODE
 70
     0
  9
$VISRETAIN
 70
     1
  9
$PLINEGEN
 70
     0
  9
$PSLTSCALE
 70
     1
  0
ENDSEC
  0
SECTION
  2
TABLES
  0
TABLE
  2
VPORT
 70
     1
  0
VPORT
  2
*ACTIVE
 70
     0
 10
0.0
 20
0.0
 11
1.0
 21
1.0
 12
176.7434067521402881
 22
-0.1768615137027716
 13
0.0
 23
0.0
 14
1.0
 24
1.0
 15
0.0
 25
0.0
 16
-0.0000000000000142
 26
0.0
 36
62.9619509154070727
 17
101.9853744506835938
 27
9.8121274927709443
 37
0.0
 40
6.5492993481669446
 41
2.2831541218637992
 42
50.0
 43
0.0
 44
0.0
 50
0.0
 51
0.0
 71
     0
 72
   100
 73
     1
 74
     1
 75
     0
 76
     0
 77
     0
 78
     0
  0
ENDTAB
  0
TABLE
  2
LTYPE
 70
     2
  0
LTYPE
  2
CONTINUOUS
 70
     0
  3
Solid line
 72
    65
 73
     0
 40
0.0
  0
LTYPE
  2
PHANTOM2
 70
     0
  3
___ _ _ ___ _ _ ___ _ _ ___ _ _
 72
    65
 73
     6
 40
1.25
 49
0.625
 49
-0.125
 49
0.125
 49
-0.125
 49
0.125
 49
-0.125
  0
ENDTAB
  0
TABLE
  2
LAYER
 70
     2
  0
LAYER
  2
0
 70
     0
 62
   255
  6
CONTINUOUS
  0
LAYER
  2
DEFPOINTS
 70
     0
 62
     7
  6
CONTINUOUS
  0
ENDTAB
  0
TABLE
  2
STYLE
 70
     1
  0
STYLE
  2
STANDARD
 70
     0
 40
0.0
 41
0.8
 50
0.0
 71
     0
 42
0.2
  3
txt
  4

  0
ENDTAB
  0
TABLE
  2
VIEW
 70
     0
  0
ENDTAB
  0
TABLE
  2
UCS
 70
     0
  0
ENDTAB
  0
TABLE
  2
APPID
 70
     9
  0
APPID
  2
ACAD
 70
     0
  0
APPID
  2
ACAD_MLEADERVER
 70
     0
  0
APPID
  2
ACAD_EXEMPT_FROM_CAD_STANDARDS
 70
     0
  0
APPID
  2
ACAD_DSTYLE_DIMJAG
 70
     0
  0
APPID
  2
ACAD_DSTYLE_DIMTALN
 70
     0
  0
APPID
  2
ACAD_NAV_VCDISPLAY
 70
     0
  0
APPID
  2
ACAECLAYERSTANDARD
 70
     0
  0
APPID
  2
ACCMTRANSPARENCY
 70
     0
  0
APPID
  2
ACDBATTR
 70
     0
  0
ENDTAB
  0
TABLE
  2
DIMSTYLE
 70
     1
  0
DIMSTYLE
  2
STANDARD
 70
     0
  3

  4

  5

  6

  7

 40
1.0
 41
0.1875
 42
0.0625
 43
0.38
 44
0.125
 45
0.0
 46
0.0
 47
0.01
 48
0.01
140
0.15625
141
0.09
142
0.0
143
25.3999999999999986
144
1.0
145
0.0
146
1.0
147
0.09
 71
     1
 72
     0
 73
     1
 74
     1
 75
     0
 76
     0
 77
     0
 78
     4
170
     0
171
     2
172
     0
173
     0
174
     0
175
     0
176
     0
177
     0
178
     0
  0
ENDTAB
  0
ENDSEC
  0
SECTION
  2
BLOCKS
  0
BLOCK
  8
0
  2
$MODEL_SPACE
 70
     0
 10
0.0
 20
0.0
 30
0.0
  3
$MODEL_SPACE
  1

  0
ENDBLK
  5
21
  8
0
  0
BLOCK
 67
     1
  8
0
  2
$PAPER_SPACE
 70
     0
 10
0.0
 20
0.0
 30
0.0
  3
$PAPER_SPACE
  1

  0
ENDBLK
  5
1D
 67
     1
  8
0
  0
BLOCK
  8
0
  2
_FILLED
 70
     0
 10
0.0
 20
0.0
 30
0.0
  3
_FILLED
  1

  0
SOLID
  5
1619
  8
0
  6
BYBLOCK
 62
     0
 10
0.0
 20
0.0
 30
0.0
 11
-1.0
 21
0.1666666667
 31
0.0
 12
-1.0
 22
-0.1666666667
 32
0.0
 13
-1.0
 23
-0.1666666667
 33
0.0
  0
ENDBLK
  5
161A
  8
0
  6
BYBLOCK
 62
     0
  0
ENDSEC
  0
SECTION
  2
ENTITIES
  0
LINE
  5
1B7D
  8
0
 10
280.6252456844197809
 20
12.8857827853280504
 30
0.0
 11
281.4661456844198142
 21
12.8857827853280504
 31
0.0
  0
LINE
  5
1B7E
  8
0
 10
281.4661456844198142
 20
12.8857827853280504
 30
0.0
 11
281.4661456844198142
 21
6.3857827853280531
 31
0.0
  0
LINE
  5
1B7F
  8
0
 10
280.5661456844197801
 20
12.8266827853280603
 30
0.0
 11
280.5661456844197801
 21
6.444882785328053
 31
0.0
  0
ARC
  5
1B80
  8
0
 10
280.6161456844197915
 20
12.6288509798584201
 30
0.0
 40
0.05
 50
135.2460667168008115
 51
180.0
  0
ARC
  5
1B81
  8
0
 10
280.6252456844197809
 20
12.8266827853280603
 30
0.0
 40
0.0591
 50
90.0
 51
180.0
  0
LINE
  5
1B82
  8
0
 10
280.7877214959198113
 20
6.400427446328055
 30
0.0
 11
280.7877214959198113
 21
12.8728228836900307
 31
0.0
  0
LINE
  5
1B83
  8
0
 10
280.4317136241054982
 20
10.6987749113280497
 30
0.0
 11
278.4389960971199116
 21
10.6987749113280497
 31
0.0
  0
LINE
  5
1B84
  8
0
 10
278.3789960782198136
 20
10.6987749113280497
 30
0.0
 11
277.8858699410142208
 21
10.6987749113280497
 31
0.0
  0
LINE
  5
1B85
  8
0
 10
278.4189960971198161
 20
10.6787749113280501
 30
0.0
 11
278.4189960971198161
 21
8.5927906593280543
 31
0.0
  0
LINE
  5
1B86
  8
0
 10
278.3889960782198045
 20
10.6887749113280499
 30
0.0
 11
278.3889960782198045
 21
8.5827906593280581
 31
0.0
  0
ARC
  5
1B87
  8
0
 10
278.4389960971199116
 20
10.6787749113280501
 30
0.0
 40
0.02
 50
89.9999999999934914
 51
180.0
  0
ARC
  5
1B88
  8
0
 10
278.3789960782198136
 20
10.6887749113280499
 30
0.0
 40
0.01
 50
0.0000000000152667
 51
89.9999999999902229
  0
LINE
  5
1B89
  8
0
 10
277.7384448971197912
 20
10.2850695314731908
 30
0.0
 11
277.7384448971197912
 21
8.9864960391829136
 31
0.0
  0
LINE
  5
1B8A
  8
0
 10
277.8481315853766773
 20
10.6706964180202899
 30
0.0
 11
277.7441931744451722
 21
10.3242350482790695
 31
0.0
  0
ARC
  5
1B8B
  8
0
 10
277.8858699410142208
 20
10.6593749113280492
 30
0.0
 40
0.0394
 50
90.0
 51
163.3007557646108125
  0
ARC
  5
1B8C
  8
0
 10
277.8747448971197969
 20
10.2850695314731908
 30
0.0
 40
0.1363
 50
163.3007557646112105
 51
179.9999999999984084
  0
LINE
  5
1B8D
  8
0
 10
276.931358240419911
 20
11.0921138724375901
 30
0.0
 11
276.931358240419911
 21
8.1794516981969672
 31
0.0
  0
ARC
  5
1B8E
  8
0
 10
276.9116582404199107
 20
9.8657359196932415
 30
0.0
 40
0.0197
 50
0.0
 51
90.9999999996532551
  0
ARC
  5
1B8F
  8
0
 10
276.9116582404199107
 20
9.4058296518160347
 30
0.0
 40
0.0197
 50
268.9969109100147193
 51
0.0
  0
LINE
  5
1B90
  8
0
 10
276.5763698282057135
 20
11.1059643922910105
 30
0.0
 11
276.9113144280128154
 21
11.1118108720321693
 31
0.0
  0
LINE
  5
1B91
  8
0
 10
276.53765745301979
 20
11.0665703931018502
 30
0.0
 11
276.53765745301979
 21
9.9210684251186265
 31
0.0
  0
LINE
  5
1B92
  8
0
 10
276.53765745301979
 20
9.3505195713695386
 30
0.0
 11
276.53765745301979
 21
8.2049951776059942
 31
0.0
  0
ARC
  5
1B93
  8
0
 10
276.4947574530198153
 20
9.3505195713695386
 30
0.0
 40
0.0429
 50
0.0000000000001018
 51
88.9969109100146341
  0
ARC
  5
1B94
  8
0
 10
276.5770574530197905
 20
11.0665703931018502
 30
0.0
 40
0.0394
 50
91.0000000007151471
 51
180.0000000000011084
  0
ARC
  5
1B95
  8
0
 10
276.9116582404199107
 20
11.0921138724375901
 30
0.0
 40
0.0197
 50
0.0000000000026462
 51
91.0000000007151471
  0
LINE
  5
1B96
  8
0
 10
277.3633140117464109
 20
10.1006839142121407
 30
0.0
 11
277.7089684693156073
 21
10.0946504931826997
 31
0.0
  0
LINE
  5
1B97
  8
0
 10
277.2161536595609732
 20
10.2621750442884796
 30
0.0
 11
276.931358240419911
 21
10.5473034204280491
 31
0.0
  0
ARC
  5
1B98
  8
0
 10
277.1325955757213819
 20
10.1787145349140502
 30
0.0
 40
0.1181
 50
9.7625624454257114
 51
44.9665270536924808
  0
ARC
  5
1B99
  8
0
 10
277.3653751409568144
 20
10.21876592700991
 30
0.0
 40
0.1181
 50
189.7625624454161937
 51
268.9999999950567826
  0
ARC
  5
1B9A
  8
0
 10
277.7084448971198185
 20
10.0646550623280593
 30
0.0
 40
0.03
 50
359.9999999999973284
 51
88.9999999950567968
  0
LINE
  5
1B9B
  8
0
 10
277.8481379824198143
 20
10.67071771965038
 30
0.0
 11
277.8481379824198143
 21
8.6008478510057316
 31
0.0
  0
LINE
  5
1B9C
  8
0
 10
277.29863228521981
 20
10.1213338932218608
 30
0.0
 11
277.29863228521981
 21
9.1502316774342507
 31
0.0
  0
LINE
  5
1B9D
  8
0
 10
277.2089580011199246
 20
10.2693791152414402
 30
0.0
 11
277.2089580011198109
 21
9.0021864554146678
 31
0.0
  0
ARC
  5
1B9E
  8
0
 10
278.3589960973167194
 20
10.3606355989888907
 30
0.0
 40
0.059999999803134
 50
314.9999999610340069
 51
0.0000000373935524
  0
LINE
  5
1B9F
  8
0
 10
278.3889960782198045
 20
10.3057827664280506
 30
0.0
 11
278.4014225040198198
 21
10.3182091922280499
 31
0.0
  0
LINE
  5
1BA0
  8
0
 10
280.6252456844197809
 20
6.3857827853280531
 30
0.0
 11
281.4661456844198142
 21
6.3857827853280531
 31
0.0
  0
ARC
  5
1BA1
  8
0
 10
280.8228115131598202
 20
6.4357827853280538
 30
0.0
 40
0.05
 50
225.3589054125939128
 51
270.0
  0
ARC
  5
1BA2
  8
0
 10
280.6252456844197809
 20
6.444882785328053
 30
0.0
 40
0.0591
 50
180.0
 51
270.0
  0
LINE
  5
1BA3
  8
0
 10
280.4317136241058961
 20
8.5727906593280547
 30
0.0
 11
278.4389960971199116
 21
8.5727906593280547
 31
0.0
  0
LINE
  5
1BA4
  8
0
 10
278.3789960782198136
 20
8.5727906593280547
 30
0.0
 11
277.8858699410142208
 21
8.5727906593280547
 31
0.0
  0
ARC
  5
1BA5
  8
0
 10
278.4389960971199116
 20
8.5927906593280543
 30
0.0
 40
0.02
 50
180.0
 51
270.0000000000064801
  0
ARC
  5
1BA6
  8
0
 10
278.3789960782198136
 20
8.5827906593280581
 30
0.0
 40
0.01
 50
270.0000000000097771
 51
359.9999999999847091
  0
LINE
  5
1BA7
  8
0
 10
277.8481315853766773
 20
8.6008691526358216
 30
0.0
 11
277.7441931744451722
 21
8.9473305223770367
 31
0.0
  0
ARC
  5
1BA8
  8
0
 10
277.8858699410142208
 20
8.6121906593280535
 30
0.0
 40
0.0394
 50
196.6992442353891022
 51
270.0
  0
ARC
  5
1BA9
  8
0
 10
277.8747448971197969
 20
8.9864960391829136
 30
0.0
 40
0.1363
 50
180.0000000000013074
 51
196.6992442353887043
  0
LINE
  5
1BAA
  8
0
 10
277.3633140117464109
 20
9.1708816564439708
 30
0.0
 11
277.7089684693156073
 21
9.1769150774734083
 31
0.0
  0
LINE
  5
1BAB
  8
0
 10
277.2161536595609732
 20
9.0093905263676231
 30
0.0
 11
276.931358240419911
 21
8.7242621502280535
 31
0.0
  0
ARC
  5
1BAC
  8
0
 10
277.1325955757213819
 20
9.0928510357420578
 30
0.0
 40
0.1181
 50
315.0334729463075973
 51
350.2374375545742851
  0
ARC
  5
1BAD
  8
0
 10
277.3653751409568144
 20
9.0527996436461997
 30
0.0
 40
0.1181
 50
91.0000000049432174
 51
170.2374375545836074
  0
ARC
  5
1BAE
  8
0
 10
277.7084448971198185
 20
9.206910508328054
 30
0.0
 40
0.03
 50
271.0000000049432174
 51
0.0000000000024427
  0
ARC
  5
1BAF
  8
0
 10
278.3589960973167194
 20
8.9109299716672101
 30
0.0
 40
0.059999999803134
 50
359.9999999626064096
 51
45.0000000389660713
  0
LINE
  5
1BB0
  8
0
 10
278.3889960782198045
 20
8.9657828042280538
 30
0.0
 11
278.4014225040198198
 21
8.9533563784280545
 31
0.0
  0
LINE
  5
1BB1
  8
0
 10
276.0445804046735248
 20
9.4013082949111961
 30
0.0
 11
276.9113133660538892
 21
9.3861326707866564
 31
0.0
  0
LINE
  5
1BB2
  8
0
 10
275.9864762325199194
 20
9.4611310883548487
 30
0.0
 11
275.9864762325199194
 21
9.8104344823012593
 31
0.0
  0
LINE
  5
1BB3
  8
0
 10
276.0446273816814937
 20
9.8703048406269271
 30
0.0
 11
276.9113144280132133
 21
9.8854329192878243
 31
0.0
  0
ARC
  5
1BB4
  8
0
 10
276.4947574530198153
 20
9.9210684251186247
 30
0.0
 40
0.0429
 50
270.9999999996531983
 51
0.0
  0
LINE
  5
1BB5
  8
0
 10
275.9920052384522933
 20
9.8241192521984662
 30
0.0
 11
276.0308002000206784
 21
9.8642926109295512
 31
0.0
  0
LINE
  5
1BB6
  8
0
 10
275.992005238433876
 20
9.4474463184767057
 30
0.0
 11
276.0307542849535025
 21
9.4073205060624385
 31
0.0
  0
ARC
  5
1BB7
  8
0
 10
276.0061762325199197
 20
9.4611310883548523
 30
0.0
 40
0.0197
 50
180.0000000000055991
 51
223.9999999195302962
  0
ARC
  5
1BB8
  8
0
 10
276.0061762325199197
 20
9.8104344823012593
 30
0.0
 40
0.0197
 50
136.0000000033811034
 51
179.9999999999978968
  0
ARC
  5
1BB9
  8
0
 10
276.0449711940881912
 20
9.8506078410323408
 30
0.0
 40
0.0197
 50
90.9999999996597495
 51
136.0000000033780907
  0
ARC
  5
1BBA
  8
0
 10
276.0449252790393757
 20
9.421005275940578
 30
0.0
 40
0.0197
 50
223.9999999195339058
 51
268.9969109100081255
  0
LINE
  5
1BBB
  8
0
 10
276.0308002000206784
 20
9.8642926109295512
 30
0.0
 11
276.0308002000206784
 21
9.4072731186914513
 31
0.0
  0
LINE
  5
1BBC
  8
0
 10
276.9113144280084953
 20
8.1597546986024643
 30
0.0
 11
276.5763698281970733
 21
8.1656011784169902
 31
0.0
  0
ARC
  5
1BBD
  8
0
 10
276.9116582404199107
 20
8.1794516981969672
 30
0.0
 40
0.0197
 50
268.9999999867537213
 51
0.0
  0
ARC
  5
1BBE
  8
0
 10
276.5770574530197905
 20
8.2049951776059942
 30
0.0
 40
0.0394
 50
180.0000000000003979
 51
268.9999999867537213
  0
ARC
  5
1BBF
  8
0
 10
277.3247353958612962
 20
10.0092126658588008
 30
0.0
 40
0.1168692699190134
 50
187.8381336714031988
 51
201.7039960534841043
  0
ARC
  5
1BC0
  8
0
 10
277.3921970946429951
 20
10.0360643867069594
 30
0.0
 40
0.1894784684756068
 50
201.7039960534841043
 51
211.656179720292613
  0
ARC
  5
1BC1
  8
0
 10
277.0982779267274054
 20
9.8548465997815811
 30
0.0
 40
0.1558161355458315
 50
15.0810065905358304
 51
31.6561797202926201
  0
ARC
  5
1BC2
  8
0
 10
277.2868095333396923
 20
9.9056492895177115
 30
0.0
 40
0.0394403111499158
 50
195.0810065905359068
 51
217.8139731399620018
  0
ARC
  5
1BC3
  8
0
 10
277.2670175745088841
 20
9.8992458006664137
 30
0.0
 40
0.0211003009495493
 50
237.4068368924953916
 51
310.7468091604559959
  0
ARC
  5
1BC4
  8
0
 10
277.2550353123730247
 20
9.9214489776269854
 30
0.0
 40
0.0460618453856503
 50
303.996012138374283
 51
341.1713078625297157
  0
ARC
  5
1BC5
  8
0
 10
277.3247353958612962
 20
9.2623531072973062
 30
0.0
 40
0.1168692699190134
 50
158.2960039465158104
 51
172.1618663285966875
  0
ARC
  5
1BC6
  8
0
 10
277.3921970946429951
 20
9.2355013864491422
 30
0.0
 40
0.1894784684756068
 50
148.343820279707387
 51
158.2960039465158104
  0
ARC
  5
1BC7
  8
0
 10
277.0982779267274054
 20
9.4167191733745277
 30
0.0
 40
0.1558161355458315
 50
328.3438202797074155
 51
344.9189934094641217
  0
ARC
  5
1BC8
  8
0
 10
277.2868095333396923
 20
9.3659164836383972
 30
0.0
 40
0.0394403111499158
 50
142.1860268600379982
 51
164.918993409464008
  0
ARC
  5
1BC9
  8
0
 10
277.2670175745088841
 20
9.3723199724896933
 30
0.0
 40
0.0211003009495493
 50
49.2531908395439828
 51
122.5931631075044947
  0
ARC
  5
1BCA
  8
0
 10
277.2550353123730247
 20
9.3501167955291216
 30
0.0
 40
0.0460618453856503
 50
18.8286921374703518
 51
56.0039878616256104
  0
LINE
  5
1BCB
  8
0
 10
280.5806388322085922
 20
12.6640541536649192
 30
0.0
 11
280.785800818146015
 21
12.8709859591345506
 31
0.0
  0
ARC
  5
1BCC
  8
0
 10
280.8213076703572142
 20
12.8357827853280604
 30
0.0
 40
0.05
 50
90.0
 51
135.2460667168008115
  0
LINE
  5
1BCD
  8
0
 10
280.581012506271918
 20
6.6042994425400048
 30
0.0
 11
280.7876783350118899
 21
6.4002066726507501
 31
0.0
  0
ARC
  5
1BCE
  8
0
 10
280.6161456844197915
 20
6.6398755552173103
 30
0.0
 40
0.05
 50
180.0
 51
225.3589054125939128
  0
ARC
  5
1BD2
  8
0
 10
280.4276221620198157
 20
9.6357827853279723
 30
0.0
 40
1.062999999999918
 50
270.2205306569974823
 51
277.4890658728002109
  0
ARC
  5
1BD3
  8
0
 10
280.4276221620198726
 20
9.6357827853283684
 30
0.0
 40
1.0629999999996851
 50
82.5122765672678753
 51
89.7794693430285378
  0
LINE
  5
1BD4
  8
0
 10
280.5661456844197801
 20
7.714029427328053
 30
0.0
 11
280.4097791939876743
 21
7.7113000401292391
 31
0.0
  0
ARC
  5
1BD5
  8
0
 10
280.4103055563217026
 20
7.6811447617218054
 30
0.0
 40
0.0301598719018576
 50
90.9999999837799862
 51
179.9999997981553861
  0
LINE
  5
1BD6
  8
0
 10
280.3801456844198015
 20
7.6811447618280537
 30
0.0
 11
280.3801456819865052
 21
6.9904208088280528
 31
0.0
  0
ARC
  5
1BD7
  8
0
 10
280.4103055537307227
 20
6.9904208087218054
 30
0.0
 40
0.0301598717441607
 50
179.9999997981499007
 51
269.0000048050306987
  0
LINE
  5
1BD8
  8
0
 10
280.4097791939199169
 20
6.9602655304280541
 30
0.0
 11
280.5661456846478927
 21
6.95753615629725
 31
0.0
  0
LINE
  5
1BD9
  8
0
 10
280.3801456844198015
 20
7.0357827853280543
 30
0.0
 11
280.046145684419912
 21
7.0357827853280543
 31
0.0
  0
ARC
  5
1BDA
  8
0
 10
280.046145684419912
 20
7.055782785328053
 30
0.0
 40
0.0199999999999996
 50
179.9999999999986073
 51
270.0
  0
LINE
  5
1BDB
  8
0
 10
280.0261456844198165
 20
7.055782785328053
 30
0.0
 11
280.0261456844198733
 21
7.6157827853280544
 31
0.0
  0
ARC
  5
1BDC
  8
0
 10
280.046145684419912
 20
7.6157827853280544
 30
0.0
 40
0.0200000000000014
 50
90.0000000000390656
 51
180.0000000000013927
  0
LINE
  5
1BDD
  8
0
 10
280.046145684419912
 20
7.6357827853280531
 30
0.0
 11
280.3801456842600146
 21
7.635782785328292
 31
0.0
  0
ARC
  5
1BDE
  8
0
 10
280.0061456844197778
 20
7.6157827853280562
 30
0.0
 40
0.0199999999999996
 50
359.999999999992383
 51
90.0
  0
LINE
  5
1BDF
  8
0
 10
280.0061456844197778
 20
7.6357827853280531
 30
0.0
 11
279.6001456844197719
 21
7.6357827853280531
 31
0.0
  0
ARC
  5
1BE0
  8
0
 10
279.6001456844197719
 20
7.6657827853280534
 30
0.0
 40
0.0299999999999994
 50
179.9999999999990905
 51
270.0
  0
LINE
  5
1BE1
  8
0
 10
279.5701456844199129
 20
7.7163563784280544
 30
0.0
 11
279.5701456844199129
 21
6.955209192128053
 31
0.0
  0
ARC
  5
1BE2
  8
0
 10
279.540145684350307
 20
6.955209192128053
 30
0.0
 40
0.030000000069542
 50
315.0000000939116944
 51
359.9999999999997158
  0
LINE
  5
1BE3
  8
0
 10
279.5613588878699147
 20
6.9339959886780536
 30
0.0
 11
279.5189324811393021
 21
6.8915695818085121
 31
0.0
  0
ARC
  5
1BE4
  8
0
 10
279.4977192779556958
 20
6.9127827849227357
 30
0.0
 40
0.0299999995946828
 50
269.9999993587155132
 51
315.0000000939144797
  0
LINE
  5
1BE5
  8
0
 10
279.4977192776198081
 20
6.882782785328053
 30
0.0
 11
279.2675720913197779
 21
6.882782785328053
 31
0.0
  0
ARC
  5
1BE6
  8
0
 10
279.2675721012400913
 20
6.9127828092776458
 30
0.0
 40
0.0300000239495916
 50
225.0000189462625997
 51
269.9999810537477742
  0
LINE
  5
1BE7
  8
0
 10
279.2463588878841847
 20
6.8915695818924583
 30
0.0
 11
279.1849324676488777
 21
6.9529959752859707
 31
0.0
  0
ARC
  5
1BE8
  8
0
 10
279.2061456230662202
 20
6.9742091399728201
 30
0.0
 40
0.0299999386463901
 50
179.9999003906376061
 51
225.0000125184002115
  0
LINE
  5
1BE9
  8
0
 10
279.1761456844199074
 20
6.974209192128054
 30
0.0
 11
279.176146941619379
 21
7.697356378426961
 31
0.0
  0
ARC
  5
1BEA
  8
0
 10
279.2061501032400201
 20
7.6973563262661244
 30
0.0
 40
0.0300031616206456
 50
135.0058963429806909
 51
179.9999003906366113
  0
LINE
  5
1BEB
  8
0
 10
279.1849324810198141
 20
7.7185695818992448
 30
0.0
 11
279.2463525661307244
 21
7.7800023098666831
 31
0.0
  0
ARC
  5
1BEC
  8
0
 10
279.2675474488139002
 20
7.7588117890907604
 30
0.0
 40
0.0299710063679717
 50
89.9528907461057656
 51
135.0058963429808045
  0
LINE
  5
1BED
  8
0
 10
279.2675720913197779
 20
7.7887827853280536
 30
0.0
 11
279.4977191998264061
 21
7.7887827853280536
 31
0.0
  0
ARC
  5
1BEE
  8
0
 10
279.4969433012321929
 20
7.7569094059217081
 30
0.0
 40
0.0318828219172866
 50
46.3946329370609405
 51
88.6055154048412703
  0
LINE
  5
1BEF
  8
0
 10
279.5189324810198173
 20
7.7799959887280536
 30
0.0
 11
279.5613533888537745
 21
7.7375750808940733
 31
0.0
  0
ARC
  5
1BF0
  8
0
 10
279.5401456656837809
 20
7.7163563721184003
 30
0.0
 40
0.0300000187360545
 50
0.0000120505442011
 51
45.0148357625805033
  0
LINE
  5
1BF1
  8
0
 10
279.2463588879198255
 20
7.7800086310713343
 30
0.0
 11
279.2463588879198255
 21
6.8915695818280538
 31
0.0
  0
LINE
  5
1BF2
  8
0
 10
279.5189324810198173
 20
7.7799959887280536
 30
0.0
 11
279.5189324810198173
 21
6.891569581688973
 31
0.0
  0
ARC
  5
1BF3
  8
0
 10
279.6001456844197719
 20
7.0057827853280541
 30
0.0
 40
0.0299999999999994
 50
90.0
 51
180.0000000000019895
  0
LINE
  5
1BF4
  8
0
 10
279.6001456844197719
 20
7.0357827853280543
 30
0.0
 11
280.0061456844197778
 21
7.0357827853280543
 31
0.0
  0
ARC
  5
1BF5
  8
0
 10
280.0061456844197778
 20
7.055782785328053
 30
0.0
 40
0.0199999999999996
 50
270.0
 51
0.0
  0
ATTDEF
  5
1BFF
  8
DEFPOINTS
 10
281.4679890806891081
 20
9.6397964270640948
 30
0.0
 40
0.001
  1
P34887-00
  3

  2
MODELNUMBER
 70
     0
1001
ACDBATTR
1070
     0
1070
     1
  0
ATTDEF
  5
1C00
  8
DEFPOINTS
 10
281.4679890806891081
 20
9.6381297603974296
 30
0.0
 40
0.001
  1
VICE
  3

  2
TRADENAME
 70
     0
1001
ACDBATTR
1070
     0
1070
     1
  0
ATTDEF
  5
1C01
  8
DEFPOINTS
 10
281.4679890806891081
 20
9.6364630937307645
 30
0.0
 40
0.001
  1
VALVE TRIM
  3

  2
PRODUCT
 70
     0
1001
ACDBATTR
1070
     0
1070
     1
  0
ENDSEC
  0
EOF
