  0
SECTION
  2
HEADER
  9
$ACADVER
  1
AC1009
  9
$INSBASE
 10
281.500433150879303
 20
9.8193784107956628
 30
0.0
  9
$EXTMIN
 10
277.3953072394210722
 20
7.1609986746805978
 30
-0.0000000000112498
  9
$EXTMAX
 10
281.5193137616050763
 20
12.4775351549633609
 30
0.0000000000002956
  9
$LIMMIN
 10
0.0
 20
0.0
  9
$LIMMAX
 10
11.6929133858000007
 20
8.2677165353999982
  9
$ORTHOMODE
 70
     0
  9
$REGENMODE
 70
     1
  9
$FILLMODE
 70
     1
  9
$QTEXTMODE
 70
     0
  9
$MIRRTEXT
 70
     0
  9
$DRAGMODE
 70
     2
  9
$LTSCALE
 40
0.6431102362
  9
$OSMODE
 70
  4095
  9
$ATTMODE
 70
     1
  9
$TEXTSIZE
 40
0.2
  9
$TRACEWID
 40
0.05
  9
$TEXTSTYLE
  7
STANDARD
  9
$CLAYER
  8
0
  9
$CELTYPE
  6
BYLAYER
  9
$CECOLOR
 62
   256
  9
$DIMSCALE
 40
1.0
  9
$DIMASZ
 40
0.1875
  9
$DIMEXO
 40
0.0625
  9
$DIMDLI
 40
0.4443307087
  9
$DIMRND
 40
0.0
  9
$DIMDLE
 40
0.0
  9
$DIMEXE
 40
0.125
  9
$DIMTP
 40
0.01
  9
$DIMTM
 40
0.01
  9
$DIMTXT
 40
1.0
  9
$DIMCEN
 40
0.1052362205
  9
$DIMTSZ
 40
0.0
  9
$DIMTOL
 70
     1
  9
$DIMLIM
 70
     0
  9
$DIMTIH
 70
     1
  9
$DIMTOH
 70
     1
  9
$DIMSE1
 70
     0
  9
$DIMSE2
 70
     0
  9
$DIMTAD
 70
     0
  9
$DIMZIN
 70
     0
  9
$DIMBLK
  1

  9
$DIMASO
 70
     1
  9
$DIMSHO
 70
     1
  9
$DIMPOST
  1
\X
  9
$DIMAPOST
  1

  9
$DIMALT
 70
     1
  9
$DIMALTD
 70
     2
  9
$DIMALTF
 40
25.3999999999999986
  9
$DIMLFAC
 40
1.0
  9
$DIMTOFL
 70
     0
  9
$DIMTVP
 40
0.0
  9
$DIMTIX
 70
     0
  9
$DIMSOXD
 70
     0
  9
$DIMSAH
 70
     0
  9
$DIMBLK1
  1

  9
$DIMBLK2
  1

  9
$DIMSTYLE
  2
STANDARD
  9
$DIMCLRD
 70
     0
  9
$DIMCLRE
 70
     0
  9
$DIMCLRT
 70
     0
  9
$DIMTFAC
 40
1.0
  9
$DIMGAP
 40
0.09
  9
$LUNITS
 70
     2
  9
$LUPREC
 70
     4
  9
$SKETCHINC
 40
0.1
  9
$FILLETRAD
 40
0.0
  9
$AUNITS
 70
     0
  9
$AUPREC
 70
     0
  9
$MENU
  1
.
  9
$ELEVATION
 40
0.0
  9
$PELEVATION
 40
0.0
  9
$THICKNESS
 40
0.0
  9
$LIMCHECK
 70
     0
  9
$BLIPMODE
 70
     0
  9
$CHAMFERA
 40
0.0
  9
$CHAMFERB
 40
0.0
  9
$SKPOLY
 70
     0
  9
$TDCREATE
 40
2458267.4656481482088566
  9
$TDUPDATE
 40
2460346.6992824068292975
  9
$TDINDWG
 40
0.1906393981
  9
$TDUSRTIMER
 40
0.1906393981
  9
$USRTIMER
 70
     1
  9
$ANGBASE
 50
0.0
  9
$ANGDIR
 70
     0
  9
$PDMODE
 70
     0
  9
$PDSIZE
 40
0.3125
  9
$PLINEWID
 40
0.0
  9
$COORDS
 70
     1
  9
$SPLFRAME
 70
     0
  9
$SPLINETYPE
 70
     6
  9
$SPLINESEGS
 70
     8
  9
$ATTDIA
 70
     1
  9
$ATTREQ
 70
     1
  9
$HANDLING
 70
     1
  9
$HANDSEED
  5
1A91
  9
$SURFTAB1
 70
     6
  9
$SURFTAB2
 70
     6
  9
$SURFTYPE
 70
     6
  9
$SURFU
 70
     6
  9
$SURFV
 70
     6
  9
$UCSNAME
  2

  9
$UCSORG
 10
0.0
 20
0.0
 30
0.0
  9
$UCSXDIR
 10
1.0
 20
0.0
 30
0.0
  9
$UCSYDIR
 10
0.0
 20
1.0
 30
0.0
  9
$PUCSNAME
  2

  9
$PUCSORG
 10
0.0
 20
0.0
 30
0.0
  9
$PUCSXDIR
 10
1.0
 20
0.0
 30
0.0
  9
$PUCSYDIR
 10
0.0
 20
1.0
 30
0.0
  9
$USERI1
 70
     0
  9
$USERI2
 70
     0
  9
$USERI3
 70
     0
  9
$USERI4
 70
     0
  9
$USERI5
 70
     0
  9
$USERR1
 40
0.0
  9
$USERR2
 40
0.0
  9
$USERR3
 40
0.0
  9
$USERR4
 40
0.0
  9
$USERR5
 40
0.0
  9
$WORLDVIEW
 70
     1
  9
$SHADEDGE
 70
     3
  9
$SHADEDIF
 70
    70
  9
$TILEMODE
 70
     1
  9
$MAXACTVP
 70
    64
  9
$PLIMCHECK
 70
     0
  9
$PEXTMIN
 10
1.0000000000000000E+20
 20
1.0000000000000000E+20
 30
1.0000000000000000E+20
  9
$PEXTMAX
 10
-1.0000000000000000E+20
 20
-1.0000000000000000E+20
 30
-1.0000000000000000E+20
  9
$PLIMMIN
 10
0.0
 20
0.0
  9
$PLIMMAX
 10
12.0
 20
9.0
  9
$UNITMODE
 70
     0
  9
$VISRETAIN
 70
     1
  9
$PLINEGEN
 70
     0
  9
$PSLTSCALE
 70
     1
  0
ENDSEC
  0
SECTION
  2
TABLES
  0
TABLE
  2
VPORT
 70
     1
  0
VPORT
  2
*ACTIVE
 70
     0
 10
0.0
 20
0.0
 11
1.0
 21
1.0
 12
177.4719360498295089
 22
0.0071394220510363
 13
0.0
 23
0.0
 14
1.0
 24
1.0
 15
0.0
 25
0.0
 16
-0.0000000000000142
 26
0.0
 36
62.9619509154070727
 17
101.9853744506835938
 27
9.8121274927709443
 37
0.0
 40
5.3573805505538221
 41
2.4474358974358972
 42
50.0
 43
0.0
 44
0.0
 50
0.0
 51
0.0
 71
     0
 72
   100
 73
     1
 74
     1
 75
     0
 76
     0
 77
     0
 78
     0
  0
ENDTAB
  0
TABLE
  2
LTYPE
 70
     2
  0
LTYPE
  2
CONTINUOUS
 70
     0
  3
Solid line
 72
    65
 73
     0
 40
0.0
  0
LTYPE
  2
PHANTOM2
 70
     0
  3
___ _ _ ___ _ _ ___ _ _ ___ _ _
 72
    65
 73
     6
 40
1.25
 49
0.625
 49
-0.125
 49
0.125
 49
-0.125
 49
0.125
 49
-0.125
  0
ENDTAB
  0
TABLE
  2
LAYER
 70
     2
  0
LAYER
  2
0
 70
     0
 62
   255
  6
CONTINUOUS
  0
LAYER
  2
DEFPOINTS
 70
     0
 62
     7
  6
CONTINUOUS
  0
ENDTAB
  0
TABLE
  2
STYLE
 70
     1
  0
STYLE
  2
STANDARD
 70
     0
 40
0.0
 41
0.8
 50
0.0
 71
     0
 42
0.2
  3
txt
  4

  0
ENDTAB
  0
TABLE
  2
VIEW
 70
     0
  0
ENDTAB
  0
TABLE
  2
UCS
 70
     0
  0
ENDTAB
  0
TABLE
  2
APPID
 70
     9
  0
APPID
  2
ACAD
 70
     0
  0
APPID
  2
ACAD_MLEADERVER
 70
     0
  0
APPID
  2
ACAD_EXEMPT_FROM_CAD_STANDARDS
 70
     0
  0
APPID
  2
ACAD_DSTYLE_DIMJAG
 70
     0
  0
APPID
  2
ACAD_DSTYLE_DIMTALN
 70
     0
  0
APPID
  2
ACAD_NAV_VCDISPLAY
 70
     0
  0
APPID
  2
ACAECLAYERSTANDARD
 70
     0
  0
APPID
  2
ACCMTRANSPARENCY
 70
     0
  0
APPID
  2
ACDBATTR
 70
     0
  0
ENDTAB
  0
TABLE
  2
DIMSTYLE
 70
     1
  0
DIMSTYLE
  2
STANDARD
 70
     0
  3

  4

  5

  6

  7

 40
1.0
 41
0.1875
 42
0.0625
 43
0.38
 44
0.125
 45
0.0
 46
0.0
 47
0.01
 48
0.01
140
0.15625
141
0.09
142
0.0
143
25.3999999999999986
144
1.0
145
0.0
146
1.0
147
0.09
 71
     1
 72
     0
 73
     1
 74
     1
 75
     0
 76
     0
 77
     0
 78
     4
170
     0
171
     2
172
     0
173
     0
174
     0
175
     0
176
     0
177
     0
178
     0
  0
ENDTAB
  0
ENDSEC
  0
SECTION
  2
BLOCKS
  0
BLOCK
  8
0
  2
$MODEL_SPACE
 70
     0
 10
0.0
 20
0.0
 30
0.0
  3
$MODEL_SPACE
  1

  0
ENDBLK
  5
21
  8
0
  0
BLOCK
 67
     1
  8
0
  2
$PAPER_SPACE
 70
     0
 10
0.0
 20
0.0
 30
0.0
  3
$PAPER_SPACE
  1

  0
ENDBLK
  5
1D
 67
     1
  8
0
  0
BLOCK
  8
0
  2
_FILLED
 70
     0
 10
0.0
 20
0.0
 30
0.0
  3
_FILLED
  1

  0
SOLID
  5
1619
  8
0
  6
BYBLOCK
 62
     0
 10
0.0
 20
0.0
 30
0.0
 11
-1.0
 21
0.1666666667
 31
0.0
 12
-1.0
 22
-0.1666666667
 32
0.0
 13
-1.0
 23
-0.1666666667
 33
0.0
  0
ENDBLK
  5
161A
  8
0
  6
BYBLOCK
 62
     0
  0
ENDSEC
  0
SECTION
  2
ENTITIES
  0
ATTDEF
  5
D4F
  8
DEFPOINTS
 10
281.5012274848637048
 20
9.8204011720676476
 30
0.0
 40
0.001
  1
P34888-00
  3

  2
MODELNUMBER
 70
     0
1001
ACDBATTR
1070
     0
1070
     1
  0
ATTDEF
  5
D50
  8
DEFPOINTS
 10
281.5012274848637048
 20
9.8187345054009825
 30
0.0
 40
0.001
  1
VICE
  3

  2
TRADENAME
 70
     0
1001
ACDBATTR
1070
     0
1070
     1
  0
ATTDEF
  5
D51
  8
DEFPOINTS
 10
281.5012274848637048
 20
9.8170678387343173
 30
0.0
 40
0.001
  1
VALVE TRIM
  3

  2
PRODUCT
 70
     0
1001
ACDBATTR
1070
     0
1070
     1
  0
LINE
  5
1933
  8
0
 10
280.9495331508792901
 20
12.47685872579566
 30
0.0
 11
281.500433150879303
 21
12.47685872579566
 31
0.0
  0
LINE
  5
1934
  8
0
 10
281.500433150879303
 20
12.47685872579566
 30
0.0
 11
281.500433150879303
 21
7.1618980957956602
 31
0.0
  0
LINE
  5
1935
  8
0
 10
280.8904331508792893
 20
12.4177587257956592
 30
0.0
 11
280.8904331508792893
 21
7.2209980957956601
 31
0.0
  0
ARC
  5
1936
  8
0
 10
280.9404331508793007
 20
12.2199269203260297
 30
0.0
 40
0.05
 50
135.2460667168008115
 51
180.0
  0
ARC
  5
1937
  8
0
 10
280.9495331508792901
 20
12.4177587257956592
 30
0.0
 40
0.0591
 50
90.0
 51
180.0
  0
LINE
  5
1938
  8
0
 10
281.1120089623793206
 20
7.1765427567956621
 30
0.0
 11
281.1120089623793206
 21
12.4638988241576403
 31
0.0
  0
LINE
  5
1939
  8
0
 10
280.8854331508792939
 20
10.8823705367956602
 30
0.0
 11
279.8661811823793073
 21
10.8823705367956602
 31
0.0
  0
LINE
  5
193A
  8
0
 10
279.806181163479323
 20
10.8823705367956602
 30
0.0
 11
279.3130550262736165
 21
10.8823705367956602
 31
0.0
  0
ARC
  5
193B
  8
0
 10
280.8854331508792939
 20
10.8773705367956595
 30
0.0
 40
0.005
 50
0.0000000000101778
 51
90.0
  0
LINE
  5
193C
  8
0
 10
279.8461811823793255
 20
10.8623705367956607
 30
0.0
 11
279.8461811823793255
 21
8.7763862847956631
 31
0.0
  0
LINE
  5
193D
  8
0
 10
279.8161811634793139
 20
10.8723705367956605
 30
0.0
 11
279.8161811634793139
 21
8.7663862847956668
 31
0.0
  0
ARC
  5
193E
  8
0
 10
279.8661811823793073
 20
10.8623705367956607
 30
0.0
 40
0.02
 50
89.9999999999934914
 51
180.0
  0
ARC
  5
193F
  8
0
 10
279.806181163479323
 20
10.8723705367956605
 30
0.0
 40
0.01
 50
0.0000000000152667
 51
89.9999999999902229
  0
LINE
  5
1940
  8
0
 10
279.1656299823793006
 20
10.4686651569407996
 30
0.0
 11
279.1656299823793006
 21
9.1700916646505224
 31
0.0
  0
LINE
  5
1941
  8
0
 10
279.2753166706361867
 20
10.8542920434878898
 30
0.0
 11
279.1713782597046247
 21
10.50783067374668
 31
0.0
  0
ARC
  5
1942
  8
0
 10
279.3130550262736165
 20
10.8429705367956597
 30
0.0
 40
0.0394
 50
90.0
 51
163.3007557646108125
  0
ARC
  5
1943
  8
0
 10
279.3019299823793062
 20
10.4686651569407996
 30
0.0
 40
0.1363
 50
163.3007557646112105
 51
179.9999999999984084
  0
LINE
  5
1944
  8
0
 10
278.3585433256793067
 20
11.2757094979052006
 30
0.0
 11
278.3585433256793067
 21
8.3630473236645742
 31
0.0
  0
ARC
  5
1945
  8
0
 10
278.3388433256793064
 20
10.0493315451608503
 30
0.0
 40
0.0197
 50
0.0
 51
90.9999999996532267
  0
ARC
  5
1946
  8
0
 10
278.3388433256793064
 20
9.5894252772836435
 30
0.0
 40
0.0197
 50
268.9969109100147193
 51
0.0
  0
LINE
  5
1947
  8
0
 10
278.0035549134652229
 20
11.2895600177586104
 30
0.0
 11
278.3384995132723247
 21
11.2954064974997692
 31
0.0
  0
LINE
  5
1948
  8
0
 10
277.9648425382792993
 20
11.2501660185694607
 30
0.0
 11
277.9648425382792993
 21
10.10466405058623
 31
0.0
  0
LINE
  5
1949
  8
0
 10
277.9648425382792993
 20
9.5341151968371474
 30
0.0
 11
277.9648425382792993
 21
8.3885908030736012
 31
0.0
  0
ARC
  5
194A
  8
0
 10
277.9219425382793247
 20
9.5341151968371474
 30
0.0
 40
0.0429
 50
0.0000000000001018
 51
88.9969109100146341
  0
ARC
  5
194B
  8
0
 10
278.0042425382792999
 20
11.2501660185694607
 30
0.0
 40
0.0394
 50
91.0000000007151471
 51
180.0000000000011937
  0
ARC
  5
194C
  8
0
 10
278.3388433256793064
 20
11.2757094979052006
 30
0.0
 40
0.0197
 50
0.0000000000026462
 51
91.0000000007151471
  0
LINE
  5
194D
  8
0
 10
278.7904990970058066
 20
10.2842795396797495
 30
0.0
 11
279.136153554575003
 21
10.2782461186503102
 31
0.0
  0
LINE
  5
194E
  8
0
 10
278.6433387448204257
 20
10.4457706697560901
 30
0.0
 11
278.3585433256793067
 21
10.7308990458956597
 31
0.0
  0
ARC
  5
194F
  8
0
 10
278.5597806609808913
 20
10.3623101603816608
 30
0.0
 40
0.1181
 50
9.7625624454257114
 51
44.9665270536924808
  0
ARC
  5
1950
  8
0
 10
278.7925602262163238
 20
10.4023615524775206
 30
0.0
 40
0.1181
 50
189.7625624454163074
 51
268.9999999950567826
  0
ARC
  5
1951
  8
0
 10
279.1356299823793279
 20
10.2482506877956592
 30
0.0
 40
0.03
 50
359.9999999999973284
 51
88.9999999950567968
  0
LINE
  5
1952
  8
0
 10
279.2753230676793237
 20
10.8543133451179905
 30
0.0
 11
279.2753230676793237
 21
8.7844434764733403
 31
0.0
  0
LINE
  5
1953
  8
0
 10
278.7258173704793194
 20
10.3049295186894696
 30
0.0
 11
278.7258173704793194
 21
9.3338273029018595
 31
0.0
  0
LINE
  5
1954
  8
0
 10
278.6361430863793203
 20
10.4529747407090401
 30
0.0
 11
278.6361430863793203
 21
9.1857820808822765
 31
0.0
  0
ARC
  5
1955
  8
0
 10
279.786181182576172
 20
10.5442312244564995
 30
0.0
 40
0.059999999803134
 50
314.9999999610340069
 51
0.0000000373935524
  0
LINE
  5
1956
  8
0
 10
279.8161811634793139
 20
10.4893783918956593
 30
0.0
 11
279.8286075892792724
 21
10.5018048176956604
 31
0.0
  0
LINE
  5
1957
  8
0
 10
280.9495331508792901
 20
7.1618980957956602
 30
0.0
 11
281.500433150879303
 21
7.1618980957956602
 31
0.0
  0
ARC
  5
1958
  8
0
 10
281.1470989796192725
 20
7.2118980957956591
 30
0.0
 40
0.05
 50
225.3589054125939128
 51
270.0
  0
ARC
  5
1959
  8
0
 10
280.9495331508792901
 20
7.2209980957956601
 30
0.0
 40
0.0591
 50
180.0
 51
270.0
  0
LINE
  5
195A
  8
0
 10
280.8854331508792939
 20
8.7563862847956635
 30
0.0
 11
279.8661811823793073
 21
8.7563862847956635
 31
0.0
  0
LINE
  5
195B
  8
0
 10
279.806181163479323
 20
8.7563862847956635
 30
0.0
 11
279.3130550262736165
 21
8.7563862847956635
 31
0.0
  0
ARC
  5
195C
  8
0
 10
280.8854331508792939
 20
8.7613862847956643
 30
0.0
 40
0.005
 50
270.0
 51
359.999999999989825
  0
ARC
  5
195D
  8
0
 10
279.8661811823793073
 20
8.7763862847956631
 30
0.0
 40
0.02
 50
180.0
 51
270.0000000000064801
  0
ARC
  5
195E
  8
0
 10
279.806181163479323
 20
8.7663862847956668
 30
0.0
 40
0.01
 50
270.0000000000097771
 51
359.9999999999847091
  0
LINE
  5
195F
  8
0
 10
279.2753166706361867
 20
8.7844647781034304
 30
0.0
 11
279.1713782597046247
 21
9.1309261478446455
 31
0.0
  0
ARC
  5
1960
  8
0
 10
279.3130550262736165
 20
8.7957862847956623
 30
0.0
 40
0.0394
 50
196.6992442353891022
 51
270.0
  0
ARC
  5
1961
  8
0
 10
279.3019299823793062
 20
9.1700916646505224
 30
0.0
 40
0.1363
 50
180.0000000000013927
 51
196.6992442353887043
  0
LINE
  5
1962
  8
0
 10
278.7904990970058066
 20
9.3544772819115796
 30
0.0
 11
279.136153554575003
 21
9.3605107029410171
 31
0.0
  0
LINE
  5
1963
  8
0
 10
278.6433387448204257
 20
9.1929861518352318
 30
0.0
 11
278.3585433256793067
 21
8.9078577756956623
 31
0.0
  0
ARC
  5
1964
  8
0
 10
278.5597806609808913
 20
9.2764466612096665
 30
0.0
 40
0.1181
 50
315.0334729463075973
 51
350.2374375545742851
  0
ARC
  5
1965
  8
0
 10
278.7925602262163238
 20
9.2363952691138085
 30
0.0
 40
0.1181
 50
91.0000000049432174
 51
170.2374375545836074
  0
ARC
  5
1966
  8
0
 10
279.1356299823793279
 20
9.3905061337956628
 30
0.0
 40
0.03
 50
271.0000000049432174
 51
0.0000000000024427
  0
ARC
  5
1967
  8
0
 10
279.786181182576172
 20
9.0945255971348207
 30
0.0
 40
0.059999999803134
 50
359.9999999626064096
 51
45.0000000389660713
  0
LINE
  5
1968
  8
0
 10
279.8161811634793139
 20
9.1493784296956626
 30
0.0
 11
279.8286075892792724
 21
9.1369520038956633
 31
0.0
  0
LINE
  5
1969
  8
0
 10
277.4717654899329204
 20
9.5849039203788067
 30
0.0
 11
278.3384984513132849
 21
9.5697282962542651
 31
0.0
  0
LINE
  5
196A
  8
0
 10
277.4136613177793151
 20
9.6447267138224575
 30
0.0
 11
277.4136613177793151
 21
9.994030107768868
 31
0.0
  0
LINE
  5
196B
  8
0
 10
277.4718124669408894
 20
10.0539004660945306
 30
0.0
 11
278.338499513272609
 21
10.0690285447554295
 31
0.0
  0
ARC
  5
196C
  8
0
 10
277.9219425382793247
 20
10.10466405058623
 30
0.0
 40
0.0429
 50
270.9999999996531983
 51
0.0000000000000509
  0
LINE
  5
196D
  8
0
 10
277.4191903237118026
 20
10.0077148776660696
 30
0.0
 11
277.4579852852800741
 21
10.04788823639716
 31
0.0
  0
LINE
  5
196E
  8
0
 10
277.4191903236934991
 20
9.6310419439443145
 30
0.0
 11
277.4579393702130119
 21
9.5909161315300473
 31
0.0
  0
ARC
  5
196F
  8
0
 10
277.4333613177793154
 20
9.6447267138224611
 30
0.0
 40
0.0197
 50
180.0000000000055991
 51
223.9999999195302962
  0
ARC
  5
1970
  8
0
 10
277.4333613177793154
 20
9.994030107768868
 30
0.0
 40
0.0197
 50
136.0000000033811034
 51
179.9999999999978968
  0
ARC
  5
1971
  8
0
 10
277.4721562793477005
 20
10.0342034664999495
 30
0.0
 40
0.0197
 50
90.9999999996597495
 51
136.0000000033780907
  0
ARC
  5
1972
  8
0
 10
277.4721103642988851
 20
9.6046009014081868
 30
0.0
 40
0.0197
 50
223.999999919533991
 51
268.9969109100081255
  0
LINE
  5
1973
  8
0
 10
277.4579852852800741
 20
10.04788823639716
 30
0.0
 11
277.4579852852800741
 21
9.5908687441590601
 31
0.0
  0
LINE
  5
1974
  8
0
 10
278.3384995132680046
 20
8.343350324070073
 30
0.0
 11
278.0035549134565827
 21
8.3491968038845972
 31
0.0
  0
ARC
  5
1975
  8
0
 10
278.3388433256793064
 20
8.3630473236645742
 30
0.0
 40
0.0197
 50
268.9999999867537213
 51
0.0
  0
ARC
  5
1976
  8
0
 10
278.0042425382792999
 20
8.3885908030736012
 30
0.0
 40
0.0394
 50
180.0000000000003979
 51
268.9999999867537213
  0
ARC
  5
1977
  8
0
 10
278.7519204811206919
 20
10.1928082913264095
 30
0.0
 40
0.1168692699190134
 50
187.8381336714033125
 51
201.7039960534841896
  0
ARC
  5
1978
  8
0
 10
278.8193821799023908
 20
10.21966001217457
 30
0.0
 40
0.1894784684756068
 50
201.7039960534841896
 51
211.656179720292613
  0
ARC
  5
1979
  8
0
 10
278.5254630119869148
 20
10.0384422252491898
 30
0.0
 40
0.1558161355458315
 50
15.0810065905358801
 51
31.6561797202926201
  0
ARC
  5
197A
  8
0
 10
278.7139946185992017
 20
10.0892449149853203
 30
0.0
 40
0.0394403111499158
 50
195.081006590535992
 51
217.8139731399620018
  0
ARC
  5
197B
  8
0
 10
278.6942026597685071
 20
10.0828414261340207
 30
0.0
 40
0.0211003009495493
 50
237.4068368924953916
 51
310.7468091604559959
  0
ARC
  5
197C
  8
0
 10
278.6822203976324772
 20
10.1050446030945906
 30
0.0
 40
0.0460618453856503
 50
303.996012138374283
 51
341.1713078625297157
  0
ARC
  5
197D
  8
0
 10
278.7519204811206919
 20
9.4459487327649132
 30
0.0
 40
0.1168692699190134
 50
158.2960039465158104
 51
172.1618663285966875
  0
ARC
  5
197E
  8
0
 10
278.8193821799023908
 20
9.4190970119167492
 30
0.0
 40
0.1894784684756068
 50
148.3438202797073018
 51
158.2960039465158104
  0
ARC
  5
197F
  8
0
 10
278.5254630119869148
 20
9.6003147988421365
 30
0.0
 40
0.1558161355458315
 50
328.3438202797073018
 51
344.9189934094641217
  0
ARC
  5
1980
  8
0
 10
278.7139946185992017
 20
9.5495121091060042
 30
0.0
 40
0.0394403111499158
 50
142.1860268600379982
 51
164.918993409464008
  0
ARC
  5
1981
  8
0
 10
278.6942026597685071
 20
9.5559155979573021
 30
0.0
 40
0.0211003009495493
 50
49.2531908395439828
 51
122.5931631075044947
  0
ARC
  5
1982
  8
0
 10
278.6822203976324772
 20
9.5337124209967303
 30
0.0
 40
0.0460618453856503
 50
18.8286921374703518
 51
56.0039878616256317
  0
LINE
  5
1983
  8
0
 10
280.9049262986681015
 20
12.2551300941325199
 30
0.0
 11
281.1100882846054105
 21
12.4620618996021602
 31
0.0
  0
ARC
  5
1984
  8
0
 10
281.1455951368166097
 20
12.4268587257956593
 30
0.0
 40
0.05
 50
90.0
 51
135.2460667168008115
  0
LINE
  5
1985
  8
0
 10
280.9052999727314273
 20
7.380414753007611
 30
0.0
 11
281.1119658014713991
 21
7.1763219831183562
 31
0.0
  0
ARC
  5
1986
  8
0
 10
280.9404331508793007
 20
7.4159908656849147
 30
0.0
 40
0.05
 50
180.0
 51
225.3589054125939128
  0
ENDSEC
  0
EOF
