  0
SECTION
  2
HEADER
  9
$ACADVER
  1
AC1009
  9
$INSBASE
 10
6770.796140100383127
 20
330.1691613772856044
 30
0.0
  9
$EXTMIN
 10
6768.7961401003321953
 20
328.1691613772856044
 30
0.0
  9
$EXTMAX
 10
6772.7961401004322397
 20
332.1691613837792261
 30
0.0
  9
$LIMMIN
 10
0.0
 20
0.0
  9
$LIMMAX
 10
11.6929133858000007
 20
8.2677165353999982
  9
$ORTHOMODE
 70
     0
  9
$REGENMODE
 70
     1
  9
$FILLMODE
 70
     1
  9
$QTEXTMODE
 70
     0
  9
$MIRRTEXT
 70
     0
  9
$DRAGMODE
 70
     2
  9
$LTSCALE
 40
0.6431102362
  9
$OSMODE
 70
  4095
  9
$ATTMODE
 70
     1
  9
$TEXTSIZE
 40
0.2
  9
$TRACEWID
 40
0.05
  9
$TEXTSTYLE
  7
STANDARD
  9
$CLAYER
  8
0
  9
$CELTYPE
  6
BYLAYER
  9
$CECOLOR
 62
   256
  9
$DIMSCALE
 40
1.0
  9
$DIMASZ
 40
0.1875
  9
$DIMEXO
 40
0.0625
  9
$DIMDLI
 40
0.4443307087
  9
$DIMRND
 40
0.0
  9
$DIMDLE
 40
0.0
  9
$DIMEXE
 40
0.125
  9
$DIMTP
 40
0.01
  9
$DIMTM
 40
0.01
  9
$DIMTXT
 40
2.0
  9
$DIMCEN
 40
0.1052362205
  9
$DIMTSZ
 40
0.0
  9
$DIMTOL
 70
     1
  9
$DIMLIM
 70
     0
  9
$DIMTIH
 70
     1
  9
$DIMTOH
 70
     1
  9
$DIMSE1
 70
     0
  9
$DIMSE2
 70
     0
  9
$DIMTAD
 70
     0
  9
$DIMZIN
 70
     0
  9
$DIMBLK
  1

  9
$DIMASO
 70
     1
  9
$DIMSHO
 70
     1
  9
$DIMPOST
  1
\X
  9
$DIMAPOST
  1

  9
$DIMALT
 70
     1
  9
$DIMALTD
 70
     2
  9
$DIMALTF
 40
25.3999999999999986
  9
$DIMLFAC
 40
1.0
  9
$DIMTOFL
 70
     0
  9
$DIMTVP
 40
0.0
  9
$DIMTIX
 70
     0
  9
$DIMSOXD
 70
     0
  9
$DIMSAH
 70
     0
  9
$DIMBLK1
  1

  9
$DIMBLK2
  1

  9
$DIMSTYLE
  2
STANDARD
  9
$DIMCLRD
 70
     0
  9
$DIMCLRE
 70
     0
  9
$DIMCLRT
 70
     0
  9
$DIMTFAC
 40
1.0
  9
$DIMGAP
 40
0.09
  9
$LUNITS
 70
     2
  9
$LUPREC
 70
     4
  9
$SKETCHINC
 40
0.1
  9
$FILLETRAD
 40
0.0
  9
$AUNITS
 70
     0
  9
$AUPREC
 70
     0
  9
$MENU
  1
.
  9
$ELEVATION
 40
0.0
  9
$PELEVATION
 40
0.0
  9
$THICKNESS
 40
0.0
  9
$LIMCHECK
 70
     0
  9
$BLIPMODE
 70
     0
  9
$CHAMFERA
 40
0.0
  9
$CHAMFERB
 40
0.0
  9
$SKPOLY
 70
     0
  9
$TDCREATE
 40
2458060.468368056230247
  9
$TDUPDATE
 40
2460333.6360879628919065
  9
$TDINDWG
 40
1.5744283564999999
  9
$TDUSRTIMER
 40
1.5744283564999999
  9
$USRTIMER
 70
     1
  9
$ANGBASE
 50
0.0
  9
$ANGDIR
 70
     0
  9
$PDMODE
 70
     0
  9
$PDSIZE
 40
0.3125
  9
$PLINEWID
 40
0.0
  9
$COORDS
 70
     1
  9
$SPLFRAME
 70
     0
  9
$SPLINETYPE
 70
     6
  9
$SPLINESEGS
 70
     8
  9
$ATTDIA
 70
     1
  9
$ATTREQ
 70
     1
  9
$HANDLING
 70
     1
  9
$HANDSEED
  5
3D4FC
  9
$SURFTAB1
 70
     6
  9
$SURFTAB2
 70
     6
  9
$SURFTYPE
 70
     6
  9
$SURFU
 70
     6
  9
$SURFV
 70
     6
  9
$UCSNAME
  2

  9
$UCSORG
 10
0.0
 20
0.0
 30
0.0
  9
$UCSXDIR
 10
1.0
 20
0.0
 30
0.0
  9
$UCSYDIR
 10
0.0
 20
1.0
 30
0.0
  9
$PUCSNAME
  2

  9
$PUCSORG
 10
0.0
 20
0.0
 30
0.0
  9
$PUCSXDIR
 10
1.0
 20
0.0
 30
0.0
  9
$PUCSYDIR
 10
0.0
 20
1.0
 30
0.0
  9
$USERI1
 70
     0
  9
$USERI2
 70
     0
  9
$USERI3
 70
     0
  9
$USERI4
 70
     0
  9
$USERI5
 70
     0
  9
$USERR1
 40
0.0
  9
$USERR2
 40
0.0
  9
$USERR3
 40
0.0
  9
$USERR4
 40
0.0
  9
$USERR5
 40
0.0
  9
$WORLDVIEW
 70
     1
  9
$SHADEDGE
 70
     3
  9
$SHADEDIF
 70
    70
  9
$TILEMODE
 70
     1
  9
$MAXACTVP
 70
    64
  9
$PLIMCHECK
 70
     0
  9
$PEXTMIN
 10
1.0000000000000000E+20
 20
1.0000000000000000E+20
 30
1.0000000000000000E+20
  9
$PEXTMAX
 10
-1.0000000000000000E+20
 20
-1.0000000000000000E+20
 30
-1.0000000000000000E+20
  9
$PLIMMIN
 10
0.0
 20
0.0
  9
$PLIMMAX
 10
12.0
 20
9.0
  9
$UNITMODE
 70
     0
  9
$VISRETAIN
 70
     1
  9
$PLINEGEN
 70
     0
  9
$PSLTSCALE
 70
     1
  0
ENDSEC
  0
SECTION
  2
TABLES
  0
TABLE
  2
VPORT
 70
     1
  0
VPORT
  2
*ACTIVE
 70
     0
 10
0.0
 20
0.0
 11
1.0
 21
1.0
 12
2859.4307836550701722
 22
197.5895562779932959
 13
0.0
 23
0.0
 14
1.0
 24
1.0
 15
0.0
 25
0.0
 16
0.0
 26
0.0
 36
60.4960186965801583
 17
3911.3653564453120453
 27
132.5796051025390057
 37
0.0
 40
4.0266370764591102
 41
2.1211111111111101
 42
50.0
 43
0.0
 44
0.0
 50
0.0
 51
0.0
 71
     0
 72
   100
 73
     1
 74
     1
 75
     0
 76
     0
 77
     0
 78
     0
  0
ENDTAB
  0
TABLE
  2
LTYPE
 70
     2
  0
LTYPE
  2
CONTINUOUS
 70
     0
  3
Solid line
 72
    65
 73
     0
 40
0.0
  0
LTYPE
  2
PHANTOM2
 70
     0
  3
___ _ _ ___ _ _ ___ _ _ ___ _ _
 72
    65
 73
     6
 40
1.25
 49
0.625
 49
-0.125
 49
0.125
 49
-0.125
 49
0.125
 49
-0.125
  0
ENDTAB
  0
TABLE
  2
LAYER
 70
     2
  0
LAYER
  2
0
 70
     0
 62
   255
  6
CONTINUOUS
  0
LAYER
  2
DEFPOINTS
 70
     0
 62
     7
  6
CONTINUOUS
  0
ENDTAB
  0
TABLE
  2
STYLE
 70
     1
  0
STYLE
  2
STANDARD
 70
     0
 40
0.0
 41
0.8
 50
0.0
 71
     0
 42
0.2
  3
txt
  4

  0
ENDTAB
  0
TABLE
  2
VIEW
 70
     0
  0
ENDTAB
  0
TABLE
  2
UCS
 70
     0
  0
ENDTAB
  0
TABLE
  2
APPID
 70
    11
  0
APPID
  2
ACAD
 70
     0
  0
APPID
  2
ACAD_MLEADERVER
 70
     0
  0
APPID
  2
ACAD_EXEMPT_FROM_CAD_STANDARDS
 70
     0
  0
APPID
  2
ACAD_NAV_VCDISPLAY
 70
     0
  0
APPID
  2
ACAECLAYERSTANDARD
 70
     0
  0
APPID
  2
ACCMTRANSPARENCY
 70
     0
  0
APPID
  2
ACAD_DSTYLE_DIMJAG
 70
     0
  0
APPID
  2
ACAD_DSTYLE_DIMTALN
 70
     0
  0
APPID
  2
ACDBATTR
 70
     0
  0
APPID
  2
ACADANNOTATIVE
 70
     0
  0
APPID
  2
DCO15
 70
     0
  0
ENDTAB
  0
TABLE
  2
DIMSTYLE
 70
     1
  0
DIMSTYLE
  2
STANDARD
 70
     0
  3

  4

  5

  6

  7

 40
1.0
 41
0.1875
 42
0.0625
 43
0.38
 44
0.125
 45
0.0
 46
0.0
 47
0.01
 48
0.01
140
0.15625
141
0.09
142
0.0
143
25.3999999999999986
144
1.0
145
0.0
146
1.0
147
0.09
 71
     1
 72
     0
 73
     1
 74
     1
 75
     0
 76
     0
 77
     0
 78
     4
170
     0
171
     2
172
     0
173
     0
174
     0
175
     0
176
     0
177
     0
178
     0
  0
ENDTAB
  0
ENDSEC
  0
SECTION
  2
BLOCKS
  0
BLOCK
  8
0
  2
$MODEL_SPACE
 70
     0
 10
0.0
 20
0.0
 30
0.0
  3
$MODEL_SPACE
  1

  0
ENDBLK
  5
21
  8
0
  0
BLOCK
 67
     1
  8
0
  2
$PAPER_SPACE
 70
     0
 10
0.0
 20
0.0
 30
0.0
  3
$PAPER_SPACE
  1

  0
ENDBLK
  5
1D
 67
     1
  8
0
  0
ENDSEC
  0
SECTION
  2
ENTITIES
  0
ATTDEF
  5
3A071
  8
DEFPOINTS
 10
6770.793150944035915
 20
330.1731860895694126
 30
0.0
 40
0.001
  1
P34890-00
  3

  2
MODELNUMBER
 70
     0
1001
ACDBATTR
1070
     0
1070
     1
  0
ATTDEF
  5
3A072
  8
DEFPOINTS
 10
6770.7930251343777854
 20
330.1715192491902258
 30
0.0
 40
0.001
  1
VICE
  3

  2
TRADENAME
 70
     0
1001
ACDBATTR
1070
     0
1070
     1
  0
ATTDEF
  5
3A073
  8
DEFPOINTS
 10
6770.793150944035915
 20
330.1698527562360255
 30
0.0
 40
0.001
  1
VALVE TRIM
  3

  2
PRODUCT
 70
     0
1001
ACDBATTR
1070
     0
1070
     1
  0
LINE
  5
3D3C1
  8
0
 10
6772.7961401004322397
 20
331.4193587494626172
 30
0.0
 11
6772.7961401004322397
 21
328.9188870618638134
 31
0.0
  0
ARC
  5
3D3C2
  8
0
 10
6772.0462387865272831
 20
331.4192600633807047
 30
0.0
 40
0.7499013203984387
 50
0.0075400534086651
 51
90.0075400544020141
  0
ARC
  5
3D3C3
  8
0
 10
6772.046140604296852
 20
328.9191609234209182
 30
0.0
 40
0.7499995461352449
 50
270.0
 51
359.9790785050128079
  0
ARC
  5
3D3C4
  8
0
 10
6772.0464387040774454
 20
331.4194599706257236
 30
0.0
 40
0.4927703466322533
 50
0.0347201319506866
 51
90.0347194789412555
  0
LINE
  5
3D3C5
  8
0
 10
6772.0461401004331492
 20
331.9122302267857094
 30
0.0
 11
6771.9637279584658245
 21
331.9122302268041267
 31
0.0
  0
ARC
  5
3D3C6
  8
0
 10
6771.9894345078982951
 20
332.1243100794798124
 30
0.0
 40
0.2136321384872816
 50
216.1888138125160879
 51
263.0887993400382925
  0
LINE
  5
3D3C7
  8
0
 10
6771.8170172206673669
 20
331.998171387326579
 30
0.0
 11
6771.7378672863969769
 21
332.1101062977621723
 31
0.0
  0
LINE
  5
3D3C8
  8
0
 10
6772.5392089602337364
 20
331.4197585798872865
 30
0.0
 11
6772.5392089998322263
 21
328.919161377281398
 31
0.0
  0
ARC
  5
3D3C9
  8
0
 10
6772.0461401504362584
 20
328.919161377281398
 30
0.0
 40
0.4930688493956974
 50
270.0
 51
0.0
  0
LINE
  5
3D3CA
  8
0
 10
6772.0461401504362584
 20
328.4260925278857144
 30
0.0
 11
6771.9637327515793004
 21
328.4260925278857144
 31
0.0
  0
ARC
  5
3D3CB
  8
0
 10
6771.9732680247825556
 20
328.2416188306966092
 30
0.0
 40
0.1847199674903717
 50
92.958920943258974
 51
147.7634653560542972
  0
LINE
  5
3D3CC
  8
0
 10
6771.8170220481315482
 20
328.3401513693336256
 30
0.0
 11
6771.7378719204389199
 21
328.2282161852676268
 31
0.0
  0
ARC
  5
3D3CD
  8
0
 10
6770.7961401004831714
 20
330.1691613772355822
 30
0.0
 40
1.476028352401618
 50
11.2716534183291195
 51
348.699746691887924
  0
CIRCLE
  5
3D3CE
  8
0
 10
6770.7961401004331492
 20
330.1691613772856044
 30
0.0
 40
0.9796044354499998
  0
ARC
  5
3D3CF
  8
0
 10
6770.7961401004331492
 20
330.1691613772856044
 30
0.0
 40
0.6057737487499999
 50
213.863173072628399
 51
325.8498251557126082
  0
ARC
  5
3D3D0
  8
0
 10
6770.7961401004331492
 20
330.1691613772856044
 30
0.0
 40
0.6057737487499999
 50
33.7620640784810035
 51
146.1762554157521947
  0
ARC
  5
3D3D1
  8
0
 10
6772.2725180531815568
 20
330.1691613772355822
 30
0.0
 40
0.2496503996000001
 50
273.8465262790422798
 51
86.1785140848424049
  0
CIRCLE
  5
3D3D2
  8
0
 10
6772.2725180531815568
 20
330.1691613772355822
 30
0.0
 40
0.1746577415000022
  0
ARC
  5
3D3D3
  8
0
 10
6770.7961401004331492
 20
330.1691613772856044
 30
0.0
 40
0.4693149605217173
 50
213.8629035249313972
 51
326.2163915925647757
  0
ARC
  5
3D3D4
  8
0
 10
6770.7961401004331492
 20
330.1691613772856044
 30
0.0
 40
0.4693149605217173
 50
33.7619677841391095
 51
146.1763686045399027
  0
ARC
  5
3D3D5
  8
0
 10
6770.3526443068240042
 20
330.4729636418729797
 30
0.0
 40
0.0684521537886905
 50
150.7994655680367089
 51
321.5522666959092248
  0
ARC
  5
3D3D6
  8
0
 10
6770.3527500358422913
 20
329.8652082258367955
 30
0.0
 40
0.0684374839867966
 50
38.3332629289210303
 51
209.3949372965666953
  0
ARC
  5
3D3D7
  8
0
 10
6771.2396502132150999
 20
329.8655768419029073
 30
0.0
 40
0.0683546862319675
 50
327.7500581763233072
 51
141.4287712500506871
  0
ARC
  5
3D3D8
  8
0
 10
6771.2398018305775622
 20
330.4727266687418137
 30
0.0
 40
0.0684760882417857
 50
218.6273413593216048
 51
28.8974491570622689
  0
ARC
  5
3D3D9
  8
0
 10
6770.7961401004331492
 20
330.1691613772856044
 30
0.0
 40
1.2578223150500001
 50
7.572698743363298
 51
352.5388479949806992
  0
ARC
  5
3D3DA
  8
0
 10
6770.7961401004831714
 20
330.1691613772355822
 30
0.0
 40
0.4826136165999983
 50
150.1796802132681137
 51
209.842426748017914
  0
ARC
  5
3D3DB
  8
0
 10
6770.7961401004831714
 20
330.1691613772355822
 30
0.0
 40
0.482613616600002
 50
330.1986167163129267
 51
29.7854449020418706
  0
ARC
  5
3D3DC
  8
0
 10
6772.2925677203929808
 20
330.4681138972986787
 30
0.0
 40
0.0499737495656658
 50
192.0661867296176979
 51
266.0862436550826828
  0
ARC
  5
3D3DD
  8
0
 10
6772.2926629239136673
 20
329.8701061278782731
 30
0.0
 40
0.0500825899813167
 50
93.8895755534058054
 51
168.6844886061211071
  0
CIRCLE
  5
3D3DE
  8
0
 10
6772.2725180531815568
 20
330.1691613772355822
 30
0.0
 40
0.2285142833
  0
ARC
  5
3D3E0
  8
0
 10
6772.2350103610642691
 20
330.346187117358113
 30
0.0
 40
0.1118181981492244
 50
85.5439257330647678
 51
108.9316630609120011
  0
ARC
  5
3D3E1
  8
0
 10
6772.2725170080084354
 20
330.1691640747026213
 30
0.0
 40
0.2922599170632969
 50
104.6233382154945986
 51
131.0951799602827066
  0
ARC
  5
3D3E2
  8
0
 10
6772.349941780975314
 20
330.1642475952727978
 30
0.0
 40
0.3512091583391787
 50
140.1242314636515118
 51
179.1983462070637927
  0
ARC
  5
3D3E3
  8
0
 10
6772.381802998648709
 20
330.1858851707959843
 30
0.0
 40
0.3834009160976725
 50
182.5000120391991061
 51
218.1773336748721022
  0
ARC
  5
3D3E4
  8
0
 10
6772.2725181248251829
 20
330.1691615610948816
 30
0.0
 40
0.2922629863285095
 50
228.9050209012958135
 51
255.3765788415400948
  0
ARC
  5
3D3E5
  8
0
 10
6772.0312395715218372
 20
328.5600431606840743
 30
0.0
 40
1.3368568799301259
 50
80.8618195188822568
 51
82.8026002358315765
  0
LINE
  5
3D3E6
  8
0
 10
6772.0461401004340587
 20
332.1691613772856044
 30
0.0
 11
6769.5461401003331048
 21
332.1691613772856044
 31
0.0
  0
LINE
  5
3D3E7
  8
0
 10
6772.046140604296852
 20
328.1691613772857181
 30
0.0
 11
6769.5461395964666735
 21
328.1691613772857181
 31
0.0
  0
LINE
  5
3D3E8
  8
0
 10
6771.7378672863969769
 20
332.1101062977621723
 30
0.0
 11
6769.854413044861758
 21
332.1101064823091065
 31
0.0
  0
LINE
  5
3D3E9
  8
0
 10
6771.7378719204389199
 20
328.2282161852676268
 30
0.0
 11
6769.8544080989522627
 21
328.2282164417690069
 31
0.0
  0
LINE
  5
3D3EA
  8
0
 10
6768.7961401003321953
 20
331.4193587494626172
 30
0.0
 11
6768.7961401003321953
 21
328.9188870618638134
 31
0.0
  0
ARC
  5
3D3EB
  8
0
 10
6769.5460414142371519
 20
331.4192600633807047
 30
0.0
 40
0.7499013203984387
 50
89.9924599455980001
 51
179.9924599465913104
  0
ARC
  5
3D3EC
  8
0
 10
6769.5461395964666735
 20
328.9191609234209182
 30
0.0
 40
0.7499995461352449
 50
180.0209214949871921
 51
270.0
  0
ARC
  5
3D3ED
  8
0
 10
6769.5458414966860801
 20
331.4194599706257236
 30
0.0
 40
0.4927703466322533
 50
89.9652805210587303
 51
179.9652798680492936
  0
LINE
  5
3D3EE
  8
0
 10
6769.5461401003331048
 20
331.9122302267857094
 30
0.0
 11
6769.628552242297701
 21
331.9122302268041267
 31
0.0
  0
ARC
  5
3D3EF
  8
0
 10
6769.6028456928652304
 20
332.1243100794798124
 30
0.0
 40
0.2136321384872816
 50
276.9112006599617075
 51
323.8111861874838837
  0
LINE
  5
3D3F0
  8
0
 10
6769.7752629800988871
 20
331.998171387326579
 30
0.0
 11
6769.854413044861758
 21
332.1101064823091065
 31
0.0
  0
LINE
  5
3D3F1
  8
0
 10
6769.0530712405306986
 20
331.4197585798872865
 30
0.0
 11
6769.0530712009322087
 21
328.919161377281398
 31
0.0
  0
ARC
  5
3D3F2
  8
0
 10
6769.5461400503272671
 20
328.919161377281398
 30
0.0
 40
0.4930688493956974
 50
180.0
 51
270.0
  0
LINE
  5
3D3F3
  8
0
 10
6769.5461400503272671
 20
328.4260925278857144
 30
0.0
 11
6769.6285474491842251
 21
328.4260925278857144
 31
0.0
  0
ARC
  5
3D3F4
  8
0
 10
6769.6190121759827889
 20
328.2416188306966092
 30
0.0
 40
0.1847199674903717
 50
32.2365346439456602
 51
87.041079056741026
  0
LINE
  5
3D3F5
  8
0
 10
6769.7752581526310678
 20
328.3401513693336256
 30
0.0
 11
6769.8544080989522627
 21
328.2282164417690069
 31
0.0
  0
ENDSEC
  0
EOF
