  0
SECTION
  2
HEADER
  9
$ACADVER
  1
AC1009
  9
$INSBASE
 10
6865.253210908867004
 20
336.4719033025222075
 30
0.0
  9
$EXTMIN
 10
6859.2989986118118395
 20
327.9134208063575215
 30
-0.0000000000000058
  9
$EXTMAX
 10
6871.3304623898811769
 20
337.9490064894762895
 30
0.0000000000000104
  9
$LIMMIN
 10
0.0
 20
0.0
  9
$LIMMAX
 10
11.6929133858000007
 20
8.2677165353999982
  9
$ORTHOMODE
 70
     0
  9
$REGENMODE
 70
     1
  9
$FILLMODE
 70
     1
  9
$QTEXTMODE
 70
     0
  9
$MIRRTEXT
 70
     0
  9
$DRAGMODE
 70
     2
  9
$LTSCALE
 40
0.6431102362
  9
$OSMODE
 70
  4095
  9
$ATTMODE
 70
     1
  9
$TEXTSIZE
 40
0.2
  9
$TRACEWID
 40
0.05
  9
$TEXTSTYLE
  7
STANDARD
  9
$CLAYER
  8
0
  9
$CELTYPE
  6
BYLAYER
  9
$CECOLOR
 62
   256
  9
$DIMSCALE
 40
1.0
  9
$DIMASZ
 40
0.1875
  9
$DIMEXO
 40
0.0625
  9
$DIMDLI
 40
0.4443307087
  9
$DIMRND
 40
0.0
  9
$DIMDLE
 40
0.0
  9
$DIMEXE
 40
0.125
  9
$DIMTP
 40
0.01
  9
$DIMTM
 40
0.01
  9
$DIMTXT
 40
2.0
  9
$DIMCEN
 40
0.1052362205
  9
$DIMTSZ
 40
0.0
  9
$DIMTOL
 70
     1
  9
$DIMLIM
 70
     0
  9
$DIMTIH
 70
     1
  9
$DIMTOH
 70
     1
  9
$DIMSE1
 70
     0
  9
$DIMSE2
 70
     0
  9
$DIMTAD
 70
     0
  9
$DIMZIN
 70
     0
  9
$DIMBLK
  1

  9
$DIMASO
 70
     1
  9
$DIMSHO
 70
     1
  9
$DIMPOST
  1
\X
  9
$DIMAPOST
  1

  9
$DIMALT
 70
     1
  9
$DIMALTD
 70
     2
  9
$DIMALTF
 40
25.3999999999999986
  9
$DIMLFAC
 40
1.0
  9
$DIMTOFL
 70
     0
  9
$DIMTVP
 40
0.0
  9
$DIMTIX
 70
     0
  9
$DIMSOXD
 70
     0
  9
$DIMSAH
 70
     0
  9
$DIMBLK1
  1

  9
$DIMBLK2
  1

  9
$DIMSTYLE
  2
STANDARD
  9
$DIMCLRD
 70
     0
  9
$DIMCLRE
 70
     0
  9
$DIMCLRT
 70
     0
  9
$DIMTFAC
 40
1.0
  9
$DIMGAP
 40
0.09
  9
$LUNITS
 70
     2
  9
$LUPREC
 70
     4
  9
$SKETCHINC
 40
0.1
  9
$FILLETRAD
 40
0.0
  9
$AUNITS
 70
     0
  9
$AUPREC
 70
     0
  9
$MENU
  1
.
  9
$ELEVATION
 40
0.0
  9
$PELEVATION
 40
0.0
  9
$THICKNESS
 40
0.0
  9
$LIMCHECK
 70
     0
  9
$BLIPMODE
 70
     0
  9
$CHAMFERA
 40
0.0
  9
$CHAMFERB
 40
0.0
  9
$SKPOLY
 70
     0
  9
$TDCREATE
 40
2458060.468368056230247
  9
$TDUPDATE
 40
2460341.7149074068292975
  9
$TDINDWG
 40
0.9652616898
  9
$TDUSRTIMER
 40
0.9652616898
  9
$USRTIMER
 70
     1
  9
$ANGBASE
 50
0.0
  9
$ANGDIR
 70
     0
  9
$PDMODE
 70
     0
  9
$PDSIZE
 40
0.3125
  9
$PLINEWID
 40
0.0
  9
$COORDS
 70
     1
  9
$SPLFRAME
 70
     0
  9
$SPLINETYPE
 70
     6
  9
$SPLINESEGS
 70
     8
  9
$ATTDIA
 70
     1
  9
$ATTREQ
 70
     1
  9
$HANDLING
 70
     1
  9
$HANDSEED
  5
3E19E
  9
$SURFTAB1
 70
     6
  9
$SURFTAB2
 70
     6
  9
$SURFTYPE
 70
     6
  9
$SURFU
 70
     6
  9
$SURFV
 70
     6
  9
$UCSNAME
  2

  9
$UCSORG
 10
0.0
 20
0.0
 30
0.0
  9
$UCSXDIR
 10
1.0
 20
0.0
 30
0.0
  9
$UCSYDIR
 10
0.0
 20
1.0
 30
0.0
  9
$PUCSNAME
  2

  9
$PUCSORG
 10
0.0
 20
0.0
 30
0.0
  9
$PUCSXDIR
 10
1.0
 20
0.0
 30
0.0
  9
$PUCSYDIR
 10
0.0
 20
1.0
 30
0.0
  9
$USERI1
 70
     0
  9
$USERI2
 70
     0
  9
$USERI3
 70
     0
  9
$USERI4
 70
     0
  9
$USERI5
 70
     0
  9
$USERR1
 40
0.0
  9
$USERR2
 40
0.0
  9
$USERR3
 40
0.0
  9
$USERR4
 40
0.0
  9
$USERR5
 40
0.0
  9
$WORLDVIEW
 70
     1
  9
$SHADEDGE
 70
     3
  9
$SHADEDIF
 70
    70
  9
$TILEMODE
 70
     1
  9
$MAXACTVP
 70
    64
  9
$PLIMCHECK
 70
     0
  9
$PEXTMIN
 10
1.0000000000000000E+20
 20
1.0000000000000000E+20
 30
1.0000000000000000E+20
  9
$PEXTMAX
 10
-1.0000000000000000E+20
 20
-1.0000000000000000E+20
 30
-1.0000000000000000E+20
  9
$PLIMMIN
 10
0.0
 20
0.0
  9
$PLIMMAX
 10
12.0
 20
9.0
  9
$UNITMODE
 70
     0
  9
$VISRETAIN
 70
     1
  9
$PLINEGEN
 70
     0
  9
$PSLTSCALE
 70
     1
  0
ENDSEC
  0
SECTION
  2
TABLES
  0
TABLE
  2
VPORT
 70
     1
  0
VPORT
  2
*ACTIVE
 70
     0
 10
0.0
 20
0.0
 11
1.0
 21
1.0
 12
2953.9493740555340082
 22
200.3516085453777862
 13
0.0
 23
0.0
 14
1.0
 24
1.0
 15
0.0
 25
0.0
 16
0.0
 26
0.0
 36
60.4960186965801583
 17
3911.3653564453120453
 27
132.5796051025390057
 37
0.0
 40
10.11512797386996
 41
2.5251322751322749
 42
50.0
 43
0.0
 44
0.0
 50
0.0
 51
0.0
 71
     0
 72
   100
 73
     1
 74
     1
 75
     0
 76
     0
 77
     0
 78
     0
  0
ENDTAB
  0
TABLE
  2
LTYPE
 70
     2
  0
LTYPE
  2
CONTINUOUS
 70
     0
  3
Solid line
 72
    65
 73
     0
 40
0.0
  0
LTYPE
  2
PHANTOM2
 70
     0
  3
___ _ _ ___ _ _ ___ _ _ ___ _ _
 72
    65
 73
     6
 40
1.25
 49
0.625
 49
-0.125
 49
0.125
 49
-0.125
 49
0.125
 49
-0.125
  0
ENDTAB
  0
TABLE
  2
LAYER
 70
     2
  0
LAYER
  2
0
 70
     0
 62
   255
  6
CONTINUOUS
  0
LAYER
  2
DEFPOINTS
 70
     0
 62
     7
  6
CONTINUOUS
  0
ENDTAB
  0
TABLE
  2
STYLE
 70
     1
  0
STYLE
  2
STANDARD
 70
     0
 40
0.0
 41
0.8
 50
0.0
 71
     0
 42
0.2
  3
txt
  4

  0
ENDTAB
  0
TABLE
  2
VIEW
 70
     0
  0
ENDTAB
  0
TABLE
  2
UCS
 70
     0
  0
ENDTAB
  0
TABLE
  2
APPID
 70
    11
  0
APPID
  2
ACAD
 70
     0
  0
APPID
  2
ACAD_MLEADERVER
 70
     0
  0
APPID
  2
ACAD_EXEMPT_FROM_CAD_STANDARDS
 70
     0
  0
APPID
  2
ACAD_NAV_VCDISPLAY
 70
     0
  0
APPID
  2
ACAECLAYERSTANDARD
 70
     0
  0
APPID
  2
ACCMTRANSPARENCY
 70
     0
  0
APPID
  2
ACAD_DSTYLE_DIMJAG
 70
     0
  0
APPID
  2
ACAD_DSTYLE_DIMTALN
 70
     0
  0
APPID
  2
ACDBATTR
 70
     0
  0
APPID
  2
ACADANNOTATIVE
 70
     0
  0
APPID
  2
DCO15
 70
     0
  0
ENDTAB
  0
TABLE
  2
DIMSTYLE
 70
     1
  0
DIMSTYLE
  2
STANDARD
 70
     0
  3

  4

  5

  6

  7

 40
1.0
 41
0.1875
 42
0.0625
 43
0.38
 44
0.125
 45
0.0
 46
0.0
 47
0.01
 48
0.01
140
0.15625
141
0.09
142
0.0
143
25.3999999999999986
144
1.0
145
0.0
146
1.0
147
0.09
 71
     1
 72
     0
 73
     1
 74
     1
 75
     0
 76
     0
 77
     0
 78
     4
170
     0
171
     2
172
     0
173
     0
174
     0
175
     0
176
     0
177
     0
178
     0
  0
ENDTAB
  0
ENDSEC
  0
SECTION
  2
BLOCKS
  0
BLOCK
  8
0
  2
$MODEL_SPACE
 70
     0
 10
0.0
 20
0.0
 30
0.0
  3
$MODEL_SPACE
  1

  0
ENDBLK
  5
21
  8
0
  0
BLOCK
 67
     1
  8
0
  2
$PAPER_SPACE
 70
     0
 10
0.0
 20
0.0
 30
0.0
  3
$PAPER_SPACE
  1

  0
ENDBLK
  5
1D
 67
     1
  8
0
  0
BLOCK
  8
0
  2
_FILLED
 70
     0
 10
0.0
 20
0.0
 30
0.0
  3
_FILLED
  1

  0
SOLID
  5
3DA14
  8
0
  6
BYBLOCK
 62
     0
 10
0.0
 20
0.0
 30
0.0
 11
-1.0
 21
0.1666666667
 31
0.0
 12
-1.0
 22
-0.1666666667
 32
0.0
 13
-1.0
 23
-0.1666666667
 33
0.0
  0
ENDBLK
  5
3DA15
  8
0
  6
BYBLOCK
 62
     0
  0
ENDSEC
  0
SECTION
  2
ENTITIES
  0
ATTDEF
  5
3D8BE
  8
DEFPOINTS
 10
6865.2476661635491837
 20
336.4699937838344113
 30
0.0
 40
0.001
  1
P34891-BAF
  3

  2
MODELNUMBER
 70
     0
1001
ACDBATTR
1070
     0
1070
     1
  0
ATTDEF
  5
3D8BF
  8
DEFPOINTS
 10
6865.2475403538910541
 20
336.4683269434552813
 30
0.0
 40
0.001
  1
VICE
  3

  2
TRADENAME
 70
     0
1001
ACDBATTR
1070
     0
1070
     1
  0
ATTDEF
  5
3D8C0
  8
DEFPOINTS
 10
6865.2476661635491837
 20
336.466660450501081
 30
0.0
 40
0.001
  1
BATH FAUCET
  3

  2
PRODUCT
 70
     0
1001
ACDBATTR
1070
     0
1070
     1
  0
ARC
  5
3E0BD
  8
0
 10
6869.2532109089152073
 20
336.4719033024721853
 30
0.0
 40
1.476028352401618
 50
11.2716534183291195
 51
348.699746691887924
  0
CIRCLE
  5
3E0BE
  8
0
 10
6869.253210908865185
 20
336.4719033025222075
 30
0.0
 40
0.9796044354499998
  0
ARC
  5
3E0BF
  8
0
 10
6869.253210908865185
 20
336.4719033025222075
 30
0.0
 40
0.6057737487499999
 50
213.863173072628399
 51
325.8498251557126082
  0
ARC
  5
3E0C0
  8
0
 10
6869.253210908865185
 20
336.4719033025222075
 30
0.0
 40
0.6057737487499999
 50
33.7620640784810035
 51
146.1762554157521947
  0
ARC
  5
3E0C1
  8
0
 10
6870.7295888616163211
 20
336.4719033024721853
 30
0.0
 40
0.2496503996000001
 50
273.8465262790422798
 51
86.1785140848424049
  0
CIRCLE
  5
3E0C2
  8
0
 10
6870.7295888616163211
 20
336.4719033024721853
 30
0.0
 40
0.1746577415000022
  0
ARC
  5
3E0C3
  8
0
 10
6869.253210908865185
 20
336.4719033025222075
 30
0.0
 40
0.4693149605217173
 50
213.8629035249313972
 51
326.2163915925647757
  0
ARC
  5
3E0C4
  8
0
 10
6869.253210908865185
 20
336.4719033025222075
 30
0.0
 40
0.4693149605217173
 50
33.7619677841391095
 51
146.1763686045399027
  0
ARC
  5
3E0C5
  8
0
 10
6868.8097151152587685
 20
336.7757055671095259
 30
0.0
 40
0.0684521537886905
 50
150.7994655680367089
 51
321.5522666959092248
  0
ARC
  5
3E0C6
  8
0
 10
6868.8098208442761461
 20
336.1679501510733985
 30
0.0
 40
0.0684374839867966
 50
38.3332629289210303
 51
209.3949372965666953
  0
ARC
  5
3E0C7
  8
0
 10
6869.6967210216480453
 20
336.1683187671395103
 30
0.0
 40
0.0683546862319675
 50
327.7500581763233072
 51
141.4287712500506871
  0
ARC
  5
3E0C8
  8
0
 10
6869.696872639011417
 20
336.7754685939784167
 30
0.0
 40
0.0684760882417857
 50
218.6273413593216048
 51
28.8974491570622689
  0
ARC
  5
3E0C9
  8
0
 10
6869.253210908865185
 20
336.4719033025222075
 30
0.0
 40
1.2578223150500001
 50
7.572698743363298
 51
352.5388479949806992
  0
ARC
  5
3E0CA
  8
0
 10
6869.2532109089152073
 20
336.4719033024721853
 30
0.0
 40
0.4826136165999983
 50
150.1796802132681137
 51
209.842426748017914
  0
ARC
  5
3E0CB
  8
0
 10
6869.2532109089152073
 20
336.4719033024721853
 30
0.0
 40
0.482613616600002
 50
330.1986167163129267
 51
29.7854449020418706
  0
ARC
  5
3E0CC
  8
0
 10
6870.7496385288277452
 20
336.7708558225352249
 30
0.0
 40
0.0499737495656658
 50
192.0661867296176979
 51
266.0862436550826828
  0
ARC
  5
3E0CD
  8
0
 10
6870.7497337323466127
 20
336.1728480531148762
 30
0.0
 40
0.0500825899813167
 50
93.8895755534058054
 51
168.6844886061211071
  0
CIRCLE
  5
3E0CE
  8
0
 10
6870.7295888616163211
 20
336.4719033024721853
 30
0.0
 40
0.2285142833
  0
ARC
  5
3E0CF
  8
0
 10
6870.6920811694981239
 20
336.6489290425946024
 30
0.0
 40
0.1118181981492244
 50
85.5439257330647678
 51
108.9316630609120011
  0
ARC
  5
3E0D0
  8
0
 10
6870.7295878164431997
 20
336.4719059999392243
 30
0.0
 40
0.2922599170632969
 50
104.6233382154945986
 51
131.0951799602827066
  0
ARC
  5
3E0D1
  8
0
 10
6870.8070125894091689
 20
336.4669895205095145
 30
0.0
 40
0.3512091583391787
 50
140.1242314636515118
 51
179.1983462070637927
  0
ARC
  5
3E0D2
  8
0
 10
6870.8388738070816544
 20
336.4886270960325874
 30
0.0
 40
0.3834009160976725
 50
182.5000120391991061
 51
218.1773336748721022
  0
ARC
  5
3E0D3
  8
0
 10
6870.7295889332599472
 20
336.4719034863314278
 30
0.0
 40
0.2922629863285095
 50
228.9050209012958135
 51
255.3765788415400948
  0
ARC
  5
3E0D4
  8
0
 10
6870.488310379955692
 20
334.8627850859206774
 30
0.0
 40
1.3368568799301259
 50
80.8618195188822568
 51
82.8026002358315765
  0
ARC
  5
3E0D5
  8
0
 10
6865.253210908867004
 20
336.4719033025222075
 30
0.0
 40
1.2598425197000001
 50
294.680021398188785
 51
245.3199786018111865
  0
ARC
  5
3E0D6
  8
0
 10
6865.253210908867004
 20
336.4719033025222075
 30
0.0
 40
0.8839722537999996
 50
306.5194129098638882
 51
233.4805870901359981
  0
ARC
  5
3E0D7
  8
0
 10
6865.253210908867004
 20
336.4719033025222075
 30
0.0
 40
0.5511614172999999
 50
90.0
 51
197.3627242435211997
  0
ARC
  5
3E0D8
  8
0
 10
6865.0144870253670888
 20
336.9463960407962873
 30
0.0
 40
0.02
 50
116.7076031604708959
 51
179.9999999999901945
  0
ARC
  5
3E0D9
  8
0
 10
6864.9744870253671252
 20
336.9240597444699006
 30
0.0
 40
0.02
 50
0.0
 51
121.6510258517611049
  0
LINE
  5
3E0DA
  8
0
 10
6864.7020494916578173
 20
328.4750983691902206
 30
0.0
 11
6864.7020494916578173
 21
334.2616381208026723
 31
0.0
  0
ARC
  5
3E0DB
  8
0
 10
6865.2532107340157381
 20
328.4797773183221921
 30
0.0
 40
0.5511811024001152
 50
180.4863868818225114
 51
270.0000181758321105
  0
LINE
  5
3E0DC
  8
0
 10
6864.7271633390673742
 20
334.6225641936381976
 30
0.0
 11
6864.7271633390673742
 21
336.6363808457542746
 31
0.0
  0
ARC
  5
3E0DD
  8
0
 10
6886.7654579108748294
 20
333.3362184642238049
 30
0.0
 40
22.0828076252520518
 50
177.4994718293397113
 51
177.5982142614126076
  0
ARC
  5
3E0DE
  8
0
 10
6865.7198296860578921
 20
334.2552848118007205
 30
0.0
 40
1.0171210632526171
 50
175.5075438648079
 51
177.4994718293397113
  0
ARC
  5
3E0DF
  8
0
 10
6872.9502415672159259
 20
333.6871969366001167
 30
0.0
 40
8.2698157214556485
 50
175.1178282886797888
 51
175.5075438648079
  0
ARC
  5
3E0E0
  8
0
 10
6871.1373586599238479
 20
333.8420475948574904
 30
0.0
 40
6.450331409372918
 50
174.651668176353013
 51
175.1178282886797888
  0
ARC
  5
3E0E1
  8
0
 10
6861.1519426248896707
 20
334.7768629804382954
 30
0.0
 40
3.5787469729015182
 50
354.6516681763529846
 51
356.5624917521668067
  0
ARC
  5
3E0E2
  8
0
 10
6862.1532657348361681
 20
334.7167155781696124
 30
0.0
 40
2.5756190246745012
 50
356.5624917521668067
 51
357.9050942542240819
  0
ARC
  5
3E0E3
  8
0
 10
6865.2527882479644177
 20
336.45786595028801
 30
0.0
 40
0.9254937768751196
 50
262.0270406563250276
 51
270.0261547472886718
  0
ARC
  5
3E0E4
  8
0
 10
6865.1442456011482136
 20
335.6828912275149719
 30
0.0
 40
0.1429547509376191
 50
233.8192489542759063
 51
262.0270406563250276
  0
ARC
  5
3E0E5
  8
0
 10
6865.1527715933807485
 20
335.6945487341193939
 30
0.0
 40
0.1573973962561281
 50
203.3399294527019947
 51
233.8192489542759063
  0
ARC
  5
3E0E6
  8
0
 10
6865.1644569600202885
 20
335.6992172064685747
 30
0.0
 40
0.16997648245264
 50
180.502912298859286
 51
203.2242706409271875
  0
ARC
  5
3E0E7
  8
0
 10
6865.2527939996698478
 20
336.4243129119747096
 30
0.0
 40
0.906902712810403
 50
262.569635263668772
 51
270.0263392511071743
  0
ARC
  5
3E0E8
  8
0
 10
6865.155720539097274
 20
335.6799773754734133
 30
0.0
 40
0.1562638864454966
 50
232.1860202504248036
 51
262.569635263668772
  0
ARC
  5
3E0E9
  8
0
 10
6865.1590092628121056
 20
335.6842150371464868
 30
0.0
 40
0.1616279781808102
 50
189.6160731163749062
 51
232.1860202504248036
  0
LINE
  5
3E0EA
  8
0
 10
6864.9944870253657427
 20
336.9463960407962873
 30
0.0
 11
6864.9944870253657427
 21
335.6977252612222173
 31
0.0
  0
ARC
  5
3E0EB
  8
0
 10
6865.253210908867004
 20
336.4719033025222075
 30
0.0
 40
0.5511614172999999
 50
342.6372757564786866
 51
90.0
  0
ARC
  5
3E0EC
  8
0
 10
6865.4919347923660098
 20
336.9463960407962873
 30
0.0
 40
0.02
 50
0.0000000000097707
 51
63.2923968395290615
  0
ARC
  5
3E0ED
  8
0
 10
6865.5319347923659734
 20
336.9240597444699006
 30
0.0
 40
0.02
 50
58.3489741482389093
 51
180.0
  0
LINE
  5
3E0EE
  8
0
 10
6865.8043723260743718
 20
328.4750983691902206
 30
0.0
 11
6865.8043723260743718
 21
334.2616381208026723
 31
0.0
  0
ARC
  5
3E0EF
  8
0
 10
6865.2532110837173605
 20
328.4797773183221921
 30
0.0
 40
0.5511811024001152
 50
269.9999818241678895
 51
359.5136131181773749
  0
LINE
  5
3E0F0
  8
0
 10
6865.7792584786657244
 20
334.6225641936381976
 30
0.0
 11
6865.7792584786657244
 21
336.6363808457542746
 31
0.0
  0
ARC
  5
3E0F1
  8
0
 10
6843.7409639068591787
 20
333.3362184642238049
 30
0.0
 40
22.0828076252520518
 50
2.4017857385874071
 51
2.500528170660242
  0
ARC
  5
3E0F2
  8
0
 10
6864.7865921316752065
 20
334.2552848118007205
 30
0.0
 40
1.0171210632526171
 50
2.500528170660242
 51
4.4924561351920778
  0
ARC
  5
3E0F3
  8
0
 10
6857.5561802505180822
 20
333.6871969366001167
 30
0.0
 40
8.2698157214556485
 50
4.4924561351920778
 51
4.8821717113201881
  0
ARC
  5
3E0F4
  8
0
 10
6859.3690631578101602
 20
333.8420475948574904
 30
0.0
 40
6.450331409372918
 50
4.8821717113201881
 51
5.3483318236469382
  0
ARC
  5
3E0F5
  8
0
 10
6869.3544791928434279
 20
334.7768629804382954
 30
0.0
 40
3.5787469729015182
 50
183.437508247833108
 51
185.3483318236469017
  0
ARC
  5
3E0F6
  8
0
 10
6868.3531560828951115
 20
334.7167155781696124
 30
0.0
 40
2.5756190246745012
 50
182.0949057457758897
 51
183.437508247833108
  0
ARC
  5
3E0F7
  8
0
 10
6865.2536335697686809
 20
336.45786595028801
 30
0.0
 40
0.9254937768751196
 50
269.9738452527113282
 51
277.9729593436749724
  0
ARC
  5
3E0F8
  8
0
 10
6865.362176216584885
 20
335.6828912275149719
 30
0.0
 40
0.1429547509376191
 50
277.9729593436749724
 51
306.18075104572398
  0
ARC
  5
3E0F9
  8
0
 10
6865.3536502243532595
 20
335.6945487341193939
 30
0.0
 40
0.1573973962561281
 50
306.18075104572398
 51
336.6600705472980053
  0
ARC
  5
3E0FA
  8
0
 10
6865.3419648577119005
 20
335.6992172064685747
 30
0.0
 40
0.16997648245264
 50
336.7757293590727841
 51
359.4970877011406856
  0
ARC
  5
3E0FB
  8
0
 10
6865.2536278180632507
 20
336.4243129119747096
 30
0.0
 40
0.906902712810403
 50
269.9736607488928257
 51
277.430364736331228
  0
ARC
  5
3E0FC
  8
0
 10
6865.3507012786358246
 20
335.6799773754734133
 30
0.0
 40
0.1562638864454966
 50
277.430364736331228
 51
307.8139797495751964
  0
ARC
  5
3E0FD
  8
0
 10
6865.347412554919174
 20
335.6842150371464868
 30
0.0
 40
0.1616279781808102
 50
307.8139797495751964
 51
350.3839268836250085
  0
LINE
  5
3E0FE
  8
0
 10
6865.5119347923673558
 20
336.9463960407962873
 30
0.0
 11
6865.5119347923673558
 21
335.6977252612222173
 31
0.0
  0
ARC
  5
3E0FF
  8
0
 10
6861.2532109088169818
 20
336.4719033024721853
 30
0.0
 40
1.476028352401618
 50
191.3002533081119907
 51
168.7283465816709054
  0
CIRCLE
  5
3E100
  8
0
 10
6861.2532109088660945
 20
336.4719033025222075
 30
0.0
 40
0.9796044354499998
  0
ARC
  5
3E101
  8
0
 10
6861.2532109088660945
 20
336.4719033025222075
 30
0.0
 40
0.6057737487499999
 50
214.1501748442873918
 51
326.1368269273717146
  0
ARC
  5
3E102
  8
0
 10
6861.2532109088660945
 20
336.4719033025222075
 30
0.0
 40
0.6057737487499999
 50
33.82374458424772
 51
146.2379359215190107
  0
ARC
  5
3E103
  8
0
 10
6859.776832956115868
 20
336.4719033024721853
 30
0.0
 40
0.2496503996000001
 50
93.8214859151575808
 51
266.1534737209577202
  0
CIRCLE
  5
3E104
  8
0
 10
6859.776832956115868
 20
336.4719033024721853
 30
0.0
 40
0.1746577415000022
  0
ARC
  5
3E105
  8
0
 10
6861.2532109088660945
 20
336.4719033025222075
 30
0.0
 40
0.4693149605217173
 50
213.7836084074351959
 51
326.1370964750685744
  0
ARC
  5
3E106
  8
0
 10
6861.2532109088660945
 20
336.4719033025222075
 30
0.0
 40
0.4693149605217173
 50
33.8236313954601471
 51
146.2380322158608976
  0
ARC
  5
3E107
  8
0
 10
6861.6967067024743301
 20
336.7757055671095259
 30
0.0
 40
0.0684521537886905
 50
218.4477333040908036
 51
29.2005344319632592
  0
ARC
  5
3E108
  8
0
 10
6861.6966009734569525
 20
336.1679501510733985
 30
0.0
 40
0.0684374839867966
 50
330.6050627034334184
 51
141.6667370710790124
  0
ARC
  5
3E109
  8
0
 10
6860.8097007960832343
 20
336.1683187671395103
 30
0.0
 40
0.0683546862319675
 50
38.5712287499492774
 51
212.2499418236766076
  0
ARC
  5
3E10A
  8
0
 10
6860.8095491787216815
 20
336.7754685939784167
 30
0.0
 40
0.0684760882417857
 50
151.1025508429376885
 51
321.3726586406783099
  0
ARC
  5
3E10B
  8
0
 10
6861.2532109088660945
 20
336.4719033025222075
 30
0.0
 40
1.2578223150500001
 50
187.4611520050193008
 51
172.4273012566366958
  0
ARC
  5
3E10C
  8
0
 10
6861.2532109088169818
 20
336.4719033024721853
 30
0.0
 40
0.4826136165999983
 50
330.1575732519820008
 51
29.8203197867319112
  0
ARC
  5
3E10D
  8
0
 10
6861.2532109088169818
 20
336.4719033024721853
 30
0.0
 40
0.482613616600002
 50
150.2145550979581117
 51
209.8013832836871018
  0
ARC
  5
3E10E
  8
0
 10
6859.7567832889053534
 20
336.7708558225352249
 30
0.0
 40
0.0499737495656658
 50
273.9137563449173172
 51
347.9338132703824158
  0
ARC
  5
3E10F
  8
0
 10
6859.7566880853855764
 20
336.1728480531148762
 30
0.0
 40
0.0500825899813167
 50
11.3155113938788592
 51
86.1104244465942088
  0
CIRCLE
  5
3E110
  8
0
 10
6859.776832956115868
 20
336.4719033024721853
 30
0.0
 40
0.2285142833
  0
ARC
  5
3E111
  8
0
 10
6859.8143406482340652
 20
336.6489290425946024
 30
0.0
 40
0.1118181981492244
 50
71.068336939087942
 51
94.4560742669352464
  0
ARC
  5
3E112
  8
0
 10
6859.7768340012908084
 20
336.4719059999392243
 30
0.0
 40
0.2922599170632969
 50
48.9048200397173289
 51
75.376661784505373
  0
ARC
  5
3E113
  8
0
 10
6859.6994092283239297
 20
336.4669895205095145
 30
0.0
 40
0.3512091583391787
 50
0.8016537929361648
 51
39.8757685363484313
  0
ARC
  5
3E114
  8
0
 10
6859.6675480106514442
 20
336.4886270960325874
 30
0.0
 40
0.3834009160976725
 50
321.8226663251278978
 51
357.4999879608009223
  0
ARC
  5
3E115
  8
0
 10
6859.7768328844740608
 20
336.4719034863314278
 30
0.0
 40
0.2922629863285095
 50
284.6234211584599052
 51
311.0949790987041865
  0
ARC
  5
3E116
  8
0
 10
6860.018111437778316
 20
334.8627850859206774
 30
0.0
 40
1.3368568799301259
 50
97.1973997641684235
 51
99.1381804811177432
  0
LINE
  5
3E118
  8
0
 10
6865.080717741278022
 20
335.5548276814284918
 30
0.0
 11
6865.0807238354191213
 21
336.9953792975916258
 31
0.0
  0
LINE
  5
3E119
  8
0
 10
6865.4257044077658065
 20
335.5548278457815741
 30
0.0
 11
6865.4256983479617702
 21
336.9953791771087026
 31
0.0
  0
ENDSEC
  0
EOF
