  0
SECTION
  2
HEADER
  9
$ACADVER
  1
AC1009
  9
$INSBASE
 10
6860.8508019732989851
 20
330.3702030676852246
 30
0.0
  9
$EXTMIN
 10
6858.6854474820001997
 20
328.8941747152836115
 30
0.0
  9
$EXTMAX
 10
6860.8624245513101414
 20
331.8462314316489028
 30
0.0
  9
$LIMMIN
 10
0.0
 20
0.0
  9
$LIMMAX
 10
11.6929133858000007
 20
8.2677165353999982
  9
$ORTHOMODE
 70
     0
  9
$REGENMODE
 70
     1
  9
$FILLMODE
 70
     1
  9
$QTEXTMODE
 70
     0
  9
$MIRRTEXT
 70
     0
  9
$DRAGMODE
 70
     2
  9
$LTSCALE
 40
0.6431102362
  9
$OSMODE
 70
  4095
  9
$ATTMODE
 70
     1
  9
$TEXTSIZE
 40
0.2
  9
$TRACEWID
 40
0.05
  9
$TEXTSTYLE
  7
STANDARD
  9
$CLAYER
  8
0
  9
$CELTYPE
  6
BYLAYER
  9
$CECOLOR
 62
   256
  9
$DIMSCALE
 40
1.0
  9
$DIMASZ
 40
0.1875
  9
$DIMEXO
 40
0.0625
  9
$DIMDLI
 40
0.4443307087
  9
$DIMRND
 40
0.0
  9
$DIMDLE
 40
0.0
  9
$DIMEXE
 40
0.125
  9
$DIMTP
 40
0.01
  9
$DIMTM
 40
0.01
  9
$DIMTXT
 40
2.0
  9
$DIMCEN
 40
0.1052362205
  9
$DIMTSZ
 40
0.0
  9
$DIMTOL
 70
     1
  9
$DIMLIM
 70
     0
  9
$DIMTIH
 70
     1
  9
$DIMTOH
 70
     1
  9
$DIMSE1
 70
     0
  9
$DIMSE2
 70
     0
  9
$DIMTAD
 70
     0
  9
$DIMZIN
 70
     0
  9
$DIMBLK
  1

  9
$DIMASO
 70
     1
  9
$DIMSHO
 70
     1
  9
$DIMPOST
  1
\X
  9
$DIMAPOST
  1

  9
$DIMALT
 70
     1
  9
$DIMALTD
 70
     2
  9
$DIMALTF
 40
25.3999999999999986
  9
$DIMLFAC
 40
1.0
  9
$DIMTOFL
 70
     0
  9
$DIMTVP
 40
0.0
  9
$DIMTIX
 70
     0
  9
$DIMSOXD
 70
     0
  9
$DIMSAH
 70
     0
  9
$DIMBLK1
  1

  9
$DIMBLK2
  1

  9
$DIMSTYLE
  2
STANDARD
  9
$DIMCLRD
 70
     0
  9
$DIMCLRE
 70
     0
  9
$DIMCLRT
 70
     0
  9
$DIMTFAC
 40
1.0
  9
$DIMGAP
 40
0.09
  9
$LUNITS
 70
     2
  9
$LUPREC
 70
     4
  9
$SKETCHINC
 40
0.1
  9
$FILLETRAD
 40
0.0
  9
$AUNITS
 70
     0
  9
$AUPREC
 70
     0
  9
$MENU
  1
.
  9
$ELEVATION
 40
0.0
  9
$PELEVATION
 40
0.0
  9
$THICKNESS
 40
0.0
  9
$LIMCHECK
 70
     0
  9
$BLIPMODE
 70
     0
  9
$CHAMFERA
 40
0.0
  9
$CHAMFERB
 40
0.0
  9
$SKPOLY
 70
     0
  9
$TDCREATE
 40
2458060.468368056230247
  9
$TDUPDATE
 40
2460361.6163425929844379
  9
$TDINDWG
 40
0.9765695602
  9
$TDUSRTIMER
 40
0.9765695602
  9
$USRTIMER
 70
     1
  9
$ANGBASE
 50
0.0
  9
$ANGDIR
 70
     0
  9
$PDMODE
 70
     0
  9
$PDSIZE
 40
0.3125
  9
$PLINEWID
 40
0.0
  9
$COORDS
 70
     1
  9
$SPLFRAME
 70
     0
  9
$SPLINETYPE
 70
     6
  9
$SPLINESEGS
 70
     8
  9
$ATTDIA
 70
     1
  9
$ATTREQ
 70
     1
  9
$HANDLING
 70
     1
  9
$HANDSEED
  5
3E544
  9
$SURFTAB1
 70
     6
  9
$SURFTAB2
 70
     6
  9
$SURFTYPE
 70
     6
  9
$SURFU
 70
     6
  9
$SURFV
 70
     6
  9
$UCSNAME
  2

  9
$UCSORG
 10
0.0
 20
0.0
 30
0.0
  9
$UCSXDIR
 10
1.0
 20
0.0
 30
0.0
  9
$UCSYDIR
 10
0.0
 20
1.0
 30
0.0
  9
$PUCSNAME
  2

  9
$PUCSORG
 10
0.0
 20
0.0
 30
0.0
  9
$PUCSXDIR
 10
1.0
 20
0.0
 30
0.0
  9
$PUCSYDIR
 10
0.0
 20
1.0
 30
0.0
  9
$USERI1
 70
     0
  9
$USERI2
 70
     0
  9
$USERI3
 70
     0
  9
$USERI4
 70
     0
  9
$USERI5
 70
     0
  9
$USERR1
 40
0.0
  9
$USERR2
 40
0.0
  9
$USERR3
 40
0.0
  9
$USERR4
 40
0.0
  9
$USERR5
 40
0.0
  9
$WORLDVIEW
 70
     1
  9
$SHADEDGE
 70
     3
  9
$SHADEDIF
 70
    70
  9
$TILEMODE
 70
     1
  9
$MAXACTVP
 70
    64
  9
$PLIMCHECK
 70
     0
  9
$PEXTMIN
 10
1.0000000000000000E+20
 20
1.0000000000000000E+20
 30
1.0000000000000000E+20
  9
$PEXTMAX
 10
-1.0000000000000000E+20
 20
-1.0000000000000000E+20
 30
-1.0000000000000000E+20
  9
$PLIMMIN
 10
0.0
 20
0.0
  9
$PLIMMAX
 10
12.0
 20
9.0
  9
$UNITMODE
 70
     0
  9
$VISRETAIN
 70
     1
  9
$PLINEGEN
 70
     0
  9
$PSLTSCALE
 70
     1
  0
ENDSEC
  0
SECTION
  2
TABLES
  0
TABLE
  2
VPORT
 70
     1
  0
VPORT
  2
*ACTIVE
 70
     0
 10
0.0
 20
0.0
 11
1.0
 21
1.0
 12
2948.4085795713422158
 22
197.7905979709271946
 13
0.0
 23
0.0
 14
1.0
 24
1.0
 15
0.0
 25
0.0
 16
0.0
 26
0.0
 36
60.4960186965801583
 17
3911.3653564453120453
 27
132.5796051025390057
 37
0.0
 40
2.9717152516574279
 41
2.1211111111111101
 42
50.0
 43
0.0
 44
0.0
 50
0.0
 51
0.0
 71
     0
 72
   100
 73
     1
 74
     1
 75
     0
 76
     0
 77
     0
 78
     0
  0
ENDTAB
  0
TABLE
  2
LTYPE
 70
     2
  0
LTYPE
  2
CONTINUOUS
 70
     0
  3
Solid line
 72
    65
 73
     0
 40
0.0
  0
LTYPE
  2
PHANTOM2
 70
     0
  3
___ _ _ ___ _ _ ___ _ _ ___ _ _
 72
    65
 73
     6
 40
1.25
 49
0.625
 49
-0.125
 49
0.125
 49
-0.125
 49
0.125
 49
-0.125
  0
ENDTAB
  0
TABLE
  2
LAYER
 70
     2
  0
LAYER
  2
0
 70
     0
 62
   255
  6
CONTINUOUS
  0
LAYER
  2
DEFPOINTS
 70
     0
 62
     7
  6
CONTINUOUS
  0
ENDTAB
  0
TABLE
  2
STYLE
 70
     1
  0
STYLE
  2
STANDARD
 70
     0
 40
0.0
 41
0.8
 50
0.0
 71
     0
 42
0.2
  3
txt
  4

  0
ENDTAB
  0
TABLE
  2
VIEW
 70
     0
  0
ENDTAB
  0
TABLE
  2
UCS
 70
     0
  0
ENDTAB
  0
TABLE
  2
APPID
 70
    11
  0
APPID
  2
ACAD
 70
     0
  0
APPID
  2
ACAD_MLEADERVER
 70
     0
  0
APPID
  2
ACAD_EXEMPT_FROM_CAD_STANDARDS
 70
     0
  0
APPID
  2
ACAD_NAV_VCDISPLAY
 70
     0
  0
APPID
  2
ACAECLAYERSTANDARD
 70
     0
  0
APPID
  2
ACCMTRANSPARENCY
 70
     0
  0
APPID
  2
ACAD_DSTYLE_DIMJAG
 70
     0
  0
APPID
  2
ACAD_DSTYLE_DIMTALN
 70
     0
  0
APPID
  2
ACDBATTR
 70
     0
  0
APPID
  2
ACADANNOTATIVE
 70
     0
  0
APPID
  2
DCO15
 70
     0
  0
ENDTAB
  0
TABLE
  2
DIMSTYLE
 70
     1
  0
DIMSTYLE
  2
STANDARD
 70
     0
  3

  4

  5

  6

  7

 40
1.0
 41
0.1875
 42
0.0625
 43
0.38
 44
0.125
 45
0.0
 46
0.0
 47
0.01
 48
0.01
140
0.15625
141
0.09
142
0.0
143
25.3999999999999986
144
1.0
145
0.0
146
1.0
147
0.09
 71
     1
 72
     0
 73
     1
 74
     1
 75
     0
 76
     0
 77
     0
 78
     4
170
     0
171
     2
172
     0
173
     0
174
     0
175
     0
176
     0
177
     0
178
     0
  0
ENDTAB
  0
ENDSEC
  0
SECTION
  2
BLOCKS
  0
BLOCK
  8
0
  2
$MODEL_SPACE
 70
     0
 10
0.0
 20
0.0
 30
0.0
  3
$MODEL_SPACE
  1

  0
ENDBLK
  5
21
  8
0
  0
BLOCK
 67
     1
  8
0
  2
$PAPER_SPACE
 70
     0
 10
0.0
 20
0.0
 30
0.0
  3
$PAPER_SPACE
  1

  0
ENDBLK
  5
1D
 67
     1
  8
0
  0
ENDSEC
  0
SECTION
  2
ENTITIES
  0
ATTDEF
  5
3D8BE
  8
DEFPOINTS
 10
6860.8517578846403921
 20
330.3709720845046718
 30
0.0
 40
0.001
  1
P34893-00
  3

  2
MODELNUMBER
 70
     0
1001
ACDBATTR
1070
     0
1070
     1
  0
ATTDEF
  5
3D8BF
  8
DEFPOINTS
 10
6860.8516320749822626
 20
330.3693052441254849
 30
0.0
 40
0.001
  1
VICE
  3

  2
TRADENAME
 70
     0
1001
ACDBATTR
1070
     0
1070
     1
  0
ATTDEF
  5
3D8C0
  8
DEFPOINTS
 10
6860.8517578846403921
 20
330.3676387511713983
 30
0.0
 40
0.001
  1
BATH FAUCET HANDLES
  3

  2
PRODUCT
 70
     0
1001
ACDBATTR
1070
     0
1070
     1
  0
LINE
  5
3E3B4
  8
0
 10
6860.4374161485684454
 20
330.7990753346991255
 30
0.0
 11
6860.4374161485684454
 21
329.9413307808713967
 31
0.0
  0
LINE
  5
3E3B5
  8
0
 10
6860.4079397207642614
 20
330.8290707655538085
 30
0.0
 11
6860.062293733459228
 21
330.8351040387341868
 31
0.0
  0
LINE
  5
3E3B6
  8
0
 10
6859.9864736507597627
 20
330.8592030577352148
 30
0.0
 11
6859.9122504719962308
 21
330.8592030577352148
 31
0.0
  0
ARC
  5
3E3B7
  8
0
 10
6860.064355041284216
 20
330.9531962861395868
 30
0.0
 40
0.1181102361040727
 50
235.5883321423675056
 51
269.000000006851792
  0
ARC
  5
3E3B8
  8
0
 10
6859.9864736507597627
 20
330.8395030577352145
 30
0.0
 40
0.0197
 50
55.5883321423674488
 51
90.0
  0
ARC
  5
3E3B9
  8
0
 10
6860.4074161485677905
 20
330.7990753346991255
 30
0.0
 40
0.03
 50
359.9999999999968168
 51
88.9999999950730398
  0
LINE
  5
3E3BA
  8
0
 10
6859.6303294897998057
 20
331.8265341449163088
 30
0.0
 11
6859.6303294897998057
 21
328.9138719706542133
 31
0.0
  0
LINE
  5
3E3BB
  8
0
 10
6859.2366287024997291
 20
331.8009906655090049
 30
0.0
 11
6859.2366287024997291
 21
330.6554920527851777
 31
0.0
  0
ARC
  5
3E3BC
  8
0
 10
6859.1934287025005688
 20
330.6554920527851777
 30
0.0
 40
0.0432
 50
270.9629492651263263
 51
0.0
  0
LINE
  5
3E3BD
  8
0
 10
6859.2753410776776946
 20
331.8403846646979787
 30
0.0
 11
6859.6102856773877647
 21
331.8462314200868946
 31
0.0
  0
ARC
  5
3E3BE
  8
0
 10
6859.2760287025002981
 20
331.8009906655090049
 30
0.0
 40
0.0394
 50
91.0000000132658187
 51
180.0
  0
ARC
  5
3E3BF
  8
0
 10
6859.6103071962170361
 20
331.826206456745922
 30
0.0
 40
0.0200249749029948
 50
0.9376285006700326
 51
90.0615700285205349
  0
LINE
  5
3E3C0
  8
0
 10
6858.7436113603325794
 20
330.6047253230079832
 30
0.0
 11
6859.6103008992004106
 21
330.6192928295445199
 31
0.0
  0
LINE
  5
3E3C1
  8
0
 10
6858.6854474820001997
 20
330.5448547548598981
 30
0.0
 11
6858.6854474820001997
 21
330.1955513607105104
 31
0.0
  0
LINE
  5
3E3C2
  8
0
 10
6858.7297714413916765
 20
330.5987128750987267
 30
0.0
 11
6858.6909764879310387
 21
330.5585395247557017
 31
0.0
  0
ARC
  5
3E3C3
  8
0
 10
6858.7439424354606672
 20
330.5850281052029231
 30
0.0
 40
0.0197
 50
90.9629492651263689
 51
136.0000000092063033
  0
ARC
  5
3E3C4
  8
0
 10
6858.7051474820000294
 20
330.5448547548598981
 30
0.0
 40
0.0197
 50
136.0000000091993115
 51
180.0000000000032117
  0
LINE
  5
3E3C5
  8
0
 10
6858.7436113603325794
 20
330.6047253352763846
 30
0.0
 11
6858.7436113603325794
 21
330.1356807925624821
 31
0.0
  0
ARC
  5
3E3C6
  8
0
 10
6859.6106658518792756
 20
330.599632565849106
 30
0.0
 40
0.0196636507045144
 50
0.0653315512283936
 51
91.0634570953735363
  0
LINE
  5
3E3C7
  8
0
 10
6859.9136867355000504
 20
330.9898819053266266
 30
0.0
 11
6859.9136867355000504
 21
330.7256375624867815
 31
0.0
  0
LINE
  5
3E3C8
  8
0
 10
6859.9136867355000504
 20
330.0147685530836839
 30
0.0
 11
6859.9136867355000504
 21
329.7505242102440093
 31
0.0
  0
LINE
  5
3E3C9
  8
0
 10
6859.9079248748048485
 20
331.0038037684453798
 30
0.0
 11
6859.6303294897998057
 21
331.2817236929352021
 31
0.0
  0
ARC
  5
3E3CA
  8
0
 10
6859.8939867354993112
 20
330.9898819053266266
 30
0.0
 40
0.0197
 50
0.0
 51
44.9665270420129701
  0
LINE
  5
3E3CB
  8
0
 10
6859.9194312605823143
 20
330.700487929323117
 30
0.0
 11
6859.9414275651506614
 21
330.6508495594353008
 31
0.0
  0
LINE
  5
3E3CC
  8
0
 10
6859.9864782835002188
 20
330.6506819351353101
 30
0.0
 11
6859.9864782835002188
 21
330.8592030571904843
 31
0.0
  0
ARC
  5
3E3CD
  8
0
 10
6859.9849011527785478
 20
330.7286730420652248
 30
0.0
 40
0.0712790808352418
 50
182.4407270474951019
 51
203.2921172219786001
  0
ARC
  5
3E3CE
  8
0
 10
6859.555669042271802
 20
330.5048226832644787
 30
0.0
 40
0.4124724070013504
 50
17.2433266563944905
 51
20.7338985976552088
  0
ARC
  5
3E3CF
  8
0
 10
6859.9502366553615502
 20
330.6752399050834015
 30
0.0
 40
0.0481520598729283
 50
269.2455931233413935
 51
297.3684460358858814
  0
ARC
  5
3E3D0
  8
0
 10
6859.9642092980620873
 20
330.6533699713846204
 30
0.0
 40
0.0224306319863192
 50
291.3422915941306997
 51
353.1172617964148799
  0
LINE
  5
3E3D1
  8
0
 10
6860.4079397207642614
 20
329.9113353500167136
 30
0.0
 11
6860.062293733459228
 21
329.9053020768362217
 31
0.0
  0
LINE
  5
3E3D2
  8
0
 10
6859.9864736507597627
 20
329.8812030578353074
 30
0.0
 11
6859.9136867355000504
 21
329.8812030578353074
 31
0.0
  0
ARC
  5
3E3D3
  8
0
 10
6860.064355041284216
 20
329.7872098294308785
 30
0.0
 40
0.1181102361040727
 50
90.999999993148279
 51
124.4116678576324944
  0
ARC
  5
3E3D4
  8
0
 10
6859.9864736507597627
 20
329.9009030578353077
 30
0.0
 40
0.0197
 50
270.0
 51
304.4116678576306754
  0
ARC
  5
3E3D5
  8
0
 10
6860.4074161485677905
 20
329.9413307808713967
 30
0.0
 40
0.03
 50
271.0000000049269033
 51
0.0000000000032569
  0
LINE
  5
3E3D6
  8
0
 10
6859.2366287024997291
 20
328.9394154500615173
 30
0.0
 11
6859.2366287024997291
 21
330.0849140627852876
 31
0.0
  0
ARC
  5
3E3D7
  8
0
 10
6859.1934287025005688
 20
330.0849140627852876
 30
0.0
 40
0.0432
 50
0.0
 51
89.0370507348736453
  0
LINE
  5
3E3D8
  8
0
 10
6859.2753410776776946
 20
328.900021450872373
 30
0.0
 11
6859.6102856773877647
 21
328.8941747152836115
 31
0.0
  0
ARC
  5
3E3D9
  8
0
 10
6859.2760287025002981
 20
328.9394154500615173
 30
0.0
 40
0.0394
 50
180.0
 51
268.999999986734224
  0
ARC
  5
3E3DA
  8
0
 10
6859.6096492961096374
 20
328.9148691542732763
 30
0.0
 40
0.0207042214591733
 50
271.761365680306028
 51
357.2393782045576245
  0
LINE
  5
3E3DB
  8
0
 10
6858.7436113603325794
 20
330.1356807925624821
 30
0.0
 11
6859.6103008992004106
 21
330.1211132860260022
 31
0.0
  0
LINE
  5
3E3DC
  8
0
 10
6858.7297714413916765
 20
330.1416932404717954
 30
0.0
 11
6858.6909764879310387
 21
330.1818665908148205
 31
0.0
  0
ARC
  5
3E3DD
  8
0
 10
6858.7439424354606672
 20
330.155378010367599
 30
0.0
 40
0.0197
 50
223.9999999907936115
 51
269.0370507348736169
  0
ARC
  5
3E3DE
  8
0
 10
6858.7051474820000294
 20
330.1955513607105104
 30
0.0
 40
0.0197
 50
179.9999999999967031
 51
223.9999999908006885
  0
ARC
  5
3E3DF
  8
0
 10
6859.6106658518792756
 20
330.1407735497214162
 30
0.0
 40
0.0196636507045144
 50
268.9365429046264921
 51
359.9346684487683774
  0
LINE
  5
3E3E0
  8
0
 10
6859.9079248748048485
 20
329.7366023471249719
 30
0.0
 11
6859.6303294897998057
 21
329.4586824226353201
 31
0.0
  0
ARC
  5
3E3E1
  8
0
 10
6859.8939867354993112
 20
329.7505242102440093
 30
0.0
 40
0.0197
 50
315.0334729579871009
 51
0.0
  0
LINE
  5
3E3E2
  8
0
 10
6859.9194312605823143
 20
330.0399181862474052
 30
0.0
 11
6859.9414275651506614
 21
330.0895565561352214
 31
0.0
  0
LINE
  5
3E3E3
  8
0
 10
6859.9864782835002188
 20
330.0897241804353257
 30
0.0
 11
6859.9864782835002188
 21
329.881203058379981
 31
0.0
  0
ARC
  5
3E3E4
  8
0
 10
6859.9849011527785478
 20
330.0117330735052974
 30
0.0
 40
0.0712790808352418
 50
156.7078827780213999
 51
177.5592729525048128
  0
ARC
  5
3E3E5
  8
0
 10
6859.555669042271802
 20
330.2355834323059867
 30
0.0
 40
0.4124724070013504
 50
339.2661014023448161
 51
342.7566733436024151
  0
ARC
  5
3E3E6
  8
0
 10
6859.9502366553615502
 20
330.0651662104871207
 30
0.0
 40
0.0481520598729283
 50
62.6315539641140688
 51
90.7544068766586065
  0
ARC
  5
3E3E7
  8
0
 10
6859.9642092980620873
 20
330.0870361441859018
 30
0.0
 40
0.0224306319863155
 50
6.8827382035786231
 51
68.6577084059177736
  0
LINE
  5
3E3E8
  8
0
 10
6859.9496026610995614
 20
330.6270920191352047
 30
0.0
 11
6859.9496026610995614
 21
330.1133140964353174
 31
0.0
  0
LINE
  5
3E3E9
  8
0
 10
6860.5667942711997966
 20
329.1384177178853179
 30
0.0
 11
6860.5667942711997966
 21
331.6019884174853019
 31
0.0
  0
LINE
  5
3E3EA
  8
0
 10
6860.8508019732989851
 20
329.1103605479852945
 30
0.0
 11
6860.8508019732989851
 21
331.6300455873853252
 31
0.0
  0
ARC
  5
3E3EB
  8
0
 10
6860.5993554629721984
 20
329.5254352744706239
 30
0.0
 40
0.1423597233361494
 50
182.2053954515749865
 51
196.3087943931583084
  0
LINE
  5
3E3EC
  8
0
 10
6860.4627239815936264
 20
329.4854586672494747
 30
0.0
 11
6860.5667942711997966
 21
329.1384177178853179
 31
0.0
  0
ARC
  5
3E3ED
  8
0
 10
6860.6045039677819659
 20
329.1497306271299976
 30
0.0
 40
0.0393700791447689
 50
196.6992446107103092
 51
269.9999995900490148
  0
LINE
  5
3E3EE
  8
0
 10
6860.6045039675000226
 20
329.1103605479852945
 30
0.0
 11
6860.8508019732989851
 21
329.1103605479852945
 31
0.0
  0
ARC
  5
3E3EF
  8
0
 10
6860.5993554629721984
 20
331.2149708608998822
 30
0.0
 40
0.1423597233361494
 50
163.6912056068416064
 51
177.7946045484250135
  0
LINE
  5
3E3F0
  8
0
 10
6860.4627239815936264
 20
331.2549474681209745
 30
0.0
 11
6860.5667942711997966
 21
331.6019884174853019
 31
0.0
  0
ARC
  5
3E3F1
  8
0
 10
6860.6045039677819659
 20
331.5906755082405084
 30
0.0
 40
0.0393700791447689
 50
90.0000004099510136
 51
163.3007553892927888
  0
LINE
  5
3E3F2
  8
0
 10
6860.6045039675000226
 20
331.6300455873853252
 30
0.0
 11
6860.8508019732989851
 21
331.6300455873853252
 31
0.0
  0
LINE
  5
3E3F3
  8
0
 10
6860.4571011858997736
 20
329.5199570007081888
 30
0.0
 11
6860.4571011858997736
 21
331.2204491346623172
 31
0.0
  0
LINE
  5
3E3F4
  8
0
 10
6860.4374161465002544
 20
330.0946125164851992
 30
0.0
 11
6860.4571011858997736
 21
330.0946125164851992
 31
0.0
  0
LINE
  5
3E3F5
  8
0
 10
6860.4374161465002544
 20
330.6457936188853068
 30
0.0
 11
6860.4571011858997736
 21
330.6457936188853068
 31
0.0
  0
ENDSEC
  0
EOF
