  0
SECTION
  2
HEADER
  9
$ACADVER
  1
AC1009
  9
$INSBASE
 10
4885.3894195796028725
 20
160.191484183756387
 30
0.0
  9
$EXTMIN
 10
4880.1870878312101922
 20
151.5742900098722998
 30
-0.0000000000112498
  9
$EXTMAX
 10
4890.6095828867728414
 20
160.1974725538424877
 30
0.0000000000002956
  9
$LIMMIN
 10
0.0
 20
0.0
  9
$LIMMAX
 10
11.6929133858000007
 20
8.2677165353999982
  9
$ORTHOMODE
 70
     0
  9
$REGENMODE
 70
     1
  9
$FILLMODE
 70
     1
  9
$QTEXTMODE
 70
     0
  9
$MIRRTEXT
 70
     0
  9
$DRAGMODE
 70
     2
  9
$LTSCALE
 40
0.6431102362
  9
$OSMODE
 70
  4095
  9
$ATTMODE
 70
     1
  9
$TEXTSIZE
 40
0.2
  9
$TRACEWID
 40
0.05
  9
$TEXTSTYLE
  7
STANDARD
  9
$CLAYER
  8
0
  9
$CELTYPE
  6
BYLAYER
  9
$CECOLOR
 62
   256
  9
$DIMSCALE
 40
1.0
  9
$DIMASZ
 40
0.1875
  9
$DIMEXO
 40
0.0625
  9
$DIMDLI
 40
0.4443307087
  9
$DIMRND
 40
0.0
  9
$DIMDLE
 40
0.0
  9
$DIMEXE
 40
0.125
  9
$DIMTP
 40
0.01
  9
$DIMTM
 40
0.01
  9
$DIMTXT
 40
2.0
  9
$DIMCEN
 40
0.1052362205
  9
$DIMTSZ
 40
0.0
  9
$DIMTOL
 70
     1
  9
$DIMLIM
 70
     0
  9
$DIMTIH
 70
     1
  9
$DIMTOH
 70
     1
  9
$DIMSE1
 70
     0
  9
$DIMSE2
 70
     0
  9
$DIMTAD
 70
     0
  9
$DIMZIN
 70
     0
  9
$DIMBLK
  1

  9
$DIMASO
 70
     1
  9
$DIMSHO
 70
     1
  9
$DIMPOST
  1
\X
  9
$DIMAPOST
  1

  9
$DIMALT
 70
     1
  9
$DIMALTD
 70
     2
  9
$DIMALTF
 40
25.3999999999999986
  9
$DIMLFAC
 40
1.0
  9
$DIMTOFL
 70
     0
  9
$DIMTVP
 40
0.0
  9
$DIMTIX
 70
     0
  9
$DIMSOXD
 70
     0
  9
$DIMSAH
 70
     0
  9
$DIMBLK1
  1

  9
$DIMBLK2
  1

  9
$DIMSTYLE
  2
STANDARD
  9
$DIMCLRD
 70
     0
  9
$DIMCLRE
 70
     0
  9
$DIMCLRT
 70
     0
  9
$DIMTFAC
 40
1.0
  9
$DIMGAP
 40
0.09
  9
$LUNITS
 70
     2
  9
$LUPREC
 70
     4
  9
$SKETCHINC
 40
0.1
  9
$FILLETRAD
 40
0.25
  9
$AUNITS
 70
     0
  9
$AUPREC
 70
     0
  9
$MENU
  1
.
  9
$ELEVATION
 40
0.0
  9
$PELEVATION
 40
0.0
  9
$THICKNESS
 40
0.0
  9
$LIMCHECK
 70
     0
  9
$BLIPMODE
 70
     0
  9
$CHAMFERA
 40
0.0
  9
$CHAMFERB
 40
0.0
  9
$SKPOLY
 70
     0
  9
$TDCREATE
 40
2458060.468368056230247
  9
$TDUPDATE
 40
2460955.7681597229093313
  9
$TDINDWG
 40
0.4374144676
  9
$TDUSRTIMER
 40
0.4374144676
  9
$USRTIMER
 70
     1
  9
$ANGBASE
 50
0.0
  9
$ANGDIR
 70
     0
  9
$PDMODE
 70
     0
  9
$PDSIZE
 40
0.3125
  9
$PLINEWID
 40
0.0
  9
$COORDS
 70
     1
  9
$SPLFRAME
 70
     0
  9
$SPLINETYPE
 70
     6
  9
$SPLINESEGS
 70
     8
  9
$ATTDIA
 70
     1
  9
$ATTREQ
 70
     1
  9
$HANDLING
 70
     1
  9
$HANDSEED
  5
135E8
  9
$SURFTAB1
 70
     6
  9
$SURFTAB2
 70
     6
  9
$SURFTYPE
 70
     6
  9
$SURFU
 70
     6
  9
$SURFV
 70
     6
  9
$UCSNAME
  2

  9
$UCSORG
 10
0.0
 20
0.0
 30
0.0
  9
$UCSXDIR
 10
1.0
 20
0.0
 30
0.0
  9
$UCSYDIR
 10
0.0
 20
1.0
 30
0.0
  9
$PUCSNAME
  2

  9
$PUCSORG
 10
0.0
 20
0.0
 30
0.0
  9
$PUCSXDIR
 10
1.0
 20
0.0
 30
0.0
  9
$PUCSYDIR
 10
0.0
 20
1.0
 30
0.0
  9
$USERI1
 70
     0
  9
$USERI2
 70
     0
  9
$USERI3
 70
     0
  9
$USERI4
 70
     0
  9
$USERI5
 70
     0
  9
$USERR1
 40
0.0
  9
$USERR2
 40
0.0
  9
$USERR3
 40
0.0
  9
$USERR4
 40
0.0
  9
$USERR5
 40
0.0
  9
$WORLDVIEW
 70
     1
  9
$SHADEDGE
 70
     3
  9
$SHADEDIF
 70
    70
  9
$TILEMODE
 70
     1
  9
$MAXACTVP
 70
    64
  9
$PLIMCHECK
 70
     0
  9
$PEXTMIN
 10
1.0000000000000000E+20
 20
1.0000000000000000E+20
 30
1.0000000000000000E+20
  9
$PEXTMAX
 10
-1.0000000000000000E+20
 20
-1.0000000000000000E+20
 30
-1.0000000000000000E+20
  9
$PLIMMIN
 10
0.0
 20
0.0
  9
$PLIMMAX
 10
12.0
 20
9.0
  9
$UNITMODE
 70
     0
  9
$VISRETAIN
 70
     1
  9
$PLINEGEN
 70
     0
  9
$PSLTSCALE
 70
     1
  0
ENDSEC
  0
SECTION
  2
TABLES
  0
TABLE
  2
VPORT
 70
     1
  0
VPORT
  2
*ACTIVE
 70
     0
 10
0.0
 20
0.0
 11
1.0
 21
1.0
 12
843.1526078199284484
 22
20.2937705887019284
 13
0.0
 23
0.0
 14
1.0
 24
1.0
 15
0.0
 25
0.0
 16
0.0
 26
0.0
 36
53.2874995227186403
 17
4042.2457275390629547
 27
135.5921106931554903
 37
0.0
 40
8.6862021484328196
 41
2.2939024390243898
 42
50.0
 43
0.0
 44
0.0
 50
0.0
 51
0.0
 71
     0
 72
   100
 73
     1
 74
     1
 75
     0
 76
     0
 77
     0
 78
     0
  0
ENDTAB
  0
TABLE
  2
LTYPE
 70
     2
  0
LTYPE
  2
CONTINUOUS
 70
     0
  3
Solid line
 72
    65
 73
     0
 40
0.0
  0
LTYPE
  2
PHANTOM2
 70
     0
  3
___ _ _ ___ _ _ ___ _ _ ___ _ _
 72
    65
 73
     6
 40
1.25
 49
0.625
 49
-0.125
 49
0.125
 49
-0.125
 49
0.125
 49
-0.125
  0
ENDTAB
  0
TABLE
  2
LAYER
 70
     2
  0
LAYER
  2
0
 70
     0
 62
   255
  6
CONTINUOUS
  0
LAYER
  2
DEFPOINTS
 70
     0
 62
     7
  6
CONTINUOUS
  0
ENDTAB
  0
TABLE
  2
STYLE
 70
     1
  0
STYLE
  2
STANDARD
 70
     0
 40
0.0
 41
0.8
 50
0.0
 71
     0
 42
0.2
  3
txt
  4

  0
ENDTAB
  0
TABLE
  2
VIEW
 70
     0
  0
ENDTAB
  0
TABLE
  2
UCS
 70
     0
  0
ENDTAB
  0
TABLE
  2
APPID
 70
     9
  0
APPID
  2
ACAD
 70
     0
  0
APPID
  2
ACAD_MLEADERVER
 70
     0
  0
APPID
  2
ACAD_EXEMPT_FROM_CAD_STANDARDS
 70
     0
  0
APPID
  2
ACAD_NAV_VCDISPLAY
 70
     0
  0
APPID
  2
ACAECLAYERSTANDARD
 70
     0
  0
APPID
  2
ACCMTRANSPARENCY
 70
     0
  0
APPID
  2
ACAD_DSTYLE_DIMJAG
 70
     0
  0
APPID
  2
ACAD_DSTYLE_DIMTALN
 70
     0
  0
APPID
  2
ACDBATTR
 70
     0
  0
ENDTAB
  0
TABLE
  2
DIMSTYLE
 70
     1
  0
DIMSTYLE
  2
STANDARD
 70
     0
  3

  4

  5

  6

  7

 40
1.0
 41
0.1875
 42
0.0625
 43
0.38
 44
0.125
 45
0.0
 46
0.0
 47
0.01
 48
0.01
140
0.15625
141
0.09
142
0.0
143
25.3999999999999986
144
1.0
145
0.0
146
1.0
147
0.09
 71
     1
 72
     0
 73
     1
 74
     1
 75
     0
 76
     0
 77
     0
 78
     4
170
     0
171
     2
172
     0
173
     0
174
     0
175
     0
176
     0
177
     0
178
     0
  0
ENDTAB
  0
ENDSEC
  0
SECTION
  2
BLOCKS
  0
BLOCK
  8
0
  2
$MODEL_SPACE
 70
     0
 10
0.0
 20
0.0
 30
0.0
  3
$MODEL_SPACE
  1

  0
ENDBLK
  5
21
  8
0
  0
BLOCK
 67
     1
  8
0
  2
$PAPER_SPACE
 70
     0
 10
0.0
 20
0.0
 30
0.0
  3
$PAPER_SPACE
  1

  0
ENDBLK
  5
1D
 67
     1
  8
0
  0
BLOCK
  8
0
  2
_FILLED
 70
     0
 10
0.0
 20
0.0
 30
0.0
  3
_FILLED
  1

  0
SOLID
  5
11002
  8
0
  6
BYBLOCK
 62
     0
 10
0.0
 20
0.0
 30
0.0
 11
-1.0
 21
0.1666666667
 31
0.0
 12
-1.0
 22
-0.1666666667
 32
0.0
 13
-1.0
 23
-0.1666666667
 33
0.0
  0
ENDBLK
  5
11003
  8
0
  6
BYBLOCK
 62
     0
  0
BLOCK
  8
0
  2
A$CB0E90CCF
 70
     0
 10
0.0
 20
0.0
 30
0.0
  3
A$CB0E90CCF
  1

  0
LINE
  5
128B3
  8
0
 10
350.827533171469895
 20
145.6316015979273004
 30
0.0
 11
341.5742607927990093
 21
145.63160264787561
 31
0.0
  0
ARC
  5
128B4
  8
0
 10
341.5745867069828137
 20
145.4412746454455032
 30
0.0
 40
0.1903282814746298
 50
90.0981121470637589
 51
178.897883833178895
  0
LINE
  5
128B5
  8
0
 10
341.3842936357834787
 20
145.4449354899678895
 30
0.0
 11
341.378633242416015
 21
145.1216910614197104
 31
0.0
  0
ARC
  5
128B6
  8
0
 10
341.5701307727533163
 20
145.0995405547897974
 30
0.0
 40
0.1927743475394171
 50
173.4019231215399088
 51
249.1046046878066136
  0
ARC
  5
128B7
  8
0
 10
341.4341590791145222
 20
144.7411486420720905
 30
0.0
 40
0.1905449780263
 50
4.3918699668863477
 51
69.3439108776806137
  0
ARC
  5
128B8
  8
0
 10
343.9353457454568002
 20
144.9191952096107059
 30
0.0
 40
2.3169740078148
 50
184.0453941483380049
 51
189.786308804476306
  0
ARC
  5
128B9
  8
0
 10
342.9689567055290809
 20
144.7586858175444036
 30
0.0
 40
1.3373787627547351
 50
190.0471003821027125
 51
235.8144113800032073
  0
ARC
  5
128BA
  8
0
 10
342.1235608856540011
 20
143.5608000862910956
 30
0.0
 40
0.1312019911618965
 50
5.9027218632596092
 51
44.2653633324823801
  0
ARC
  5
128BB
  8
0
 10
386.0379652984843801
 20
147.267268047684496
 30
0.0
 40
43.9393649849589565
 50
184.8212302970570136
 51
185.1787696891298935
  0
ARC
  5
128BC
  8
0
 10
342.3975080321670816
 20
143.311602647944909
 30
0.0
 40
0.1200000000692608
 50
184.9997245686907092
 51
269.999999987138608
  0
LINE
  5
128BD
  8
0
 10
342.397508032140081
 20
143.1916026478756123
 30
0.0
 11
350.827533171469895
 21
143.1916026478756123
 31
0.0
  0
LINE
  5
128BE
  8
0
 10
350.827533171469895
 20
143.6619028387756032
 30
0.0
 11
342.503365876840121
 21
143.6619028387756032
 31
0.0
  0
ARC
  5
128BF
  8
0
 10
342.503365876840121
 20
143.3878707471367022
 30
0.0
 40
0.2740320916388903
 50
90.0
 51
100.414622240360103
  0
ARC
  5
128C0
  8
0
 10
342.5489767239778871
 20
142.0236052996206979
 30
0.0
 40
1.6365512044547941
 50
93.3330065029609273
 51
97.0469256611080198
  0
ARC
  5
128C1
  8
0
 10
342.2794293068100728
 20
144.1044405476054067
 30
0.0
 40
0.4617960699402421
 50
265.3086065001475049
 51
278.5644741761204841
  0
LINE
  5
128C2
  8
0
 10
350.827533171469895
 20
144.9189976743755892
 30
0.0
 11
341.874150302440114
 21
144.9189976743755892
 31
0.0
  0
ARC
  5
128C3
  8
0
 10
341.874150302440114
 20
148.0338560907158012
 30
0.0
 40
3.1148584163402648
 50
265.1900711479299844
 51
270.0
  0
ARC
  5
128C4
  8
0
 10
341.5809984048032106
 20
144.5500434880925127
 30
0.0
 40
0.3812663361943787
 50
85.190071147930027
 51
94.7714225468604639
  0
ARC
  5
128C5
  8
0
 10
341.5683893900999806
 20
145.118888031942106
 30
0.0
 40
0.1898631668024605
 50
179.4123066499936101
 51
264.224823741407306
  0
LINE
  5
128C6
  8
0
 10
342.7271311797073849
 20
143.1916026478756123
 30
0.0
 11
342.7481996409741214
 21
142.0419832963112867
 31
0.0
  0
LINE
  5
128C7
  8
0
 10
342.7507835458739009
 20
141.9009902243552972
 30
0.0
 11
342.9161697020364272
 21
132.8765473285077121
 31
0.0
  0
ARC
  5
128C8
  8
0
 10
344.5125482912401935
 20
141.9716026478756135
 30
0.0
 40
0.7149999999999999
 50
193.4465530149099095
 51
166.5534469935550987
  0
ARC
  5
128C9
  8
0
 10
344.5125482912401935
 20
141.9716026478756135
 30
0.0
 40
0.4034205369000006
 50
209.2413141923481987
 51
150.7586858247883015
  0
ARC
  5
128CA
  8
0
 10
344.5125482912401935
 20
141.9716026478756135
 30
0.0
 40
0.2434565561
 50
244.166027429558909
 51
115.8339726367256048
  0
ARC
  5
128CB
  8
0
 10
344.5125482912401935
 20
141.9716026478756135
 30
0.0
 40
0.2296999548
 50
257.360363310578407
 51
102.6396368794012943
  0
LINE
  5
128CC
  8
0
 10
342.6514806466656182
 20
142.0333076506204009
 30
0.0
 11
344.462285732572127
 21
142.1957359663074101
 31
0.0
  0
ARC
  5
128CD
  8
0
 10
342.6528207587357997
 20
142.0183676338988903
 30
0.0
 40
0.015
 50
95.1256852119708043
 51
180.0000000026495002
  0
LINE
  5
128CE
  8
0
 10
342.6378207587358133
 20
142.0183676338982082
 30
0.0
 11
342.6378207587400766
 21
141.9248376617512122
 31
0.0
  0
LINE
  5
128CF
  8
0
 10
342.6514806466698815
 20
141.9098976450304121
 30
0.0
 11
344.4622857333214938
 21
141.7474693292757024
 31
0.0
  0
ARC
  5
128D0
  8
0
 10
342.6528207587401198
 20
141.9248376617518943
 30
0.0
 40
0.015
 50
180.0000000026495002
 51
264.8743147880030051
  0
ARC
  5
128D1
  8
0
 10
343.1685721479665858
 20
132.8547403912617142
 30
0.0
 40
0.2533427268022769
 50
175.0620507097351037
 51
249.9597379623506015
  0
ARC
  5
128D2
  8
0
 10
342.9956511104871879
 20
132.3806280164293128
 30
0.0
 40
0.2513197638768249
 50
9.00139627479615
 51
69.9638389473787754
  0
ARC
  5
128D3
  8
0
 10
344.6295765361908252
 20
132.6394571976277064
 30
0.0
 40
1.4029791334813471
 50
189.0013962747960932
 51
210.2477392227411883
  0
ARC
  5
128D4
  8
0
 10
342.2067764600272994
 20
131.2266500633434134
 30
0.0
 40
1.4016570653406539
 50
7.7549620200654159
 51
30.2477392227411599
  0
ARC
  5
128D5
  8
0
 10
343.7156205405979108
 20
131.4321278236265869
 30
0.0
 40
0.1211139514060506
 50
187.7549620200653919
 51
275.6518621440786205
  0
ARC
  5
128D6
  8
0
 10
343.7275482912671123
 20
131.2516026479763127
 30
0.0
 40
0.059999999899294
 50
29.9989566151623492
 51
90.0000000257685144
  0
ARC
  5
128D7
  8
0
 10
343.8314713396401885
 20
131.3116026478755884
 30
0.0
 40
0.059999999999992
 50
210.0010433402808019
 51
270.0000000000032969
  0
LINE
  5
128D8
  8
0
 10
343.8314713396401885
 20
131.2516026478755862
 30
0.0
 11
344.3251897081757988
 21
131.2516026478755862
 31
0.0
  0
LINE
  5
128D9
  8
0
 10
350.827533171469895
 20
132.2645856512756097
 30
0.0
 11
345.9673777235402099
 21
132.2645856512756097
 31
0.0
  0
LINE
  5
128DA
  8
0
 10
344.0437245908402133
 20
132.5334265729755998
 30
0.0
 11
343.9917850319400827
 21
132.3395856512755984
 31
0.0
  0
ARC
  5
128DB
  8
0
 10
500346.1702121297130361
 20
132.3345856512690091
 30
0.0
 40
500002.1784270977950655
 50
179.9999994270449974
 51
180.0000017188658035
  0
ARC
  5
128DC
  8
0
 10
344.0468133187611102
 20
132.3196116338268951
 30
0.0
 40
0.0550282927550404
 50
180.0270531850850944
 51
266.8250526847928086
  0
ARC
  5
128DD
  8
0
 10
345.4631896641699882
 20
10847.2581967716705549
 30
0.0
 40
10714.9936229825398186
 50
269.9924099805909918
 51
270.0026960210070115
  0
ARC
  5
128DE
  8
0
 10
344.0969436008431899
 20
132.5191089063017102
 30
0.0
 40
0.0551113291863834
 50
110.9472026187817022
 51
164.9420811218670053
  0
ARC
  5
128DF
  8
0
 10
253.4624945285075057
 20
369.2818025612421025
 30
0.0
 40
253.462494500051605
 50
290.9472026187817164
 51
291.2246730203663105
  0
ARC
  5
128E0
  8
0
 10
345.4485669700720791
 20
132.3647579747672864
 30
0.0
 40
0.6857507166830497
 50
97.1560697616723843
 51
109.2472586251475946
  0
ARC
  5
128E1
  8
0
 10
345.8679944183796238
 20
129.5214481047570985
 30
0.0
 40
3.559701087248559
 50
95.0310070259501316
 51
98.1534410695053339
  0
ARC
  5
128E2
  8
0
 10
349.6418879720574182
 20
84.7843727210346145
 30
0.0
 40
48.4556498357276482
 50
94.1627654084117864
 51
94.8372563332052891
  0
ARC
  5
128E3
  8
0
 10
345.4168414819287136
 20
142.3514827899973056
 30
0.0
 40
9.2663530927079361
 50
274.3797978394226789
 51
275.7875393277565763
  0
ARC
  5
128E4
  8
0
 10
346.1751786031786082
 20
135.1003443798348087
 30
0.0
 40
1.975842519480985
 50
275.1128137972006016
 51
282.365040064344214
  0
ARC
  5
128E5
  8
0
 10
346.5230002763408947
 20
133.4582977763861038
 30
0.0
 40
0.2976408876378664
 50
284.6512927478103734
 51
284.9803236092615748
  0
ARC
  5
128E6
  8
0
 10
346.6722472667311195
 20
133.0414930128650894
 30
0.0
 40
0.1481281914453611
 50
109.5702351370393046
 51
119.2198655206770042
  0
ARC
  5
128E7
  8
0
 10
346.6727413335589745
 20
133.0415199433770113
 30
0.0
 40
0.1482690697553284
 50
89.1894995564080943
 51
109.753614811199796
  0
LINE
  5
128E8
  8
0
 10
346.674838663240223
 20
133.1897741785755898
 30
0.0
 11
350.827533171469895
 21
133.191657240577598
 31
0.0
  0
LINE
  5
128E9
  8
0
 10
350.827533171469895
 20
132.4915297799290101
 30
0.0
 11
349.3107440447540171
 21
132.4860889664466015
 31
0.0
  0
LINE
  5
128EA
  8
0
 10
350.827533171469895
 20
132.5093591825612975
 30
0.0
 11
349.310679340042384
 21
132.512812680657305
 31
0.0
  0
ARC
  5
128EB
  8
0
 10
349.4342195878793973
 20
98.0635964785991519
 30
0.0
 40
34.422713944220952
 50
90.2055225127544134
 51
93.5941426606562459
  0
ARC
  5
128EC
  8
0
 10
349.0603165448860068
 20
106.4773186943398997
 30
0.0
 40
26.0366977291815509
 50
89.4490486955225066
 51
93.9340826726320159
  0
ARC
  5
128ED
  8
0
 10
350.4549420958571204
 20
92.3095526183683575
 30
0.0
 40
40.2348088399199924
 50
94.5312031739476737
 51
96.7608387073295688
  0
ARC
  5
128EE
  8
0
 10
351.4253499478647882
 20
84.1621248103081854
 30
0.0
 40
48.4686515836729725
 50
94.9134495167355254
 51
96.4961020763348643
  0
LINE
  5
128EF
  8
0
 10
343.9917850321413084
 20
132.3195856513027024
 30
0.0
 11
345.3135784785408191
 21
132.3195856382446038
 31
0.0
  0
ARC
  5
128F0
  8
0
 10
345.5747424877192771
 20
77061.7668595921131782
 30
0.0
 40
76929.4472743966180133
 50
269.9998054893669064
 51
270.0002733925418283
  0
ARC
  5
128F1
  8
0
 10
345.2103062072199009
 20
132.994395854481013
 30
0.0
 40
0.0087458401095091
 50
141.2966583920945993
 51
200.8046358938829883
  0
ARC
  5
128F2
  8
0
 10
345.2159309575644102
 20
132.9965330174958069
 30
0.0
 40
0.0147629226408901
 50
200.8046358938848925
 51
233.9533276599983083
  0
ARC
  5
128F3
  8
0
 10
345.2651560600518224
 20
133.06416962757541
 30
0.0
 40
0.0984159066758235
 50
233.9533276599983083
 51
247.2017166523964988
  0
ARC
  5
128F4
  8
0
 10
345.3377369455504891
 20
133.236847213379292
 30
0.0
 40
0.2857272346270594
 50
247.2017166523964988
 51
258.1857546554430201
  0
ARC
  5
128F5
  8
0
 10
345.693404312670225
 20
134.8088621539918108
 30
0.0
 40
1.897442546679148
 50
257.392180106590672
 51
262.2581476671630867
  0
ARC
  5
128F6
  8
0
 10
346.1719855902964014
 20
138.2734409528744095
 30
0.0
 40
5.3949168468039153
 50
262.1784362915627753
 51
264.9087961614130791
  0
ARC
  5
128F7
  8
0
 10
348.0983198655914066
 20
161.9095509265104056
 30
0.0
 40
29.1092697912195497
 50
265.2606649803896062
 51
267.8957355507596958
  0
ARC
  5
128F8
  8
0
 10
350.3562460194036134
 20
216.2382730958929926
 30
0.0
 40
83.4846725876253544
 50
267.7162280537477272
 51
269.0392317278224823
  0
ARC
  5
128F9
  8
0
 10
351.0129834884101001
 20
247.5859858541541882
 30
0.0
 40
114.8390649618808936
 50
268.9738661631557193
 51
269.9074746464394821
  0
ARC
  5
128FA
  8
0
 10
345.2230673281263194
 20
132.9849023016205081
 30
0.0
 40
0.024647355136458
 50
121.0405797718704974
 51
142.6233615141476889
  0
ARC
  5
128FB
  8
0
 10
345.267472318881687
 20
132.9111184075422898
 30
0.0
 40
0.1107627790124258
 50
115.3074577011989987
 51
121.0405797718704974
  0
LINE
  5
128FC
  8
0
 10
344.0438293784043253
 20
132.5338105381634932
 30
0.0
 11
345.3590655576401218
 21
132.5351152805756101
 31
0.0
  0
LINE
  5
128FD
  8
0
 10
345.3590655576401218
 20
132.5351152805756101
 30
0.0
 11
347.9269482801622075
 21
132.5508840684906033
 31
0.0
  0
LINE
  5
128FE
  8
0
 10
347.9269482801622075
 20
132.5508840684906033
 30
0.0
 11
350.827533171469895
 21
132.5636387900040063
 31
0.0
  0
ARC
  5
128FF
  8
0
 10
344.5012513161760239
 20
132.1841970656568037
 30
0.0
 40
0.0806926650017531
 50
22.1230286783653582
 51
85.282544804936407
  0
ARC
  5
12900
  8
0
 10
344.650165157724075
 20
132.2445856515238916
 30
0.0
 40
0.0800000002636997
 50
202.0243129524940002
 51
264.9186045633049957
  0
LINE
  5
12901
  8
0
 10
344.6430794883560225
 20
132.1649000610335918
 30
0.0
 11
345.0415667088363989
 21
132.1645699344518903
 31
0.0
  0
ARC
  5
12902
  8
0
 10
344.9589933115015015
 20
132.1845820896838006
 30
0.0
 40
0.080008008549511
 50
2.5022912598682079
 51
89.3932327783921181
  0
ARC
  5
12903
  8
0
 10
345.1196874972130217
 20
132.1852507448481049
 30
0.0
 40
0.0808118400683251
 50
177.9970564959947126
 51
248.3275083264624925
  0
ARC
  5
12904
  8
0
 10
345.7409869229456945
 20
132.1845856512690887
 30
0.0
 40
0.0799999999920186
 50
291.3259866964888829
 51
357.4999404956637932
  0
ARC
  5
12905
  8
0
 10
402.3511567411032956
 20
129.7504642840521001
 30
0.0
 40
56.5824767872530927
 50
177.453351961378587
 51
177.537969084309907
  0
LINE
  5
12906
  8
0
 10
346.7513668305529109
 20
132.1099366617056035
 30
0.0
 11
346.7522394230401233
 21
132.209692764875598
 31
0.0
  0
ARC
  5
12907
  8
0
 10
346.8195144948015809
 20
132.2091042923879058
 30
0.0
 40
0.0672776454729306
 50
124.4456996762886973
 51
179.4988317497679873
  0
LINE
  5
12908
  8
0
 10
346.7843546201127083
 20
132.1099323964160988
 30
0.0
 11
346.7853754039041974
 21
132.2645856512756097
 31
0.0
  0
LINE
  5
12909
  8
0
 10
347.2755040074561066
 20
132.2645856512756097
 30
0.0
 11
347.2752775667402148
 21
132.2315432242756117
 31
0.0
  0
ARC
  5
1290A
  8
0
 10
347.310564340714393
 20
132.2350491174213971
 30
0.0
 40
0.0354605090806834
 50
185.6739618842985067
 51
259.0272094079700764
  0
ARC
  5
1290B
  8
0
 10
347.3252596966581223
 20
132.2692377256539942
 30
0.0
 40
0.0722564956956109
 50
252.7350925151079082
 51
269.7658035692148815
  0
LINE
  5
1290C
  8
0
 10
347.3249643491400889
 20
132.1969818335755917
 30
0.0
 11
350.827533171469895
 21
132.1949862876419104
 31
0.0
  0
LINE
  5
1290D
  8
0
 10
350.827533171469895
 20
132.1094096173175956
 30
0.0
 11
344.1283846767400973
 21
132.1102758107755903
 31
0.0
  0
ARC
  5
1290E
  8
0
 10
344.1234582013786962
 20
131.8600757038875884
 30
0.0
 40
0.2502486036849312
 50
88.8719837904344843
 51
164.9784348248763024
  0
LINE
  5
1290F
  8
0
 10
343.8817610072176763
 20
131.9249357839134973
 30
0.0
 11
343.7375092566401236
 21
131.3865856512755954
 31
0.0
  0
LINE
  5
12910
  8
0
 10
343.7375092566401236
 20
131.3865856512755954
 30
0.0
 11
343.7375123434953252
 21
131.3606855949120131
 31
0.0
  0
ARC
  5
12911
  8
0
 10
343.7875123169400808
 20
131.3606915540756006
 30
0.0
 40
0.0499999738
 50
180.0068287021024958
 51
268.965441794098524
  0
ARC
  5
12912
  8
0
 10
344.1444200871977728
 20
131.009814647906893
 30
0.0
 40
0.3018818760212212
 50
52.7518594214643883
 51
85.4402235982832252
  0
ARC
  5
12913
  8
0
 10
344.1505290548603284
 20
131.0199605533202885
 30
0.0
 40
0.2901107675972251
 50
25.0552544716237016
 51
52.4994341539490321
  0
ARC
  5
12914
  8
0
 10
344.5402064382690241
 20
131.2022152225773937
 30
0.0
 40
0.1400813297165124
 50
205.0876414432788977
 51
263.8055093664096944
  0
LINE
  5
12915
  8
0
 10
344.5250911359402153
 20
131.0629517795256049
 30
0.0
 11
345.9571498203401916
 21
131.0621046512756038
 31
0.0
  0
ARC
  5
12916
  8
0
 10
345.9569627762197115
 20
131.2026757151027141
 30
0.0
 40
0.1405711882676869
 50
270.0762378263734718
 51
316.4921742850928013
  0
ARC
  5
12917
  8
0
 10
346.2605871996221936
 20
130.9032057426410915
 30
0.0
 40
0.2859295315091819
 50
109.7601909541991034
 51
134.8551438632538861
  0
ARC
  5
12918
  8
0
 10
345.9359668592118737
 20
131.0549475008299112
 30
0.0
 40
0.2561159242118249
 50
8.7927660182200142
 51
88.9663359545879189
  0
ARC
  5
12919
  8
0
 10
346.2975887570402165
 20
131.112104309275594
 30
0.0
 40
0.1099997554000016
 50
189.4215624702518141
 51
250.92076649083441
  0
ARC
  5
1291A
  8
0
 10
347.8627904798148052
 20
131.0224504474633989
 30
0.0
 40
0.2702027749062315
 50
112.886179236962505
 51
166.0922787294080081
  0
ARC
  5
1291B
  8
0
 10
347.4933935726691061
 20
131.1120846972233949
 30
0.0
 40
0.1099237483065621
 50
287.3866288955217101
 51
347.0207779452006207
  0
LINE
  5
1291C
  8
0
 10
350.827533171469895
 20
131.3615894834881033
 30
0.0
 11
343.7375123429220025
 21
131.3606904042520966
 31
0.0
  0
ARC
  5
1291D
  8
0
 10
341.6712422847289758
 20
21443.3900956958314055
 30
0.0
 40
21312.079500947118504
 50
270.0056869915626976
 51
270.0111538524236039
  0
ARC
  5
1291E
  8
0
 10
355.0138232373528808
 20
-47372.8382468510972103
 30
0.0
 40
47504.1501350866383291
 50
90.0079564253401259
 51
90.0110887530905046
  0
ARC
  5
1291F
  8
0
 10
349.8294903828709153
 20
-10039.4406985734694899
 30
0.0
 40
10170.7522268457105383
 50
89.9943776390999943
 51
90.0079564253401259
  0
LINE
  5
12920
  8
0
 10
347.7577081525312224
 20
131.2713826552223111
 30
0.0
 11
347.8523840916337804
 21
131.3113484278607928
 31
0.0
  0
ARC
  5
12921
  8
0
 10
351.2703139106158119
 20
65.6680633456402063
 30
0.0
 40
65.6680641941874228
 50
91.568521124646054
 51
93.1155407359195095
  0
ARC
  5
12922
  8
0
 10
343.9177907169406012
 20
130.7014247526336987
 30
0.0
 40
0.3001821044832867
 50
91.8804912003985379
 51
161.6090778036748929
  0
LINE
  5
12923
  8
0
 10
343.9079402799400782
 20
131.0014451931756128
 30
0.0
 11
350.827533171469895
 21
131.0016026477755986
 31
0.0
  0
ARC
  5
12924
  8
0
 10
342.6977828148998242
 20
131.107619728801609
 30
0.0
 40
0.9856692585755412
 50
322.0605670378762966
 51
341.5778000430674979
  0
ARC
  5
12925
  8
0
 10
344.2479388091509236
 20
129.8982240609377072
 30
0.0
 40
0.9804492563392398
 50
142.0182672067226974
 51
206.1940884790506061
  0
ARC
  5
12926
  8
0
 10
342.48856693369288
 20
129.0325434423643003
 30
0.0
 40
0.9803649515661824
 50
355.3447986508579106
 51
26.2039366585075406
  0
ARC
  5
12927
  8
0
 10
343.6052495688106774
 20
128.9415929672962875
 30
0.0
 40
0.1400153854970319
 50
175.3360655257235976
 51
261.1092089908386242
  0
ARC
  5
12928
  8
0
 10
343.5612266479031973
 20
128.6601725528454949
 30
0.0
 40
0.1448274961674451
 50
8.848428708316554
 51
81.10920899083861
  0
ARC
  5
12929
  8
0
 10
325.0903643581792721
 20
125.7847434216979963
 30
0.0
 40
18.8381644485202315
 50
8.4458831557080565
 51
8.848428708316554
  0
ARC
  5
1292A
  8
0
 10
346.4122342119451901
 20
128.9507324369513981
 30
0.0
 40
2.7174756604080659
 50
188.4458831557080032
 51
211.8597504702389926
  0
ARC
  5
1292B
  8
0
 10
349.7393866927484964
 20
131.0184610456392988
 30
0.0
 40
6.6348019462440764
 50
211.8597504702389926
 51
226.3802829462804027
  0
ARC
  5
1292C
  8
0
 10
348.7916481479858817
 20
130.0239230695489141
 30
0.0
 40
5.2610064246635524
 50
226.3802829462804027
 51
240.3132564789756884
  0
ARC
  5
1292D
  8
0
 10
348.6283547879469893
 20
129.7374853637994931
 30
0.0
 40
4.9312924869724268
 50
240.3132564789756884
 51
254.6747159464090942
  0
ARC
  5
1292E
  8
0
 10
347.2371640208307895
 20
124.7156637894319005
 30
0.0
 40
0.2800210293145062
 50
359.4899400844918773
 51
71.7146084906607229
  0
LINE
  5
1292F
  8
0
 10
347.5603460259133044
 20
125.7153397998677065
 30
0.0
 11
347.2369852576400717
 21
118.2910546983756035
 31
0.0
  0
ARC
  5
12930
  8
0
 10
350.8729128578717109
 20
127.6159137443307969
 30
0.0
 40
3.2302213366633179
 50
246.6698606485983021
 51
269.195055147094422
  0
ARC
  5
12931
  8
0
 10
352.6024203436463154
 20
131.9545908138441916
 30
0.0
 40
7.9001666671052817
 50
238.9161407432106046
 51
247.6137429121444029
  0
ARC
  5
12932
  8
0
 10
333.8934729707719953
 20
99.9458345962869856
 30
0.0
 40
29.1761570313086906
 50
59.9045446631716203
 51
61.5457517582424671
  0
ARC
  5
12933
  8
0
 10
347.6178662230294094
 20
125.5378735931603984
 30
0.0
 40
0.1865551596696331
 50
18.6233688906822188
 51
107.958502625244094
  0
ARC
  5
12934
  8
0
 10
344.2392577762776114
 20
118.4221709124082054
 30
0.0
 40
3.0005935269707078
 50
326.4259082042083833
 51
357.495562666124215
  0
ARC
  5
12935
  8
0
 10
346.947548221273621
 20
116.6245278211655005
 30
0.0
 40
0.2499999300334346
 50
146.4213398214818085
 51
180.000002014491912
  0
LINE
  5
12936
  8
0
 10
346.6975482912400821
 20
116.6245278123756037
 30
0.0
 11
346.6975483346402029
 21
116.4902968304756001
 31
0.0
  0
LINE
  5
12937
  8
0
 10
345.5675515643401923
 20
114.5016026478756004
 30
0.0
 11
345.5923415725440009
 21
114.9746866369484053
 31
0.0
  0
ARC
  5
12938
  8
0
 10
345.841997382839395
 20
114.9616044576138023
 30
0.0
 40
0.2499983340553105
 50
92.7635032115893665
 51
177.0003953208197913
  0
ARC
  5
12939
  8
0
 10
345.81794728669189
 20
115.4598489646072039
 30
0.0
 40
0.2488262802869899
 50
272.7635032115894091
 51
305.3195104590187157
  0
ARC
  5
1293A
  8
0
 10
345.816885234646179
 20
115.4613478719711992
 30
0.0
 40
0.2506633099093352
 50
305.3195104590183178
 51
359.9215247211849942
  0
ARC
  5
1293B
  8
0
 10
309.4717605568425256
 20
115.5111280756865
 30
0.0
 40
36.595822078496127
 50
359.9215247211849942
 51
0.0784960803257093
  0
ARC
  5
1293C
  8
0
 10
346.8160361220803907
 20
115.5622903273113025
 30
0.0
 40
0.7484885332745963
 50
111.6371212002565017
 51
180.0784960803256922
  0
ARC
  5
1293D
  8
0
 10
346.4480222245182972
 20
116.4899753017859041
 30
0.0
 40
0.2495263172758503
 50
291.641817169639296
 51
0.0738288538563808
  0
LINE
  5
1293E
  8
0
 10
345.5675515643401923
 20
114.5016026478756004
 30
0.0
 11
350.827533171469895
 21
114.5016025699758018
 31
0.0
  0
LINE
  5
1293F
  8
0
 10
350.827533171469895
 20
115.2113035638253962
 30
0.0
 11
345.8297683927249864
 21
115.2113035141423012
 31
0.0
  0
LINE
  5
12940
  8
0
 10
350.827533171469895
 20
115.4610044530760007
 30
0.0
 11
346.0675483094805145
 21
115.4610045800071987
 31
0.0
  0
LINE
  5
12941
  8
0
 10
346.6975482914788813
 20
116.6245387462756042
 30
0.0
 11
350.827533171469895
 21
116.6245387462756042
 31
0.0
  0
LINE
  5
12942
  8
0
 10
346.8929595968215267
 20
116.2580386941045987
 30
0.0
 11
350.827533171469895
 21
116.2580387403753974
 31
0.0
  0
ARC
  5
12943
  8
0
 10
346.6281755954971118
 20
116.1125427404751065
 30
0.0
 40
0.1693036894277951
 50
77.3476968258831903
 51
111.7700924253524022
  0
ARC
  5
12944
  8
0
 10
346.9394626059975053
 20
118.1216400911308995
 30
0.0
 40
1.8641815085610161
 50
261.5416348696953719
 51
268.5705777242948784
  0
LINE
  5
12945
  8
0
 10
343.4656978066225861
 20
128.9529777749756079
 30
0.0
 11
350.827533171469895
 21
128.9529777769255929
 31
0.0
  0
LINE
  5
12946
  8
0
 10
343.4751418416378783
 20
130.5016025418755987
 30
0.0
 11
350.827533171469895
 21
130.5016025418755987
 31
0.0
  0
LINE
  5
12947
  8
0
 10
343.3681778505398938
 20
129.4654407433756091
 30
0.0
 11
350.827533171469895
 21
129.4654407433756091
 31
0.0
  0
LINE
  5
12948
  8
0
 10
344.8016951384045115
 20
132.8491767454850958
 30
0.0
 11
343.4921802444306991
 21
132.8491673031155926
 31
0.0
  0
LINE
  5
12949
  8
0
 10
343.4921802444306991
 20
132.8491673031155926
 30
0.0
 11
343.1661439855400886
 21
132.8732079569755911
 31
0.0
  0
LINE
  5
1294A
  8
0
 10
343.1661439855400886
 20
132.8732079569755911
 30
0.0
 11
342.9159265498454943
 21
132.8735217376901119
 31
0.0
  0
LINE
  5
1294B
  8
0
 10
350.827533171469895
 20
145.6316015979273004
 30
0.0
 11
360.0808055501407807
 21
145.63160264787561
 31
0.0
  0
ARC
  5
1294C
  8
0
 10
360.0804796359569195
 20
145.4412746454455032
 30
0.0
 40
0.1903282814746298
 50
1.102116166821038
 51
89.9018878529362553
  0
LINE
  5
1294D
  8
0
 10
360.2707727071563113
 20
145.4449354899678895
 30
0.0
 11
360.276433100523775
 21
145.1216910614197104
 31
0.0
  0
ARC
  5
1294E
  8
0
 10
360.0849355701864738
 20
145.0995405547897974
 30
0.0
 40
0.1927743475394171
 50
290.8953953121933864
 51
6.5980768784600539
  0
ARC
  5
1294F
  8
0
 10
360.2209072638253247
 20
144.7411486420720905
 30
0.0
 40
0.1905449780263
 50
110.6560891223193011
 51
175.6081300331136106
  0
ARC
  5
12950
  8
0
 10
357.7197205974829899
 20
144.9191952096107059
 30
0.0
 40
2.3169740078148
 50
350.2136911955237224
 51
355.9546058516619951
  0
ARC
  5
12951
  8
0
 10
358.6861096374107092
 20
144.7586858175444036
 30
0.0
 40
1.3373787627547351
 50
304.1855886199967927
 51
349.9528996178971738
  0
ARC
  5
12952
  8
0
 10
359.5315054572857889
 20
143.5608000862910956
 30
0.0
 40
0.1312019911618965
 50
135.7346366675176057
 51
174.0972781367404139
  0
ARC
  5
12953
  8
0
 10
315.6171010444554099
 20
147.267268047684496
 30
0.0
 40
43.9393649849589565
 50
354.8212303108701917
 51
355.1787697029431001
  0
ARC
  5
12954
  8
0
 10
359.2575583107727084
 20
143.311602647944909
 30
0.0
 40
0.1200000000692608
 50
270.0000000128615056
 51
355.0002754313092055
  0
LINE
  5
12955
  8
0
 10
359.257558310799709
 20
143.1916026478756123
 30
0.0
 11
350.827533171469895
 21
143.1916026478756123
 31
0.0
  0
LINE
  5
12956
  8
0
 10
350.827533171469895
 20
143.6619028387756032
 30
0.0
 11
359.1517004660996122
 21
143.6619028387756032
 31
0.0
  0
ARC
  5
12957
  8
0
 10
359.1517004660996122
 20
143.3878707471367022
 30
0.0
 40
0.2740320916388903
 50
79.5853777596399254
 51
90.0
  0
ARC
  5
12958
  8
0
 10
359.1060896189619029
 20
142.0236052996206979
 30
0.0
 40
1.6365512044547941
 50
82.953074338891966
 51
86.6669934970390727
  0
ARC
  5
12959
  8
0
 10
359.3756370361297172
 20
144.1044405476054067
 30
0.0
 40
0.4617960699402421
 50
261.4355258238795159
 51
274.6913934998524951
  0
LINE
  5
1295A
  8
0
 10
350.827533171469895
 20
144.9189976743755892
 30
0.0
 11
359.7809160404996192
 21
144.9189976743755892
 31
0.0
  0
ARC
  5
1295B
  8
0
 10
359.7809160404996192
 20
148.0338560907158012
 30
0.0
 40
3.1148584163402648
 50
270.0
 51
274.8099288520700156
  0
ARC
  5
1295C
  8
0
 10
360.0740679381365794
 20
144.5500434880925127
 30
0.0
 40
0.3812663361943787
 50
85.2285774531395219
 51
94.8099288520699872
  0
ARC
  5
1295D
  8
0
 10
360.0866769528398095
 20
145.118888031942106
 30
0.0
 40
0.1898631668024605
 50
275.775176258592694
 51
0.587693350006389
  0
LINE
  5
1295E
  8
0
 10
358.9279351632324051
 20
143.1916026478756123
 30
0.0
 11
358.7388966409034197
 21
132.8765473285077121
 31
0.0
  0
ARC
  5
1295F
  8
0
 10
358.4864941949732042
 20
132.8547403912617142
 30
0.0
 40
0.2533427268022769
 50
290.0402620376494269
 51
4.9379492902649504
  0
ARC
  5
12960
  8
0
 10
358.6594152324526021
 20
132.3806280164293128
 30
0.0
 40
0.2513197638768249
 50
110.0361610526211962
 51
170.9986037252039068
  0
ARC
  5
12961
  8
0
 10
357.025489806748908
 20
132.6394571976277064
 30
0.0
 40
1.4029791334813471
 50
329.7522607772580727
 51
350.9986037252037931
  0
ARC
  5
12962
  8
0
 10
359.4482898829124906
 20
131.2266500633434134
 30
0.0
 40
1.4016570653406539
 50
149.7522607772581011
 51
172.2450379799346081
  0
ARC
  5
12963
  8
0
 10
357.9394458023418792
 20
131.4321278236265869
 30
0.0
 40
0.1211139514060506
 50
264.3481378559213795
 51
352.2450379799345797
  0
ARC
  5
12964
  8
0
 10
357.9275180516726209
 20
131.2516026479763127
 30
0.0
 40
0.059999999899294
 50
89.999999974231514
 51
150.001043384837601
  0
ARC
  5
12965
  8
0
 10
357.8235950032996016
 20
131.3116026478755884
 30
0.0
 40
0.059999999999992
 50
269.9999999999968168
 51
329.9989566597192265
  0
LINE
  5
12966
  8
0
 10
357.8235950032996016
 20
131.2516026478755862
 30
0.0
 11
357.3298766347639912
 21
131.2516026478755862
 31
0.0
  0
LINE
  5
12967
  8
0
 10
350.827533171469895
 20
132.2645856512756097
 30
0.0
 11
355.6876886193995801
 21
132.2645856512756097
 31
0.0
  0
LINE
  5
12968
  8
0
 10
357.6113417520995768
 20
132.5334265729755998
 30
0.0
 11
357.6632813109997073
 21
132.3395856512755984
 31
0.0
  0
ARC
  5
12969
  8
0
 10
-499644.5151457868050784
 20
132.3345856512690091
 30
0.0
 40
500002.1784270977950655
 50
359.9999982811341965
 51
0.0000005729549928
  0
ARC
  5
1296A
  8
0
 10
357.608253024178623
 20
132.3196116338268951
 30
0.0
 40
0.0550282927550404
 50
273.1749473152071914
 51
359.9729468149149056
  0
ARC
  5
1296B
  8
0
 10
356.1918766787698019
 20
10847.2581967716705549
 30
0.0
 40
10714.9936229825398186
 50
269.9973039789929885
 51
270.0075900194088945
  0
ARC
  5
1296C
  8
0
 10
357.5581227420964865
 20
132.5191089063017102
 30
0.0
 40
0.0551113291863834
 50
15.0579188781330195
 51
69.0527973812182978
  0
ARC
  5
1296D
  8
0
 10
448.1925718144321991
 20
369.2818025612421025
 30
0.0
 40
253.462494500051605
 50
248.7753269796336042
 51
249.052797381218312
  0
ARC
  5
1296E
  8
0
 10
356.2064993728677109
 20
132.3647579747672864
 30
0.0
 40
0.6857507166830497
 50
70.7527413748524054
 51
82.8439302383276157
  0
ARC
  5
1296F
  8
0
 10
355.7870719245602231
 20
129.5214481047570985
 30
0.0
 40
3.559701087248559
 50
81.8465589304947088
 51
84.9689929740498826
  0
ARC
  5
12970
  8
0
 10
352.0131783708823718
 20
84.7843727210346145
 30
0.0
 40
48.4556498357276482
 50
85.1627436667946967
 51
85.8372345915881994
  0
ARC
  5
12971
  8
0
 10
356.2382248610110764
 20
142.3514827899973056
 30
0.0
 40
9.2663530927079361
 50
264.21246067224331
 51
265.6202021605773211
  0
ARC
  5
12972
  8
0
 10
355.4798877397611818
 20
135.1003443798348087
 30
0.0
 40
1.975842519480985
 50
257.6349599356558997
 51
264.8871862027993984
  0
ARC
  5
12973
  8
0
 10
355.1320660665988953
 20
133.4582977763861038
 30
0.0
 40
0.2976408876378664
 50
255.0196763907383968
 51
255.3487072521895982
  0
ARC
  5
12974
  8
0
 10
354.9828190762086138
 20
133.0414930128650894
 30
0.0
 40
0.1481281914453611
 50
60.7801344793229603
 51
70.4297648629606527
  0
ARC
  5
12975
  8
0
 10
354.9823250093808156
 20
133.0415199433770113
 30
0.0
 40
0.1482690697553284
 50
70.2463851888001329
 51
90.8105004435919341
  0
LINE
  5
12976
  8
0
 10
354.9802276796996239
 20
133.1897741785755898
 30
0.0
 11
350.827533171469895
 21
133.191657240577598
 31
0.0
  0
LINE
  5
12977
  8
0
 10
350.827533171469895
 20
132.4915297799290101
 30
0.0
 11
352.344322298185773
 21
132.4860889664466015
 31
0.0
  0
LINE
  5
12978
  8
0
 10
350.827533171469895
 20
132.5093591825612975
 30
0.0
 11
352.3443870028974061
 21
132.512812680657305
 31
0.0
  0
ARC
  5
12979
  8
0
 10
352.2208467550603928
 20
98.0635964785991519
 30
0.0
 40
34.422713944220952
 50
86.4058573393437399
 51
89.7944774872455866
  0
ARC
  5
1297A
  8
0
 10
352.5947497980537833
 20
106.4773186943398997
 30
0.0
 40
26.0366977291815509
 50
86.0659173273679841
 51
90.5509513044774934
  0
ARC
  5
1297B
  8
0
 10
351.2001242470827265
 20
92.3095526183683575
 30
0.0
 40
40.2348088399199924
 50
83.2391612926704312
 51
85.4687968260523263
  0
ARC
  5
1297C
  8
0
 10
350.2297163950750019
 20
84.1621248103081854
 30
0.0
 40
48.4686515836729725
 50
83.50389792366515
 51
85.0865504832644746
  0
LINE
  5
1297D
  8
0
 10
357.6632813107984816
 20
132.3195856513027024
 30
0.0
 11
356.3414878643990278
 21
132.3195856382446038
 31
0.0
  0
ARC
  5
1297E
  8
0
 10
356.0803238552203993
 20
77061.7668595921131782
 30
0.0
 40
76929.4472743966180133
 50
269.9997266074581717
 51
270.0001945106330936
  0
ARC
  5
1297F
  8
0
 10
356.4447601357197755
 20
132.994395854481013
 30
0.0
 40
0.0087458401095091
 50
339.1953641061169833
 51
38.7033416079054007
  0
ARC
  5
12980
  8
0
 10
356.4391353853753799
 20
132.9965330174958069
 30
0.0
 40
0.0147629226408901
 50
306.0466723400016917
 51
339.1953641061149938
  0
ARC
  5
12981
  8
0
 10
356.3899102828880245
 20
133.06416962757541
 30
0.0
 40
0.0984159066758235
 50
292.7982833476033875
 51
306.0466723400016917
  0
ARC
  5
12982
  8
0
 10
356.317329397389301
 20
133.236847213379292
 30
0.0
 40
0.2857272346270594
 50
281.8142453445569799
 51
292.7982833476033875
  0
ARC
  5
12983
  8
0
 10
355.9616620302695083
 20
134.8088621539918108
 30
0.0
 40
1.897442546679148
 50
277.7418523328369133
 51
282.6078198934092143
  0
ARC
  5
12984
  8
0
 10
355.483080752643275
 20
138.2734409528744095
 30
0.0
 40
5.3949168468039153
 50
275.0912038385869209
 51
277.8215637084372247
  0
ARC
  5
12985
  8
0
 10
353.5567464773483835
 20
161.9095509265104056
 30
0.0
 40
29.1092697912195497
 50
272.1042644492403042
 51
274.7393350196102801
  0
ARC
  5
12986
  8
0
 10
351.2988203235361198
 20
216.2382730958929926
 30
0.0
 40
83.4846725876253544
 50
270.9607682721775177
 51
272.2837719462522728
  0
ARC
  5
12987
  8
0
 10
350.6420828545295763
 20
247.5859858541541882
 30
0.0
 40
114.8390649618808936
 50
270.0925253535605179
 51
271.0261338368442807
  0
ARC
  5
12988
  8
0
 10
356.4319990148134139
 20
132.9849023016205081
 30
0.0
 40
0.024647355136458
 50
37.3766384858522471
 51
58.9594202281295168
  0
ARC
  5
12989
  8
0
 10
356.3875940240581031
 20
132.9111184075422898
 30
0.0
 40
0.1107627790124258
 50
58.9594202281295168
 51
64.6925422988009871
  0
LINE
  5
1298A
  8
0
 10
357.6112369645354079
 20
132.5338105381634932
 30
0.0
 11
356.2960007852996114
 21
132.5351152805756101
 31
0.0
  0
LINE
  5
1298B
  8
0
 10
356.2960007852996114
 20
132.5351152805756101
 30
0.0
 11
353.7281180627775825
 21
132.5508840684906033
 31
0.0
  0
LINE
  5
1298C
  8
0
 10
353.7281180627775825
 20
132.5508840684906033
 30
0.0
 11
350.827533171469895
 21
132.5636387900040063
 31
0.0
  0
ARC
  5
1298D
  8
0
 10
357.1538150267637093
 20
132.1841970656568037
 30
0.0
 40
0.0806926650017531
 50
94.7174551950636072
 51
157.8769713216346133
  0
ARC
  5
1298E
  8
0
 10
357.004901185215715
 20
132.2445856515238916
 30
0.0
 40
0.0800000002636997
 50
275.081395436695118
 51
337.9756870475060282
  0
LINE
  5
1298F
  8
0
 10
357.0119868545838244
 20
132.1649000610335918
 30
0.0
 11
356.6134996341033911
 21
132.1645699344518903
 31
0.0
  0
ARC
  5
12990
  8
0
 10
356.6960730314382886
 20
132.1845820896838006
 30
0.0
 40
0.080008008549511
 50
90.6067672216078677
 51
177.4977087401317988
  0
ARC
  5
12991
  8
0
 10
356.5353788457268251
 20
132.1852507448481049
 30
0.0
 40
0.0808118400683251
 50
291.6724916735374791
 51
2.0029435040052408
  0
ARC
  5
12992
  8
0
 10
355.9140794199940956
 20
132.1845856512690887
 30
0.0
 40
0.0799999999920186
 50
182.5000595043362068
 51
248.6740133035110034
  0
ARC
  5
12993
  8
0
 10
299.3039096018363807
 20
129.7504642840521001
 30
0.0
 40
56.5824767872530927
 50
2.4620309156900579
 51
2.546648038621417
  0
LINE
  5
12994
  8
0
 10
354.9036995123868792
 20
132.1099366617056035
 30
0.0
 11
354.9028269198996099
 21
132.209692764875598
 31
0.0
  0
ARC
  5
12995
  8
0
 10
354.8355518481382092
 20
132.2091042923879058
 30
0.0
 40
0.0672776454729306
 50
0.5011682502320224
 51
55.5543003237112885
  0
LINE
  5
12996
  8
0
 10
354.8707117228270818
 20
132.1099323964160988
 30
0.0
 11
354.869690939035479
 21
132.2645856512756097
 31
0.0
  0
LINE
  5
12997
  8
0
 10
354.3795623354836266
 20
132.2645856512756097
 30
0.0
 11
354.3797887761995753
 21
132.2315432242756117
 31
0.0
  0
ARC
  5
12998
  8
0
 10
354.3445020022252834
 20
132.2350491174213971
 30
0.0
 40
0.0354605090806834
 50
280.9727905920299236
 51
354.3260381157015217
  0
ARC
  5
12999
  8
0
 10
354.3298066462816109
 20
132.2692377256539942
 30
0.0
 40
0.0722564956956109
 50
270.2341964307851185
 51
287.2649074848919781
  0
LINE
  5
1299A
  8
0
 10
354.3301019937997012
 20
132.1969818335755917
 30
0.0
 11
350.827533171469895
 21
132.1949862876419104
 31
0.0
  0
LINE
  5
1299B
  8
0
 10
350.827533171469895
 20
132.1094096173175956
 30
0.0
 11
357.526681666199579
 21
132.1102758107755903
 31
0.0
  0
ARC
  5
1299C
  8
0
 10
357.5316081415610938
 20
131.8600757038875884
 30
0.0
 40
0.2502486036849312
 50
15.0215651751236692
 51
91.1280162095655157
  0
LINE
  5
1299D
  8
0
 10
357.7733053357221138
 20
131.9249357839134973
 30
0.0
 11
357.9175570862996096
 21
131.3865856512755954
 31
0.0
  0
LINE
  5
1299E
  8
0
 10
357.9175570862996096
 20
131.3865856512755954
 30
0.0
 11
357.9175539994445217
 21
131.3606855949120131
 31
0.0
  0
ARC
  5
1299F
  8
0
 10
357.8675540259997092
 20
131.3606915540756006
 30
0.0
 40
0.0499999738
 50
271.034558205901476
 51
359.9931712978975042
  0
ARC
  5
129A0
  8
0
 10
357.5106462557420173
 20
131.009814647906893
 30
0.0
 40
0.3018818760212212
 50
94.5597764017167606
 51
127.2481405785355975
  0
ARC
  5
129A1
  8
0
 10
357.5045372880795185
 20
131.0199605533202885
 30
0.0
 40
0.2901107675972251
 50
127.5005658460510034
 51
154.944745528376302
  0
ARC
  5
129A2
  8
0
 10
357.1148599046708227
 20
131.2022152225773937
 30
0.0
 40
0.1400813297165124
 50
276.1944906335901919
 51
334.9123585567210739
  0
LINE
  5
129A3
  8
0
 10
357.1299752069995748
 20
131.0629517795256049
 30
0.0
 11
355.6979165225995985
 21
131.0621046512756038
 31
0.0
  0
ARC
  5
129A4
  8
0
 10
355.6981035667200217
 20
131.2026757151027141
 30
0.0
 40
0.1405711882676869
 50
223.5078257149071987
 51
269.9237621736265282
  0
ARC
  5
129A5
  8
0
 10
355.3944791433175965
 20
130.9032057426410915
 30
0.0
 40
0.2859295315091819
 50
45.1448561367460997
 51
70.2398090458008966
  0
ARC
  5
129A6
  8
0
 10
355.7190994837278026
 20
131.0549475008299112
 30
0.0
 40
0.2561159242118249
 50
91.0336640454120669
 51
171.2072339817798934
  0
ARC
  5
129A7
  8
0
 10
355.3574775858995736
 20
131.112104309275594
 30
0.0
 40
0.1099997554000016
 50
289.07923350916559
 51
350.5784375297482143
  0
ARC
  5
129A8
  8
0
 10
353.7922758631249849
 20
131.0224504474633989
 30
0.0
 40
0.2702027749062315
 50
13.9077212705920097
 51
67.1138207630374666
  0
ARC
  5
129A9
  8
0
 10
354.1616727702706839
 20
131.1120846972233949
 30
0.0
 40
0.1099237483065621
 50
192.9792220547986119
 51
252.6133711044784036
  0
LINE
  5
129AA
  8
0
 10
350.827533171469895
 20
131.3615894834881033
 30
0.0
 11
357.9175540000176738
 21
131.3606904042520966
 31
0.0
  0
ARC
  5
129AB
  8
0
 10
359.9838240582108142
 20
21443.3900956958314055
 30
0.0
 40
21312.079500947118504
 50
269.9888461475765098
 51
269.9943130084373024
  0
ARC
  5
129AC
  8
0
 10
346.6412431055867955
 20
-47372.8382468510972103
 30
0.0
 40
47504.1501350866383291
 50
89.9889112469094954
 51
89.9920435746598599
  0
ARC
  5
129AD
  8
0
 10
351.8255759600688748
 20
-10039.4406985734694899
 30
0.0
 40
10170.7522268457105383
 50
89.9920435746598599
 51
90.0056223609000057
  0
LINE
  5
129AE
  8
0
 10
353.8973581904086245
 20
131.2713826552223111
 30
0.0
 11
353.8026822513060097
 21
131.3113484278607928
 31
0.0
  0
ARC
  5
129AF
  8
0
 10
350.3847524323239782
 20
65.6680633456402063
 30
0.0
 40
65.6680641941874228
 50
86.8844592640805047
 51
88.4314788753539602
  0
ARC
  5
129B0
  8
0
 10
357.7372756259990751
 20
130.7014247526336987
 30
0.0
 40
0.3001821044832867
 50
18.3909221963250502
 51
88.1195087996014763
  0
LINE
  5
129B1
  8
0
 10
357.7471260629995982
 20
131.0014451931756128
 30
0.0
 11
350.827533171469895
 21
131.0016026477755986
 31
0.0
  0
ARC
  5
129B2
  8
0
 10
358.957283528039909
 20
131.107619728801609
 30
0.0
 40
0.9856692585755412
 50
198.4221999569325021
 51
217.9394329621237887
  0
ARC
  5
129B3
  8
0
 10
357.4071275337889233
 20
129.8982240609377072
 30
0.0
 40
0.9804492563392398
 50
333.8059115209493939
 51
37.9817327932772599
  0
ARC
  5
129B4
  8
0
 10
359.1664994092469101
 20
129.0325434423643003
 30
0.0
 40
0.9803649515661824
 50
153.7960633414924132
 51
184.6552013491420894
  0
ARC
  5
129B5
  8
0
 10
358.0498167741291127
 20
128.9415929672962875
 30
0.0
 40
0.1400153854970319
 50
278.8907910091613758
 51
4.6639344742763704
  0
ARC
  5
129B6
  8
0
 10
358.0938396950365927
 20
128.6601725528454949
 30
0.0
 40
0.1448274961674451
 50
98.8907910091614042
 51
171.1515712916834104
  0
ARC
  5
129B7
  8
0
 10
376.5647019847605179
 20
125.7847434216979963
 30
0.0
 40
18.8381644485202315
 50
171.1515712916834104
 51
171.5541168442919968
  0
ARC
  5
129B8
  8
0
 10
355.2428321309946
 20
128.9507324369513981
 30
0.0
 40
2.7174756604080659
 50
328.1402495297609789
 51
351.5541168442919115
  0
ARC
  5
129B9
  8
0
 10
351.9156796501912936
 20
131.0184610456392988
 30
0.0
 40
6.6348019462440764
 50
313.6197170537196257
 51
328.1402495297609789
  0
ARC
  5
129BA
  8
0
 10
352.8634181949537947
 20
130.0239230695489141
 30
0.0
 40
5.2610064246635524
 50
299.6867435210243116
 51
313.6197170537196257
  0
ARC
  5
129BB
  8
0
 10
353.0267115549928008
 20
129.7374853637994931
 30
0.0
 40
4.9312924869724268
 50
285.3252840535907922
 51
299.6867435210243116
  0
ARC
  5
129BC
  8
0
 10
354.4179023221090006
 20
124.7156637894319005
 30
0.0
 40
0.2800210293145062
 50
108.2853915093393056
 51
180.5100599155080943
  0
LINE
  5
129BD
  8
0
 10
354.0947203170264856
 20
125.7153397998677065
 30
0.0
 11
354.4180810852996046
 21
118.2910546983756035
 31
0.0
  0
ARC
  5
129BE
  8
0
 10
350.7821534850680791
 20
127.6159137443307969
 30
0.0
 40
3.2302213366633179
 50
270.804944852905578
 51
293.3301393514017263
  0
ARC
  5
129BF
  8
0
 10
349.0526459992934747
 20
131.9545908138441916
 30
0.0
 40
7.9001666671052817
 50
292.3862570878555971
 51
301.0838592567894239
  0
ARC
  5
129C0
  8
0
 10
367.7615933721677948
 20
99.9458345962869856
 30
0.0
 40
29.1761570313086906
 50
118.4542482417574973
 51
120.0954553368282944
  0
ARC
  5
129C1
  8
0
 10
354.0372001199103806
 20
125.5378735931603984
 30
0.0
 40
0.1865551596696331
 50
72.0414973747558491
 51
161.3766311093177137
  0
ARC
  5
129C2
  8
0
 10
357.4158085666621787
 20
118.4221709124082054
 30
0.0
 40
3.0005935269707078
 50
182.5044373338758135
 51
213.574091795791503
  0
ARC
  5
129C3
  8
0
 10
354.7075181216662259
 20
116.6245278211655005
 30
0.0
 40
0.2499999300334346
 50
359.9999979855081165
 51
33.5786601785181773
  0
LINE
  5
129C4
  8
0
 10
354.9575180516995943
 20
116.6245278123756037
 30
0.0
 11
354.9575180082995871
 21
116.4902968304756001
 31
0.0
  0
LINE
  5
129C5
  8
0
 10
356.0875147785997115
 20
114.5016026478756004
 30
0.0
 11
356.0627247703957892
 21
114.9746866369484053
 31
0.0
  0
ARC
  5
129C6
  8
0
 10
355.8130689601003951
 20
114.9616044576138023
 30
0.0
 40
0.2499983340553105
 50
2.999604679180162
 51
87.2364967884106335
  0
ARC
  5
129C7
  8
0
 10
355.8371190562479001
 20
115.4598489646072039
 30
0.0
 40
0.2488262802869899
 50
234.6804895409813128
 51
267.2364967884105909
  0
ARC
  5
129C8
  8
0
 10
355.8381811082934973
 20
115.4613478719711992
 30
0.0
 40
0.2506633099093352
 50
180.0784752788150058
 51
234.6804895409817107
  0
ARC
  5
129C9
  8
0
 10
392.1833057860973213
 20
115.5111280756865
 30
0.0
 40
36.595822078496127
 50
179.9215039196743078
 51
180.0784752788150058
  0
ARC
  5
129CA
  8
0
 10
354.8390302208593994
 20
115.5622903273113025
 30
0.0
 40
0.7484885332745963
 50
359.9215039196743078
 51
68.3628787997434557
  0
ARC
  5
129CB
  8
0
 10
355.2070441184214928
 20
116.4899753017859041
 30
0.0
 40
0.2495263172758503
 50
179.926171146143588
 51
248.358182830360704
  0
LINE
  5
129CC
  8
0
 10
356.0875147785997115
 20
114.5016026478756004
 30
0.0
 11
350.827533171469895
 21
114.5016025699758018
 31
0.0
  0
LINE
  5
129CD
  8
0
 10
350.827533171469895
 20
115.2113035638253962
 30
0.0
 11
355.82529795021469
 21
115.2113035141423012
 31
0.0
  0
LINE
  5
129CE
  8
0
 10
350.827533171469895
 20
115.4610044530760007
 30
0.0
 11
355.5875180334592756
 21
115.4610045800071987
 31
0.0
  0
LINE
  5
129CF
  8
0
 10
354.9575180514609087
 20
116.6245387462756042
 30
0.0
 11
350.827533171469895
 21
116.6245387462756042
 31
0.0
  0
LINE
  5
129D0
  8
0
 10
354.7621067461182065
 20
116.2580386941045987
 30
0.0
 11
350.827533171469895
 21
116.2580387403753974
 31
0.0
  0
ARC
  5
129D1
  8
0
 10
355.026890747442792
 20
116.1125427404751065
 30
0.0
 40
0.1693036894277951
 50
68.2299075746475978
 51
102.6523031741167955
  0
ARC
  5
129D2
  8
0
 10
354.7156037369422847
 20
118.1216400911308995
 30
0.0
 40
1.8641815085610161
 50
271.4294222757051216
 51
278.4583651303046281
  0
LINE
  5
129D3
  8
0
 10
358.189368536317204
 20
128.9529777749756079
 30
0.0
 11
350.827533171469895
 21
128.9529777769255929
 31
0.0
  0
LINE
  5
129D4
  8
0
 10
358.1799245013019117
 20
130.5016025418755987
 30
0.0
 11
350.827533171469895
 21
130.5016025418755987
 31
0.0
  0
LINE
  5
129D5
  8
0
 10
358.2868884923997825
 20
129.4654407433756091
 30
0.0
 11
350.827533171469895
 21
129.4654407433756091
 31
0.0
  0
LINE
  5
129D6
  8
0
 10
356.8533712045352786
 20
132.8491767454850958
 30
0.0
 11
358.162886098509091
 21
132.8491673031155926
 31
0.0
  0
LINE
  5
129D7
  8
0
 10
358.162886098509091
 20
132.8491673031155926
 30
0.0
 11
358.4889223573997015
 21
132.8732079569755911
 31
0.0
  0
LINE
  5
129D8
  8
0
 10
358.4889223573997015
 20
132.8732079569755911
 30
0.0
 11
358.7391397930942958
 21
132.8735217376901119
 31
0.0
  0
LINE
  5
129D9
  8
0
 10
350.827533171469895
 20
114.5016025699758018
 30
0.0
 11
337.0039284770787162
 21
99.1603350104735455
 31
0.0
  0
ENDBLK
  5
129DD
  8
0
  0
ENDSEC
  0
SECTION
  2
ENTITIES
  0
ATTDEF
  5
8017
  8
DEFPOINTS
 10
4885.3896523490566324
 20
160.1893861324448096
 30
0.0
 40
0.001
  1
P38540-00
  3

  2
MODELNUMBER
 70
     0
1001
ACDBATTR
1070
     0
1070
     1
  0
ATTDEF
  5
8018
  8
DEFPOINTS
 10
4885.3896523490566324
 20
160.1877194657780876
 30
0.0
 40
0.001
  1
KALLISTA
  3

  2
BRANDNAME
 70
     0
1001
ACDBATTR
1070
     0
1070
     1
  0
ATTDEF
  5
8019
  8
DEFPOINTS
 10
4885.3896523490566324
 20
160.1860527991115077
 30
0.0
 40
0.001
  1
RAINHEAD
  3

  2
PRODUCT
 70
     0
1001
ACDBATTR
1070
     0
1070
     1
  0
LINE
  5
13351
  8
0
 10
4880.389419579603782
 20
152.1033581994564088
 30
0.0
 11
4890.389419579603782
 21
152.1033581994564088
 31
0.0
  0
LINE
  5
13352
  8
0
 10
4890.389419579603782
 20
151.6608172545564059
 30
0.0
 11
4890.389419579603782
 21
152.1033581994564088
 31
0.0
  0
LINE
  5
13353
  8
0
 10
4880.389419579603782
 20
151.6608172545564059
 30
0.0
 11
4880.389419579603782
 21
152.1033581994564088
 31
0.0
  0
ARC
  5
13354
  8
0
 10
4880.4193195796051441
 20
151.6608172545564059
 30
0.0
 40
0.0299
 50
180.0
 51
270.0
  0
LINE
  5
13355
  8
0
 10
4880.4193195796051441
 20
151.6309172545564081
 30
0.0
 11
4890.359519579604239
 21
151.6309172545564081
 31
0.0
  0
ARC
  5
13356
  8
0
 10
4890.359519579604239
 20
151.6608172545564059
 30
0.0
 40
0.0299
 50
270.0
 51
0.0
  0
LINE
  5
13357
  8
0
 10
4881.0759839376978562
 20
151.6309172545564081
 30
0.0
 11
4881.0804265591441435
 21
151.5895762071959894
 31
0.0
  0
ARC
  5
13358
  8
0
 10
4881.0882813349298885
 20
151.5904203027762946
 30
0.0
 40
0.0079
 50
186.1336218145034991
 51
268.0001727913889908
  0
LINE
  5
13359
  8
0
 10
4881.1881586243989659
 20
151.5858155726575092
 30
0.0
 11
4881.1962127841043184
 21
151.6309172545564081
 31
0.0
  0
ARC
  5
1335A
  8
0
 10
4881.1803816551446289
 20
151.5872043668167919
 30
0.0
 40
0.0079
 50
268.0001727913889908
 51
349.8749738622519203
  0
LINE
  5
1335B
  8
0
 10
4881.0880056527166744
 20
151.5825251144113963
 30
0.0
 11
4881.1801059729295957
 21
151.5793091784518936
 31
0.0
  0
LINE
  5
1335C
  8
0
 10
4881.2364504346987815
 20
151.6309172545564081
 30
0.0
 11
4881.2408870428007504
 21
151.5896321646895046
 31
0.0
  0
ARC
  5
1335D
  8
0
 10
4881.2487418185883143
 20
151.5904762602698099
 30
0.0
 40
0.0079
 50
186.1336218145034991
 51
268.0001727913889908
  0
LINE
  5
1335E
  8
0
 10
4881.3486191080555727
 20
151.585871530150996
 30
0.0
 11
4881.3566632749952987
 21
151.6309172545564081
 31
0.0
  0
ARC
  5
1335F
  8
0
 10
4881.3408421388021452
 20
151.5872603243103072
 30
0.0
 40
0.0079
 50
268.0001727913889908
 51
349.8749738622519203
  0
LINE
  5
13360
  8
0
 10
4881.2484661363732812
 20
151.5825810719049116
 30
0.0
 11
4881.3405664565880215
 21
151.5793651359454088
 31
0.0
  0
LINE
  5
13361
  8
0
 10
4881.205540661257146
 20
151.6309172545564081
 30
0.0
 11
4881.2100254120477985
 21
151.5891841703596015
 31
0.0
  0
ARC
  5
13362
  8
0
 10
4881.2178801878353624
 20
151.5900282659399068
 30
0.0
 40
0.0079
 50
186.1336218145034991
 51
268.0001727913889908
  0
ARC
  5
13363
  8
0
 10
4881.3099805080491933
 20
151.586812329980404
 30
0.0
 40
0.0079
 50
268.0001727913889908
 51
304.1961239137847883
  0
LINE
  5
13364
  8
0
 10
4881.2176045056212388
 20
151.5821330775750084
 30
0.0
 11
4881.3097048258359791
 21
151.5789171416155909
 31
0.0
  0
LINE
  5
13365
  8
0
 10
4881.6162935899028525
 20
151.6309172545564081
 30
0.0
 11
4881.6207362113500494
 21
151.5895762071959894
 31
0.0
  0
ARC
  5
13366
  8
0
 10
4881.6285909871357944
 20
151.5904203027762946
 30
0.0
 40
0.0079
 50
186.1336218145034991
 51
268.0001727913889908
  0
ARC
  5
13367
  8
0
 10
4881.7206913073496253
 20
151.5872043668167919
 30
0.0
 40
0.0079
 50
268.0001727913889908
 51
310.3495951379388771
  0
LINE
  5
13368
  8
0
 10
4881.6283153049216708
 20
151.5825251144113963
 30
0.0
 11
4881.7204156251373206
 21
151.5793091784518936
 31
0.0
  0
LINE
  5
13369
  8
0
 10
4881.6753683888036903
 20
151.6309172545564081
 30
0.0
 11
4881.6798110102508872
 21
151.5895762071959894
 31
0.0
  0
ARC
  5
1336A
  8
0
 10
4881.6876657860366322
 20
151.5904203027762946
 30
0.0
 40
0.0079
 50
186.1336218145034991
 51
268.0001727913889908
  0
LINE
  5
1336B
  8
0
 10
4881.7875430755048001
 20
151.5858155726575092
 30
0.0
 11
4881.7955972352101526
 21
151.6309172545564081
 31
0.0
  0
ARC
  5
1336C
  8
0
 10
4881.7797661062513725
 20
151.5872043668167919
 30
0.0
 40
0.0079
 50
268.0001727913889908
 51
349.8749738622519203
  0
LINE
  5
1336D
  8
0
 10
4881.687390103823418
 20
151.5825251144113963
 30
0.0
 11
4881.7794904240372489
 21
151.5793091784518936
 31
0.0
  0
LINE
  5
1336E
  8
0
 10
4881.9271165131040107
 20
151.6309172545564081
 30
0.0
 11
4881.931559134550298
 21
151.5895762071959894
 31
0.0
  0
ARC
  5
1336F
  8
0
 10
4881.939413910336043
 20
151.5904203027762946
 30
0.0
 40
0.0079
 50
186.1336218145034991
 51
268.0001727913889908
  0
LINE
  5
13370
  8
0
 10
4882.0392911998060299
 20
151.5858155726575092
 30
0.0
 11
4882.0473453595086539
 21
151.6309172545564081
 31
0.0
  0
ARC
  5
13371
  8
0
 10
4882.0315142305507834
 20
151.5872043668167919
 30
0.0
 40
0.0079
 50
268.0001727913889908
 51
349.8749738622519203
  0
LINE
  5
13372
  8
0
 10
4881.9391382281228289
 20
151.5825251144113963
 30
0.0
 11
4882.0312385483366597
 21
151.5793091784518936
 31
0.0
  0
LINE
  5
13373
  8
0
 10
4882.0552714718041898
 20
151.6309172545564081
 30
0.0
 11
4882.0597140932495677
 21
151.5895762071959894
 31
0.0
  0
ARC
  5
13374
  8
0
 10
4882.0675688690362222
 20
151.5904203027762946
 30
0.0
 40
0.0079
 50
186.1336218145034991
 51
268.0001727913889908
  0
LINE
  5
13375
  8
0
 10
4882.1674461585052995
 20
151.5858155726575092
 30
0.0
 11
4882.1755003182097425
 21
151.6309172545564081
 31
0.0
  0
ARC
  5
13376
  8
0
 10
4882.1596691892509625
 20
151.5872043668167919
 30
0.0
 40
0.0079
 50
268.0001727913889908
 51
349.8749738622519203
  0
LINE
  5
13377
  8
0
 10
4882.0672931868220985
 20
151.5825251144113963
 30
0.0
 11
4882.1593935070368389
 21
151.5793091784518936
 31
0.0
  0
LINE
  5
13378
  8
0
 10
4882.2800001402038106
 20
151.6309172545564081
 30
0.0
 11
4882.284442761650098
 21
151.5895762071959894
 31
0.0
  0
ARC
  5
13379
  8
0
 10
4882.292297537435843
 20
151.5904203027762946
 30
0.0
 40
0.0079
 50
186.1336218145034991
 51
268.0001727913889908
  0
ARC
  5
1337A
  8
0
 10
4882.3843978576496738
 20
151.5872043668167919
 30
0.0
 40
0.0079
 50
268.0001727913889908
 51
318.8790095607561739
  0
LINE
  5
1337B
  8
0
 10
4882.2920218552226288
 20
151.5825251144113963
 30
0.0
 11
4882.3841221754373692
 21
151.5793091784518936
 31
0.0
  0
LINE
  5
1337C
  8
0
 10
4882.3635442891036291
 20
151.6309172545564081
 30
0.0
 11
4882.3679869105499165
 21
151.5895762071959894
 31
0.0
  0
ARC
  5
1337D
  8
0
 10
4882.375841686336571
 20
151.5904203027762946
 30
0.0
 40
0.0079
 50
186.1336218145034991
 51
268.0001727913889908
  0
LINE
  5
1337E
  8
0
 10
4882.4747815886876197
 20
151.5805663924658973
 30
0.0
 11
4882.4837731355100914
 21
151.6309172545564081
 31
0.0
  0
ARC
  5
1337F
  8
0
 10
4882.4679420065513114
 20
151.5872043668167919
 30
0.0
 40
0.0079
 50
268.0001727913889908
 51
349.8749738622519203
  0
LINE
  5
13380
  8
0
 10
4882.3755660041233568
 20
151.5825251144113963
 30
0.0
 11
4882.4676663243380972
 21
151.5793091784518936
 31
0.0
  0
LINE
  5
13381
  8
0
 10
4882.3592912605026868
 20
151.6309172545564081
 30
0.0
 11
4882.3637338819498837
 21
151.5895762071959894
 31
0.0
  0
ARC
  5
13382
  8
0
 10
4882.3715886577356287
 20
151.5904203027762946
 30
0.0
 40
0.0079
 50
186.1336218145034991
 51
285.6154199240161802
  0
LINE
  5
13383
  8
0
 10
4882.5188392522977665
 20
151.5858155726575092
 30
0.0
 11
4882.5268934120040285
 21
151.6309172545564081
 31
0.0
  0
ARC
  5
13384
  8
0
 10
4882.511062283044339
 20
151.5872043668167919
 30
0.0
 40
0.0079
 50
268.0001727913889908
 51
349.8749738622519203
  0
LINE
  5
13385
  8
0
 10
4882.4723539755723323
 20
151.5806511592539039
 30
0.0
 11
4882.5107866008311248
 21
151.5793091784518936
 31
0.0
  0
LINE
  5
13386
  8
0
 10
4882.7783833685025456
 20
151.6309172545564081
 30
0.0
 11
4882.782825989948833
 21
151.5895762071959894
 31
0.0
  0
ARC
  5
13387
  8
0
 10
4882.7906807657373065
 20
151.5904203027762946
 30
0.0
 40
0.0079
 50
186.1336218145034991
 51
268.0001727913889908
  0
LINE
  5
13388
  8
0
 10
4882.8905580552045649
 20
151.5858155726575092
 30
0.0
 11
4882.8986122149099174
 21
151.6309172545564081
 31
0.0
  0
ARC
  5
13389
  8
0
 10
4882.8827810859511374
 20
151.5872043668167919
 30
0.0
 40
0.0079
 50
268.0001727913889908
 51
349.8749738622519203
  0
LINE
  5
1338A
  8
0
 10
4882.7904050835222733
 20
151.5825251144113963
 30
0.0
 11
4882.8825054037370137
 21
151.5793091784518936
 31
0.0
  0
LINE
  5
1338B
  8
0
 10
4882.9569846133035753
 20
151.6309172545564081
 30
0.0
 11
4882.9614272347498627
 21
151.5895762071959894
 31
0.0
  0
ARC
  5
1338C
  8
0
 10
4882.9692820105356077
 20
151.5904203027762946
 30
0.0
 40
0.0079
 50
186.1336218145034991
 51
268.0001727913889908
  0
LINE
  5
1338D
  8
0
 10
4883.0691593000046851
 20
151.5858155726575092
 30
0.0
 11
4883.0772134597100376
 21
151.6309172545564081
 31
0.0
  0
ARC
  5
1338E
  8
0
 10
4883.061382330750348
 20
151.5872043668167919
 30
0.0
 40
0.0079
 50
268.0001727913889908
 51
349.8749738622519203
  0
LINE
  5
1338F
  8
0
 10
4882.9690063283223935
 20
151.5825251144113963
 30
0.0
 11
4883.0611066485371339
 21
151.5793091784518936
 31
0.0
  0
LINE
  5
13390
  8
0
 10
4883.102277609003977
 20
151.6309172545564081
 30
0.0
 11
4883.1067202304511738
 21
151.5895762071959894
 31
0.0
  0
ARC
  5
13391
  8
0
 10
4883.1145750062360094
 20
151.5904203027762946
 30
0.0
 40
0.0079
 50
186.1336218145034991
 51
268.0001727913889908
  0
ARC
  5
13392
  8
0
 10
4883.2066753264507497
 20
151.5872043668167919
 30
0.0
 40
0.0079
 50
268.0001727913889908
 51
300.4888692062020823
  0
LINE
  5
13393
  8
0
 10
4883.1142993240227952
 20
151.5825251144113963
 30
0.0
 11
4883.206399644236626
 21
151.5793091784518936
 31
0.0
  0
LINE
  5
13394
  8
0
 10
4883.1377072627037705
 20
151.6309172545564081
 30
0.0
 11
4883.1421498841500579
 21
151.5895762071959894
 31
0.0
  0
ARC
  5
13395
  8
0
 10
4883.1500046599358029
 20
151.5904203027762946
 30
0.0
 40
0.0079
 50
186.1336218145034991
 51
268.0001727913889908
  0
LINE
  5
13396
  8
0
 10
4883.2498819494048803
 20
151.5858155726575092
 30
0.0
 11
4883.2553745541354147
 21
151.616573059523688
 31
0.0
  0
ARC
  5
13397
  8
0
 10
4883.2421049801496338
 20
151.5872043668167919
 30
0.0
 40
0.0079
 50
268.0001727913889908
 51
349.8749738622519203
  0
LINE
  5
13398
  8
0
 10
4883.1497289777225888
 20
151.5825251144113963
 30
0.0
 11
4883.2418292979373291
 21
151.5793091784518936
 31
0.0
  0
LINE
  5
13399
  8
0
 10
4883.25383308790515
 20
151.6309172545564081
 30
0.0
 11
4883.2582757093496184
 21
151.5895762071959894
 31
0.0
  0
ARC
  5
1339A
  8
0
 10
4883.2661304851362729
 20
151.5904203027762946
 30
0.0
 40
0.0079
 50
186.1336218145034991
 51
268.0001727913889908
  0
LINE
  5
1339B
  8
0
 10
4883.3660077746053503
 20
151.5858155726575092
 30
0.0
 11
4883.3740619343097933
 21
151.6309172545564081
 31
0.0
  0
ARC
  5
1339C
  8
0
 10
4883.3582308053510133
 20
151.5872043668167919
 30
0.0
 40
0.0079
 50
268.0001727913889908
 51
349.8749738622519203
  0
LINE
  5
1339D
  8
0
 10
4883.2658548029221492
 20
151.5825251144113963
 30
0.0
 11
4883.3579551231368896
 21
151.5793091784518936
 31
0.0
  0
ARC
  5
1339E
  8
0
 10
4883.2496836268710467
 20
151.6086091944526117
 30
0.0
 40
0.0293604206395015
 50
259.9647953372751203
 51
298.7551898409661248
  0
ARC
  5
1339F
  8
0
 10
4882.9668898435611482
 20
151.6037174080045986
 30
0.0
 40
0.0727479849105612
 50
178.1205483669214118
 51
193.3412748243532064
  0
ARC
  5
133A0
  8
0
 10
4882.9032715841476602
 20
151.5886302901128886
 30
0.0
 40
0.0073652344568372
 50
193.3412748243594876
 51
279.0919683279731203
  0
ARC
  5
133A1
  8
0
 10
4882.9797636848752518
 20
153.9142969350471049
 30
0.0
 40
2.3341551619710139
 50
268.1506198287165716
 51
269.7293680361099177
  0
ARC
  5
133A2
  8
0
 10
4882.9794936844573385
 20
152.5640719378444885
 30
0.0
 40
0.9839629075574799
 50
269.3737192443483082
 51
270.8912104258614022
  0
ARC
  5
133A3
  8
0
 10
4882.9724527108237453
 20
151.6902865256296025
 30
0.0
 40
0.1123039873631231
 50
281.4769101333557728
 51
284.2526938483578078
  0
LINE
  5
133A4
  8
0
 10
4883.5872649676039146
 20
151.6309172545564081
 30
0.0
 11
4883.5917075890511114
 21
151.5895762071959894
 31
0.0
  0
ARC
  5
133A5
  8
0
 10
4883.5995623648350374
 20
151.5904203027762946
 30
0.0
 40
0.0079
 50
186.1336218145034991
 51
268.0001727913889908
  0
ARC
  5
133A6
  8
0
 10
4883.6916626850506873
 20
151.5872043668167919
 30
0.0
 40
0.0079
 50
268.0001727913889908
 51
303.1488670887734997
  0
LINE
  5
133A7
  8
0
 10
4883.5992866826227328
 20
151.5825251144113963
 30
0.0
 11
4883.6913870028365636
 21
151.5793091784518936
 31
0.0
  0
LINE
  5
133A8
  8
0
 10
4883.6285436309026409
 20
151.6309172545564081
 30
0.0
 11
4883.6329862523498377
 21
151.5895762071959894
 31
0.0
  0
ARC
  5
133A9
  8
0
 10
4883.6408410281355827
 20
151.5904203027762946
 30
0.0
 40
0.0079
 50
186.1336218145034991
 51
268.0001727913889908
  0
ARC
  5
133AA
  8
0
 10
4883.7329413483503231
 20
151.5872043668167919
 30
0.0
 40
0.0079
 50
268.0001727913889908
 51
302.8334418033090856
  0
LINE
  5
133AB
  8
0
 10
4883.6405653459223686
 20
151.5825251144113963
 30
0.0
 11
4883.7326656661371089
 21
151.5793091784518936
 31
0.0
  0
LINE
  5
133AC
  8
0
 10
4883.6691076129027351
 20
151.6309172545564081
 30
0.0
 11
4883.673550234349932
 21
151.5895762071959894
 31
0.0
  0
ARC
  5
133AD
  8
0
 10
4883.681405010135677
 20
151.5904203027762946
 30
0.0
 40
0.0079
 50
186.1336218145034991
 51
268.0001727913889908
  0
LINE
  5
133AE
  8
0
 10
4883.7812822996038449
 20
151.5858155726575092
 30
0.0
 11
4883.7893364593101069
 21
151.6309172545564081
 31
0.0
  0
ARC
  5
133AF
  8
0
 10
4883.7735053303504174
 20
151.5872043668167919
 30
0.0
 40
0.0079
 50
268.0001727913889908
 51
349.8749738622519203
  0
LINE
  5
133B0
  8
0
 10
4883.6811293279215533
 20
151.5825251144113963
 30
0.0
 11
4883.7732296481372032
 21
151.5793091784518936
 31
0.0
  0
LINE
  5
133B1
  8
0
 10
4883.8445740774041042
 20
151.6309172545564081
 30
0.0
 11
4883.8490166988503915
 21
151.5895762071959894
 31
0.0
  0
ARC
  5
133B2
  8
0
 10
4883.856871474637046
 20
151.5904203027762946
 30
0.0
 40
0.0079
 50
186.1336218145034991
 51
268.0001727913889908
  0
ARC
  5
133B3
  8
0
 10
4883.9489717948499674
 20
151.5872043668167919
 30
0.0
 40
0.0079
 50
268.0001727913889908
 51
294.406203643172887
  0
LINE
  5
133B4
  8
0
 10
4883.8565957924229224
 20
151.5825251144113963
 30
0.0
 11
4883.9486961126367532
 21
151.5793091784518936
 31
0.0
  0
LINE
  5
133B5
  8
0
 10
4883.8681938465042549
 20
151.6309172545564081
 30
0.0
 11
4883.8726364679487233
 21
151.5895762071959894
 31
0.0
  0
ARC
  5
133B6
  8
0
 10
4883.8804912437362873
 20
151.5904203027762946
 30
0.0
 40
0.0079
 50
186.1336218145034991
 51
268.0001727913889908
  0
LINE
  5
133B7
  8
0
 10
4883.9803685332053647
 20
151.5858155726575092
 30
0.0
 11
4883.9884226929098077
 21
151.6309172545564081
 31
0.0
  0
ARC
  5
133B8
  8
0
 10
4883.9725915639510276
 20
151.5872043668167919
 30
0.0
 40
0.0079
 50
268.0001727913889908
 51
349.8749738622519203
  0
LINE
  5
133B9
  8
0
 10
4883.8802155615212541
 20
151.5825251144113963
 30
0.0
 11
4883.972315881736904
 21
151.5793091784518936
 31
0.0
  0
LINE
  5
133BA
  8
0
 10
4884.0230164965041695
 20
151.6309172545564081
 30
0.0
 11
4884.0274591179513664
 21
151.5895762071959894
 31
0.0
  0
ARC
  5
133BB
  8
0
 10
4884.0353138937362019
 20
151.5904203027762946
 30
0.0
 40
0.0079
 50
186.1336218145034991
 51
268.0001727913889908
  0
ARC
  5
133BC
  8
0
 10
4884.1274142139509422
 20
151.5872043668167919
 30
0.0
 40
0.0079
 50
268.0001727913889908
 51
311.2034394446426973
  0
LINE
  5
133BD
  8
0
 10
4884.0350382115211687
 20
151.5825251144113963
 30
0.0
 11
4884.1271385317368185
 21
151.5793091784518936
 31
0.0
  0
LINE
  5
133BE
  8
0
 10
4884.0843824569037679
 20
151.6309172545564081
 30
0.0
 11
4884.0888250783500553
 21
151.5895762071959894
 31
0.0
  0
ARC
  5
133BF
  8
0
 10
4884.0966798541358003
 20
151.5904203027762946
 30
0.0
 40
0.0079
 50
186.1336218145034991
 51
268.0001727913889908
  0
LINE
  5
133C0
  8
0
 10
4884.1965571436048776
 20
151.5858155726575092
 30
0.0
 11
4884.2046113033102301
 21
151.6309172545564081
 31
0.0
  0
ARC
  5
133C1
  8
0
 10
4884.1887801743496311
 20
151.5872043668167919
 30
0.0
 40
0.0079
 50
268.0001727913889908
 51
349.8749738622519203
  0
LINE
  5
133C2
  8
0
 10
4884.0964041719225861
 20
151.5825251144113963
 30
0.0
 11
4884.1885044921373265
 21
151.5793091784518936
 31
0.0
  0
LINE
  5
133C3
  8
0
 10
4884.2855612226039739
 20
151.6309172545564081
 30
0.0
 11
4884.2900038440502613
 21
151.5895762071959894
 31
0.0
  0
ARC
  5
133C4
  8
0
 10
4884.2978586198360063
 20
151.5904203027762946
 30
0.0
 40
0.0079
 50
186.1336218145034991
 51
268.0001727913889908
  0
LINE
  5
133C5
  8
0
 10
4884.3977359093050836
 20
151.5858155726575092
 30
0.0
 11
4884.4057900690104361
 21
151.6309172545564081
 31
0.0
  0
ARC
  5
133C6
  8
0
 10
4884.3899589400507466
 20
151.5872043668167919
 30
0.0
 40
0.0079
 50
268.0001727913889908
 51
349.8749738622519203
  0
LINE
  5
133C7
  8
0
 10
4884.2975829376227921
 20
151.5825251144113963
 30
0.0
 11
4884.3896832578357134
 21
151.5793091784518936
 31
0.0
  0
LINE
  5
133C8
  8
0
 10
4884.4584000024042325
 20
151.6309172545564081
 30
0.0
 11
4884.4628426238496104
 21
151.5895762071959894
 31
0.0
  0
ARC
  5
133C9
  8
0
 10
4884.4706973996371744
 20
151.5904203027762946
 30
0.0
 40
0.0079
 50
186.1336218145034991
 51
268.0001727913889908
  0
ARC
  5
133CA
  8
0
 10
4884.5627977198510052
 20
151.5872043668167919
 30
0.0
 40
0.0079
 50
268.0001727913889908
 51
283.270083002721492
  0
LINE
  5
133CB
  8
0
 10
4884.4704217174230507
 20
151.5825251144113963
 30
0.0
 11
4884.5625220376359721
 21
151.5793091784518936
 31
0.0
  0
LINE
  5
133CC
  8
0
 10
4884.4789193560036438
 20
151.6304798375564076
 30
0.0
 11
4884.4833619774499311
 21
151.5891387901959888
 31
0.0
  0
ARC
  5
133CD
  8
0
 10
4884.4912167532356762
 20
151.5899828857762941
 30
0.0
 40
0.0079
 50
186.1336218145034991
 51
268.0001727913889908
  0
ARC
  5
133CE
  8
0
 10
4884.583317073451326
 20
151.5867669498167913
 30
0.0
 40
0.0079
 50
268.0001727913889908
 51
296.7808183652898038
  0
LINE
  5
133CF
  8
0
 10
4884.4909410710215525
 20
151.5820876974113958
 30
0.0
 11
4884.5830413912381118
 21
151.578871761451893
 31
0.0
  0
LINE
  5
133D0
  8
0
 10
4884.4943576290042984
 20
151.6309172545564081
 30
0.0
 11
4884.4988002504496762
 21
151.5895762071959894
 31
0.0
  0
ARC
  5
133D1
  8
0
 10
4884.5066550262363307
 20
151.5904203027762946
 30
0.0
 40
0.0079
 50
186.1336218145034991
 51
268.0001727913889908
  0
LINE
  5
133D2
  8
0
 10
4884.6065323157054081
 20
151.5858155726575092
 30
0.0
 11
4884.6145864754098511
 21
151.6309172545564081
 31
0.0
  0
ARC
  5
133D3
  8
0
 10
4884.5987553464510711
 20
151.5872043668167919
 30
0.0
 40
0.0079
 50
268.0001727913889908
 51
349.8749738622519203
  0
LINE
  5
133D4
  8
0
 10
4884.5063793440222071
 20
151.5825251144113963
 30
0.0
 11
4884.5984796642369474
 21
151.5793091784518936
 31
0.0
  0
LINE
  5
133D5
  8
0
 10
4884.6128205576678738
 20
151.5888467999376132
 30
0.0
 11
4884.6203334074343729
 21
151.6309172545564081
 31
0.0
  0
ARC
  5
133D6
  8
0
 10
4884.6050435884144463
 20
151.5902355940968107
 30
0.0
 40
0.0079
 50
269.516365200087705
 51
349.8749738622519203
  0
LINE
  5
133D7
  8
0
 10
4884.4048764918488814
 20
151.6258014053516092
 30
0.0
 11
4884.4089258954873003
 21
151.5881194669711078
 31
0.0
  0
ARC
  5
133D8
  8
0
 10
4884.4167806712730453
 20
151.5889635625514131
 30
0.0
 40
0.0079
 50
186.1336218145034991
 51
268.0001727913889908
  0
ARC
  5
133D9
  8
0
 10
4884.5088809914877856
 20
151.5857476265919104
 30
0.0
 40
0.0079
 50
268.0001727913889908
 51
322.721785372980321
  0
LINE
  5
133DA
  8
0
 10
4884.4165049890589216
 20
151.5810683741866001
 30
0.0
 11
4884.508605309273662
 21
151.5778524382270973
 31
0.0
  0
LINE
  5
133DB
  8
0
 10
4884.2848216911397685
 20
151.5872921841244931
 30
0.0
 11
4884.2876285209376874
 21
151.6116799012584977
 31
0.0
  0
ARC
  5
133DC
  8
0
 10
4884.2769734993253223
 20
151.5881954477848126
 30
0.0
 40
0.0079
 50
271.5598032856092914
 51
353.4346043564717093
  0
LINE
  5
133DD
  8
0
 10
4884.191324267671007
 20
151.5797252232044059
 30
0.0
 11
4884.2771885400143219
 21
151.5802983750675139
 31
0.0
  0
LINE
  5
133DE
  8
0
 10
4885.3884907843748806
 20
151.6309172545564081
 30
0.0
 11
4885.3946808320206401
 21
151.5876049917933983
 31
0.0
  0
ARC
  5
133DF
  8
0
 10
4885.4025013677510287
 20
151.5887226773101872
 30
0.0
 40
0.0079
 50
188.1334490231323002
 51
270.0
  0
LINE
  5
133E0
  8
0
 10
4885.5024785140703898
 20
151.5876061178940972
 30
0.0
 11
4885.5086620371030222
 21
151.6309172545564081
 31
0.0
  0
ARC
  5
133E1
  8
0
 10
4885.4946578174858587
 20
151.5887226773101872
 30
0.0
 40
0.0079
 50
270.0
 51
351.8748010708845868
  0
LINE
  5
133E2
  8
0
 10
4885.4025013677510287
 20
151.5808226773102092
 30
0.0
 11
4885.4946578174858587
 21
151.5808226773102092
 31
0.0
  0
LINE
  5
133E3
  8
0
 10
4885.3765031342027214
 20
151.6309172545564081
 30
0.0
 11
4885.3826931818512094
 21
151.5876049917933983
 31
0.0
  0
ARC
  5
133E4
  8
0
 10
4885.390513717579779
 20
151.5887226773101872
 30
0.0
 40
0.0079
 50
188.1334490231323002
 51
270.0
  0
LINE
  5
133E5
  8
0
 10
4885.3645966679041521
 20
151.6309172545564081
 30
0.0
 11
4885.3707867155508211
 21
151.5876049917933983
 31
0.0
  0
ARC
  5
133E6
  8
0
 10
4885.3786072512793908
 20
151.5887226773101872
 30
0.0
 40
0.0079
 50
188.1334490231323002
 51
270.0
  0
LINE
  5
133E7
  8
0
 10
4885.3527867834027347
 20
151.6309172545564081
 30
0.0
 11
4885.3589768310512227
 21
151.5876049917933983
 31
0.0
  0
ARC
  5
133E8
  8
0
 10
4885.3667973667797924
 20
151.5887226773101872
 30
0.0
 40
0.0079
 50
188.1334490231323002
 51
270.0
  0
LINE
  5
133E9
  8
0
 10
4885.3786072512793908
 20
151.5808226773102092
 30
0.0
 11
4885.390513717579779
 21
151.5808226773102092
 31
0.0
  0
LINE
  5
133EA
  8
0
 10
4885.3667973667797924
 20
151.5808226773102092
 30
0.0
 11
4885.3771802434657729
 21
151.5809526291313887
 31
0.0
  0
LINE
  5
133EB
  8
0
 10
4885.390513717579779
 20
151.5808226773102092
 30
0.0
 11
4885.3996806524346539
 21
151.581343411418203
 31
0.0
  0
LINE
  5
133EC
  8
0
 10
4885.3055472450041634
 20
151.6309172545564081
 30
0.0
 11
4885.3117372926508324
 21
151.5876049917933983
 31
0.0
  0
ARC
  5
133ED
  8
0
 10
4885.3195578283794021
 20
151.5887226773101872
 30
0.0
 40
0.0079
 50
188.1334490231323002
 51
270.0
  0
LINE
  5
133EE
  8
0
 10
4885.2937373604027016
 20
151.6309172545564081
 30
0.0
 11
4885.2999274080511896
 21
151.5876049917933983
 31
0.0
  0
ARC
  5
133EF
  8
0
 10
4885.3077479437797592
 20
151.5887226773101872
 30
0.0
 40
0.0079
 50
188.1334490231323002
 51
270.0
  0
LINE
  5
133F0
  8
0
 10
4885.2819996476027882
 20
151.6309172545564081
 30
0.0
 11
4885.2881896952512761
 21
151.5876049917933983
 31
0.0
  0
ARC
  5
133F1
  8
0
 10
4885.2960102309798458
 20
151.5887226773101872
 30
0.0
 40
0.0079
 50
188.1334490231323002
 51
270.0
  0
LINE
  5
133F2
  8
0
 10
4885.2702689956040558
 20
151.6309172545564081
 30
0.0
 11
4885.2764590432498153
 21
151.5876049917933983
 31
0.0
  0
ARC
  5
133F3
  8
0
 10
4885.284279578980204
 20
151.5887226773101872
 30
0.0
 40
0.0079
 50
188.1334490231323002
 51
270.0
  0
LINE
  5
133F4
  8
0
 10
4885.3195578283794021
 20
151.5808226773102092
 30
0.0
 11
4885.3647971795744525
 21
151.5810800827806872
 31
0.0
  0
LINE
  5
133F5
  8
0
 10
4885.3077479437797592
 20
151.5808226773102092
 30
0.0
 11
4885.3183969781339329
 21
151.5809084321957982
 31
0.0
  0
LINE
  5
133F6
  8
0
 10
4885.2960102309798458
 20
151.5808226773102092
 30
0.0
 11
4885.3057615887046268
 21
151.5810764760626057
 31
0.0
  0
LINE
  5
133F7
  8
0
 10
4885.284279578980204
 20
151.5808226773102092
 30
0.0
 11
4885.2951519344742337
 21
151.5808694405820916
 31
0.0
  0
LINE
  5
133F8
  8
0
 10
4886.1999340260026656
 20
151.6309172545564081
 30
0.0
 11
4886.2061240736520631
 21
151.5876049917933983
 31
0.0
  0
ARC
  5
133F9
  8
0
 10
4886.2139446093797233
 20
151.5887226773101872
 30
0.0
 40
0.0079
 50
188.1334490231323002
 51
270.0
  0
LINE
  5
133FA
  8
0
 10
4886.2554272580036923
 20
151.6309172545564081
 30
0.0
 11
4886.2616173056521802
 21
151.5876049917933983
 31
0.0
  0
ARC
  5
133FB
  8
0
 10
4886.2694378413798404
 20
151.5887226773101872
 30
0.0
 40
0.0079
 50
188.1334490231323002
 51
270.0
  0
LINE
  5
133FC
  8
0
 10
4886.4872415757035924
 20
151.6309172545564081
 30
0.0
 11
4886.4934316233511709
 21
151.5876049917933983
 31
0.0
  0
ARC
  5
133FD
  8
0
 10
4886.5012521590797405
 20
151.5887226773101872
 30
0.0
 40
0.0079
 50
188.1334490231323002
 51
270.0
  0
LINE
  5
133FE
  8
0
 10
4886.6353175319027287
 20
151.6309172545564081
 30
0.0
 11
4886.6415075795512166
 21
151.5876049917933983
 31
0.0
  0
ARC
  5
133FF
  8
0
 10
4886.6493281152797863
 20
151.5887226773101872
 30
0.0
 40
0.0079
 50
188.1334490231323002
 51
270.0
  0
LINE
  5
13400
  8
0
 10
4886.7901401818044178
 20
151.6309172545564081
 30
0.0
 11
4886.7963302294510868
 21
151.5876049917933983
 31
0.0
  0
ARC
  5
13401
  8
0
 10
4886.804150765178747
 20
151.5887226773101872
 30
0.0
 40
0.0079
 50
188.1334490231323002
 51
270.0
  0
LINE
  5
13402
  8
0
 10
4886.813759951002794
 20
151.6309172545564081
 30
0.0
 11
4886.8199499986521914
 21
151.5876049917933983
 31
0.0
  0
ARC
  5
13403
  8
0
 10
4886.8277705343798516
 20
151.5887226773101872
 30
0.0
 40
0.0079
 50
188.1334490231323002
 51
270.0
  0
LINE
  5
13404
  8
0
 10
4886.9893907169025624
 20
151.6309172545564081
 30
0.0
 11
4886.9955807645510504
 21
151.5876049917933983
 31
0.0
  0
ARC
  5
13405
  8
0
 10
4887.00340130027962
 20
151.5887226773101872
 30
0.0
 40
0.0079
 50
188.1334490231323002
 51
270.0
  0
LINE
  5
13406
  8
0
 10
4887.0297903975042573
 20
151.6309172545564081
 30
0.0
 11
4887.0359804451509262
 21
151.5876049917933983
 31
0.0
  0
ARC
  5
13407
  8
0
 10
4887.0438009808804054
 20
151.5887226773101872
 30
0.0
 40
0.0079
 50
188.1334490231323002
 51
270.0
  0
LINE
  5
13408
  8
0
 10
4887.0712329120042341
 20
151.6309172545564081
 30
0.0
 11
4887.0774229596509031
 21
151.5876049917933983
 31
0.0
  0
ARC
  5
13409
  8
0
 10
4887.0852434953803822
 20
151.5887226773101872
 30
0.0
 40
0.0079
 50
188.1334490231323002
 51
270.0
  0
LINE
  5
1340A
  8
0
 10
4887.4048349224040066
 20
151.6309172545564081
 30
0.0
 11
4887.4110249700506756
 21
151.5876049917933983
 31
0.0
  0
ARC
  5
1340B
  8
0
 10
4887.4188455057810643
 20
151.5887226773101872
 30
0.0
 40
0.0079
 50
188.1334490231323002
 51
270.0
  0
LINE
  5
1340C
  8
0
 10
4887.5071530204040755
 20
151.6309172545564081
 30
0.0
 11
4887.513343068049835
 21
151.5876049917933983
 31
0.0
  0
ARC
  5
1340D
  8
0
 10
4887.5211636037802236
 20
151.5887226773101872
 30
0.0
 40
0.0079
 50
188.1334490231323002
 51
270.0
  0
LINE
  5
1340E
  8
0
 10
4887.7015008444041086
 20
151.6309172545564081
 30
0.0
 11
4887.7076908920498681
 21
151.5876049917933983
 31
0.0
  0
ARC
  5
1340F
  8
0
 10
4887.7155114277811663
 20
151.5887226773101872
 30
0.0
 40
0.0079
 50
188.1334490231323002
 51
270.0
  0
LINE
  5
13410
  8
0
 10
4887.7683246408041668
 20
151.6309172545564081
 30
0.0
 11
4887.7745146884508358
 21
151.5876049917933983
 31
0.0
  0
ARC
  5
13411
  8
0
 10
4887.782335224180315
 20
151.5887226773101872
 30
0.0
 40
0.0079
 50
188.1334490231323002
 51
270.0
  0
LINE
  5
13412
  8
0
 10
4888.2519457473026705
 20
151.6309172545564081
 30
0.0
 11
4888.2581357949511585
 21
151.5876049917933983
 31
0.0
  0
ARC
  5
13413
  8
0
 10
4888.2659563306797281
 20
151.5887226773101872
 30
0.0
 40
0.0079
 50
188.1334490231323002
 51
270.0
  0
LINE
  5
13414
  8
0
 10
4888.2991972656027428
 20
151.6309172545564081
 30
0.0
 11
4888.3053873132512308
 21
151.5876049917933983
 31
0.0
  0
ARC
  5
13415
  8
0
 10
4888.3132078489798005
 20
151.5887226773101872
 30
0.0
 40
0.0079
 50
188.1334490231323002
 51
270.0
  0
LINE
  5
13416
  8
0
 10
4888.3786472560041148
 20
151.6309172545564081
 30
0.0
 11
4888.3848373036498742
 21
151.5876049917933983
 31
0.0
  0
ARC
  5
13417
  8
0
 10
4888.3926578393802629
 20
151.5887226773101872
 30
0.0
 40
0.0079
 50
188.1334490231323002
 51
270.0
  0
LINE
  5
13418
  8
0
 10
4888.6032139858034498
 20
151.6309172545564081
 30
0.0
 11
4888.6094040334510282
 21
151.5876049917933983
 31
0.0
  0
ARC
  5
13419
  8
0
 10
4888.6172245691795979
 20
151.5887226773101872
 30
0.0
 40
0.0079
 50
188.1334490231323002
 51
270.0
  0
LINE
  5
1341A
  8
0
 10
4888.6276731581037893
 20
151.6309172545564081
 30
0.0
 11
4888.6338632057513678
 21
151.5876049917933983
 31
0.0
  0
ARC
  5
1341B
  8
0
 10
4888.6416837414799375
 20
151.5887226773101872
 30
0.0
 40
0.0079
 50
188.1334490231323002
 51
270.0
  0
LINE
  5
1341C
  8
0
 10
4886.3692476175001502
 20
151.5876061178940972
 30
0.0
 11
4886.3754311405318731
 21
151.6309172545564081
 31
0.0
  0
ARC
  5
1341D
  8
0
 10
4886.3614269209147096
 20
151.5887226773101872
 30
0.0
 40
0.0079
 50
270.0
 51
351.8748010708845868
  0
LINE
  5
1341E
  8
0
 10
4886.6008830664986817
 20
151.5876061178940972
 30
0.0
 11
4886.6070665895313141
 21
151.6309172545564081
 31
0.0
  0
ARC
  5
1341F
  8
0
 10
4886.5930623699141506
 20
151.5887226773101872
 30
0.0
 40
0.0079
 50
270.0
 51
351.8748010708845868
  0
LINE
  5
13420
  8
0
 10
4886.7493052615991473
 20
151.5876061178940972
 30
0.0
 11
4886.7554887846317797
 21
151.6309172545564081
 31
0.0
  0
ARC
  5
13421
  8
0
 10
4886.7414845650137067
 20
151.5887226773101872
 30
0.0
 40
0.0079
 50
270.0
 51
351.8748010708845868
  0
LINE
  5
13422
  8
0
 10
4886.9277476806992127
 20
151.5876061178940972
 30
0.0
 11
4886.9339312037309355
 21
151.6309172545564081
 31
0.0
  0
ARC
  5
13423
  8
0
 10
4886.9199269841146815
 20
151.5887226773101872
 30
0.0
 40
0.0079
 50
270.0
 51
351.8748010708845868
  0
LINE
  5
13424
  8
0
 10
4887.1850567904002673
 20
151.5876061178940972
 30
0.0
 11
4887.1912403134301712
 21
151.6309172545564081
 31
0.0
  0
ARC
  5
13425
  8
0
 10
4887.1772360938148267
 20
151.5887226773101872
 30
0.0
 40
0.0079
 50
270.0
 51
351.8748010708845868
  0
LINE
  5
13426
  8
0
 10
4887.00340130027962
 20
151.5808226773102092
 30
0.0
 11
4887.1772360938148267
 21
151.5808226773102092
 31
0.0
  0
LINE
  5
13427
  8
0
 10
4886.7414845650137067
 20
151.5808226773102092
 30
0.0
 11
4886.6493281152797863
 21
151.5808226773102092
 31
0.0
  0
LINE
  5
13428
  8
0
 10
4886.804150765178747
 20
151.5808226773102092
 30
0.0
 11
4886.9199269841146815
 21
151.5808226773102092
 31
0.0
  0
LINE
  5
13429
  8
0
 10
4886.5012521590797405
 20
151.5808226773102092
 30
0.0
 11
4886.5930623699141506
 21
151.5808226773102092
 31
0.0
  0
LINE
  5
1342A
  8
0
 10
4886.2139446093797233
 20
151.5808226773102092
 30
0.0
 11
4886.3614269209147096
 21
151.5808226773102092
 31
0.0
  0
LINE
  5
1342B
  8
0
 10
4887.6211424439716211
 20
151.5876061178940972
 30
0.0
 11
4887.6273259670042535
 21
151.6309172545564081
 31
0.0
  0
ARC
  5
1342C
  8
0
 10
4887.61332174738709
 20
151.5887226773101872
 30
0.0
 40
0.0079
 50
270.0
 51
351.8748010708845868
  0
LINE
  5
1342D
  8
0
 10
4887.6703780272719086
 20
151.5876061178940972
 30
0.0
 11
4887.676561550302722
 21
151.6309172545564081
 31
0.0
  0
ARC
  5
1342E
  8
0
 10
4887.6625573306873775
 20
151.5887226773101872
 30
0.0
 40
0.0079
 50
270.0
 51
351.8748010708845868
  0
LINE
  5
1342F
  8
0
 10
4887.8824871089718727
 20
151.5876061178940972
 30
0.0
 11
4887.8886706320035955
 21
151.6309172545564081
 31
0.0
  0
ARC
  5
13430
  8
0
 10
4887.8746664123873416
 20
151.5887226773101872
 30
0.0
 40
0.0079
 50
270.0
 51
351.8748010708845868
  0
LINE
  5
13431
  8
0
 10
4887.9944236969713529
 20
151.5876061178940972
 30
0.0
 11
4888.0006072200030758
 21
151.6309172545564081
 31
0.0
  0
ARC
  5
13432
  8
0
 10
4887.9866030003868218
 20
151.5887226773101872
 30
0.0
 40
0.0079
 50
270.0
 51
351.8748010708845868
  0
LINE
  5
13433
  8
0
 10
4888.4926554959720306
 20
151.5876061178940972
 30
0.0
 11
4888.498839019002844
 21
151.6309172545564081
 31
0.0
  0
ARC
  5
13434
  8
0
 10
4888.48483479938659
 20
151.5887226773101872
 30
0.0
 40
0.0079
 50
270.0
 51
351.8748010708845868
  0
LINE
  5
13435
  8
0
 10
4888.7418435965719254
 20
151.5876061178940972
 30
0.0
 11
4888.7480271196027388
 21
151.6309172545564081
 31
0.0
  0
ARC
  5
13436
  8
0
 10
4888.7340228999883038
 20
151.5887226773101872
 30
0.0
 40
0.0079
 50
270.0
 51
351.8748010708845868
  0
LINE
  5
13437
  8
0
 10
4888.8455391230718305
 20
151.5876061178940972
 30
0.0
 11
4888.8517226461026439
 21
151.6309172545564081
 31
0.0
  0
ARC
  5
13438
  8
0
 10
4888.8377184264872994
 20
151.5887226773101872
 30
0.0
 40
0.0079
 50
270.0
 51
351.8748010708845868
  0
LINE
  5
13439
  8
0
 10
4888.2659563306797281
 20
151.5808226773102092
 30
0.0
 11
4888.48483479938659
 21
151.5808226773102092
 31
0.0
  0
LINE
  5
1343A
  8
0
 10
4888.6172245691795979
 20
151.5808226773102092
 30
0.0
 11
4888.8377184264872994
 21
151.5808226773102092
 31
0.0
  0
LINE
  5
1343B
  8
0
 10
4887.4188455057810643
 20
151.5808226773102092
 30
0.0
 11
4887.6625573306873775
 21
151.5808226773102092
 31
0.0
  0
LINE
  5
1343C
  8
0
 10
4887.7155114277811663
 20
151.5808226773102092
 30
0.0
 11
4887.9866030003868218
 21
151.5808226773102092
 31
0.0
  0
LINE
  5
1343D
  8
0
 10
4889.0423352709040046
 20
151.6309172545564081
 30
0.0
 11
4889.049917653985176
 21
151.5851655645853953
 31
0.0
  0
ARC
  5
1343E
  8
0
 10
4889.0576981165768302
 20
151.5865346525530981
 30
0.0
 40
0.0079
 50
189.9798760876996084
 51
271.846427064567024
  0
LINE
  5
1343F
  8
0
 10
4889.1578419429370115
 20
151.5886458889106052
 30
0.0
 11
4889.1622246794731836
 21
151.6309172545564081
 31
0.0
  0
ARC
  5
13440
  8
0
 10
4889.1499893307400271
 20
151.5895098806280998
 30
0.0
 40
0.0079
 50
271.846427064567024
 51
353.721228135450076
  0
LINE
  5
13441
  8
0
 10
4889.0579526597439326
 20
151.5786387543915907
 30
0.0
 11
4889.1502438739071295
 21
151.5816139824665925
 31
0.0
  0
LINE
  5
13442
  8
0
 10
4888.9832622691028519
 20
151.6309172545564081
 30
0.0
 11
4888.9911182456007737
 21
151.5860112695382043
 31
0.0
  0
ARC
  5
13443
  8
0
 10
4888.9991376819807556
 20
151.5875094970774057
 30
0.0
 40
0.0081581888684941
 50
190.5822642563261979
 51
274.8065845620981804
  0
LINE
  5
13444
  8
0
 10
4888.9998212758946465
 20
151.5793799986321062
 30
0.0
 11
4889.0527510033452927
 21
151.5803754260859932
 31
0.0
  0
LINE
  5
13445
  8
0
 10
4889.4529896748035753
 20
151.6309172545564081
 30
0.0
 11
4889.4613795999175636
 21
151.5802928995740047
 31
0.0
  0
ARC
  5
13446
  8
0
 10
4889.4683525204773105
 20
151.5865346525530981
 30
0.0
 40
0.0079
 50
189.9798760876996084
 51
271.846427064567024
  0
LINE
  5
13447
  8
0
 10
4889.5684963468365822
 20
151.5886458889106052
 30
0.0
 11
4889.5728790833736639
 21
151.6309172545564081
 31
0.0
  0
ARC
  5
13448
  8
0
 10
4889.5606437346414168
 20
151.5895098806280998
 30
0.0
 40
0.0079
 50
271.846427064567024
 51
353.721228135450076
  0
LINE
  5
13449
  8
0
 10
4889.4686070636444128
 20
151.5786387543915907
 30
0.0
 11
4889.5608982778067002
 21
151.5816139824665925
 31
0.0
  0
LINE
  5
1344A
  8
0
 10
4889.4224112925030568
 20
151.6309172545564081
 30
0.0
 11
4889.4302672690000691
 21
151.5860112695382043
 31
0.0
  0
ARC
  5
1344B
  8
0
 10
4889.438286705380051
 20
151.5875094970774057
 30
0.0
 40
0.0081581888684941
 50
190.5822642563261979
 51
274.8065845620981804
  0
LINE
  5
1344C
  8
0
 10
4889.4389702992957609
 20
151.5793799986321062
 30
0.0
 11
4889.4634054072457729
 21
151.5803754260859932
 31
0.0
  0
LINE
  5
1344D
  8
0
 10
4889.5826263751041552
 20
151.6309172545564081
 30
0.0
 11
4889.5902087581853266
 21
151.5851655645853953
 31
0.0
  0
ARC
  5
1344E
  8
0
 10
4889.5979892207769808
 20
151.5865346525530981
 30
0.0
 40
0.0079
 50
189.9798760876996084
 51
271.846427064567024
  0
LINE
  5
1344F
  8
0
 10
4889.6981330471362526
 20
151.5886458889106052
 30
0.0
 11
4889.7025157836742437
 21
151.6309172545564081
 31
0.0
  0
ARC
  5
13450
  8
0
 10
4889.6902804349401777
 20
151.5895098806280998
 30
0.0
 40
0.0079
 50
271.846427064567024
 51
353.721228135450076
  0
LINE
  5
13451
  8
0
 10
4889.5982437639431737
 20
151.5786387543915907
 30
0.0
 11
4889.69053497810728
 21
151.5816139824665925
 31
0.0
  0
LINE
  5
13452
  8
0
 10
4884.7128517824039591
 20
151.5876507499563957
 30
0.0
 11
4884.7190769070111855
 21
151.6309172545564081
 31
0.0
  0
ARC
  5
13453
  8
0
 10
4884.7050608041272426
 20
151.5887912706882048
 30
0.0
 40
0.0078740161317787
 50
270.0000020115061261
 51
351.6716312167487786
  0
LINE
  5
13454
  8
0
 10
4885.3174209148492082
 20
151.6304815323564128
 30
0.0
 11
4885.3236109624967867
 21
151.587169269593403
 31
0.0
  0
ARC
  5
13455
  8
0
 10
4885.3314314982262658
 20
151.5882869551101919
 30
0.0
 40
0.0079
 50
188.1334490231323002
 51
249.7616557545327112
  0
LINE
  5
13456
  8
0
 10
4885.340976898703957
 20
151.6309172545564081
 30
0.0
 11
4885.3471669463524449
 21
151.5876049917933983
 31
0.0
  0
ARC
  5
13457
  8
0
 10
4885.3549874820801051
 20
151.5887226773101872
 30
0.0
 40
0.0079
 50
188.1334490231323002
 51
257.3505978120047075
  0
LINE
  5
13458
  8
0
 10
4884.7050608041272426
 20
151.5809172545563968
 30
0.0
 11
4884.6127835575643985
 21
151.5809172545563968
 31
0.0
  0
ARC
  5
13459
  8
0
 10
4884.6128053054935663
 20
151.5887914711773021
 30
0.0
 40
0.0078742466537862
 50
229.5894656835093031
 51
269.8417542240829903
  0
LINE
  5
1345A
  8
0
 10
4886.0714634839132486
 20
151.6309172453917995
 30
0.0
 11
4886.0776535315608271
 21
151.5876049826287897
 31
0.0
  0
ARC
  5
1345B
  8
0
 10
4886.0854740672893968
 20
151.588722668145607
 30
0.0
 40
0.0079
 50
188.1334490231323002
 51
270.0
  0
LINE
  5
1345C
  8
0
 10
4886.1852873623092819
 20
151.5876061087294886
 30
0.0
 11
4886.1914708853410048
 21
151.6309172453917995
 31
0.0
  0
ARC
  5
1345D
  8
0
 10
4886.1774666657238413
 20
151.588722668145607
 30
0.0
 40
0.0079
 50
270.0
 51
351.8748010708845868
  0
LINE
  5
1345E
  8
0
 10
4886.0854740672893968
 20
151.5808226681454869
 30
0.0
 11
4886.1774666657238413
 21
151.5808226681454869
 31
0.0
  0
LINE
  5
1345F
  8
0
 10
4886.0596535979730106
 20
151.6309172545564081
 30
0.0
 11
4886.0658436456205891
 21
151.5876049917933983
 31
0.0
  0
ARC
  5
13460
  8
0
 10
4886.0736641813491588
 20
151.5887226773101872
 30
0.0
 40
0.0079
 50
188.1334490231323002
 51
270.0
  0
LINE
  5
13461
  8
0
 10
4886.0736641813491588
 20
151.5808226773102092
 30
0.0
 11
4886.0854620339741814
 21
151.5808226773102092
 31
0.0
  0
LINE
  5
13462
  8
0
 10
4886.1786854842930552
 20
151.5809172545563968
 30
0.0
 11
4886.2127258495029309
 21
151.5809172545563968
 31
0.0
  0
ARC
  5
13463
  8
0
 10
4886.3876454473393096
 20
151.5883544234864928
 30
0.0
 40
0.0079748010437638
 50
188.5027762720798989
 51
259.0583153495124975
  0
ARC
  5
13464
  8
0
 10
4886.4802076669120652
 20
151.5882937351618125
 30
0.0
 40
0.0073330258098854
 50
264.2979262771468143
 51
358.69925438957398
  0
LINE
  5
13465
  8
0
 10
4886.3861317519349541
 20
151.5805245973128024
 30
0.0
 11
4886.4794790885298426
 21
151.5809969933497996
 31
0.0
  0
LINE
  5
13466
  8
0
 10
4886.3797582997249265
 20
151.5871752906666075
 30
0.0
 11
4886.3743103044980671
 21
151.6230666033393959
 31
0.0
  0
LINE
  5
13467
  8
0
 10
4886.4875388031050534
 20
151.5881272729563989
 30
0.0
 11
4886.490355585974612
 21
151.609128273474596
 31
0.0
  0
LINE
  5
13468
  8
0
 10
4886.5942811297909429
 20
151.5809172545563968
 30
0.0
 11
4886.6481093554039035
 21
151.5809172545563968
 31
0.0
  0
LINE
  5
13469
  8
0
 10
4884.6729532469025798
 20
153.1663503254563921
 30
0.0
 11
4886.1098918270035938
 21
153.1663503254563921
 31
0.0
  0
LINE
  5
1346A
  8
0
 10
4886.1098918270035938
 20
153.1663503254563921
 30
0.0
 11
4886.1098918313773538
 21
152.1033581994564088
 31
0.0
  0
LINE
  5
1346B
  8
0
 10
4884.6729532469025798
 20
153.1663503254563921
 30
0.0
 11
4884.6728689001138264
 21
152.1033581994564088
 31
0.0
  0
LINE
  5
1346C
  8
0
 10
4885.1971143771042989
 20
153.1663503254563921
 30
0.0
 11
4885.1971143771042989
 21
152.6939093805563914
 31
0.0
  0
LINE
  5
1346D
  8
0
 10
4885.1971143771042989
 20
152.6939093805563914
 30
0.0
 11
4885.6047977974039895
 21
152.6939093805563914
 31
0.0
  0
LINE
  5
1346E
  8
0
 10
4885.6047977974039895
 20
152.6939093805563914
 30
0.0
 11
4885.6047977974039895
 21
153.1663503254563921
 31
0.0
  0
LINE
  5
1346F
  8
0
 10
4884.8944195796038912
 20
154.3364841837434085
 30
0.0
 11
4884.8944195800777379
 21
153.605307390456403
 31
0.0
  0
LINE
  5
13470
  8
0
 10
4885.8844195796027634
 20
154.3364841837563972
 30
0.0
 11
4885.8844195796027634
 21
153.605307390456403
 31
0.0
  0
ARC
  5
13471
  8
0
 10
4885.8644195796041458
 20
154.3364841837563972
 30
0.0
 40
0.02
 50
0.0
 51
90.0
  0
LINE
  5
13472
  8
0
 10
4884.9144195796043277
 20
154.3564841837564074
 30
0.0
 11
4885.8644195796041458
 21
154.3564841837564074
 31
0.0
  0
ARC
  5
13473
  8
0
 10
4884.9144195796043277
 20
154.3364841837563972
 30
0.0
 40
0.02
 50
90.0
 51
180.0000000371497038
  0
LINE
  5
13474
  8
0
 10
4885.0362529131261908
 20
153.3928770750563899
 30
0.0
 11
4885.7425862460813732
 21
153.3928770750563899
 31
0.0
  0
LINE
  5
13475
  8
0
 10
4885.7249379743207101
 20
153.2741745157564139
 30
0.0
 11
4885.0539011848859445
 21
153.2741745157564139
 31
0.0
  0
ARC
  5
13476
  8
0
 10
4885.1244195786357523
 20
153.60530738934699
 30
0.0
 40
0.2299999985582957
 50
179.9999997236367051
 51
247.4596896993172948
  0
ARC
  5
13477
  8
0
 10
4885.0094195799583758
 20
153.3282243705021983
 30
0.0
 40
0.0699999998223839
 50
309.4534794716710735
 51
67.459689621908197
  0
ARC
  5
13478
  8
0
 10
4885.3894195609400413
 20
152.8664842015475926
 30
0.0
 40
0.5279999744025698
 50
129.4534794716711872
 51
145.3941147246108017
  0
ARC
  5
13479
  8
0
 10
4885.6544195797441716
 20
153.6053073904134862
 30
0.0
 40
0.22999999986086
 50
292.5403103894843753
 51
0.0000000107005055
  0
ARC
  5
1347A
  8
0
 10
4885.7694195792646497
 20
153.3282243705000099
 30
0.0
 40
0.0699999998298201
 50
112.5403103882438955
 51
230.5465203882876892
  0
ARC
  5
1347B
  8
0
 10
4885.3894195898928956
 20
152.8664841936520133
 30
0.0
 40
0.5279999858209214
 50
34.6058854613869968
 51
50.5465203882876395
  0
ARC
  5
1347C
  8
0
 10
4885.3963353221697616
 20
153.7232188910475941
 30
0.0
 40
0.5073944086193722
 50
90.0702549097465095
 51
111.1344715871497044
  0
ARC
  5
1347D
  8
0
 10
4885.2226718101082952
 20
154.1724734438637938
 30
0.0
 40
0.0257423883309376
 50
111.1344715871497044
 51
157.4580318917911939
  0
ARC
  5
1347E
  8
0
 10
5206.0729485745923739
 20
153.8938249270009067
 30
0.0
 40
320.8741821194926729
 50
179.9484819394751014
 51
180.0515181348226008
  0
ARC
  5
1347F
  8
0
 10
4885.3098502033535624
 20
153.6092204991701067
 30
0.0
 40
0.1110230183619889
 50
182.0198608600809109
 51
232.9546284199452089
  0
ARC
  5
13480
  8
0
 10
4885.3734750418652766
 20
153.6879069745781123
 30
0.0
 40
0.2121848173143546
 50
232.0423643628155048
 51
258.8851094999930069
  0
ARC
  5
13481
  8
0
 10
4885.3952126873200541
 20
153.7720461139878978
 30
0.0
 40
0.2989799113944622
 50
257.9058295685827034
 51
270.0959106158803138
  0
ARC
  5
13482
  8
0
 10
4885.3950910092489721
 20
153.7232188910477078
 30
0.0
 40
0.5073944086193042
 50
68.8655284128502529
 51
89.9297450904619495
  0
ARC
  5
13483
  8
0
 10
4885.5687545213122576
 20
154.1724734438637938
 30
0.0
 40
0.0257423883309376
 50
22.5419681082087813
 51
68.8655284128502529
  0
ARC
  5
13484
  8
0
 10
4564.7184777568281788
 20
153.8938249270009067
 30
0.0
 40
320.8741821194926729
 50
359.9484818651774276
 51
0.0515180605248785
  0
ARC
  5
13485
  8
0
 10
4885.4815761280669903
 20
153.6092204991701067
 30
0.0
 40
0.1110230183619889
 50
307.0453715800549048
 51
357.9801391399191175
  0
ARC
  5
13486
  8
0
 10
4885.4179512895543667
 20
153.6879069745781123
 30
0.0
 40
0.2121848173143546
 50
281.1148905000069931
 51
307.9576356371845236
  0
ARC
  5
13487
  8
0
 10
4885.3962136441296025
 20
153.772046113811399
 30
0.0
 40
0.2989799112160214
 50
269.9040896095488051
 51
282.0941704332803965
  0
LINE
  5
13488
  8
0
 10
4885.198896167017665
 20
154.1823420482564018
 30
0.0
 11
4885.5925301654833675
 21
154.1823413053085119
 31
0.0
  0
LINE
  5
13489
  8
0
 10
4884.2055786589262425
 20
160.191484183756387
 30
0.0
 11
4886.5732605002813216
 21
160.191484183756387
 31
0.0
  0
ARC
  5
1348A
  8
0
 10
4886.5732605002813216
 20
160.1764841837564006
 30
0.0
 40
0.015
 50
357.5369999834447867
 51
90.0
  0
LINE
  5
1348B
  8
0
 10
4886.5362132817826932
 20
159.9014841837563949
 30
0.0
 11
4884.2426258774239614
 21
159.9014841837563949
 31
0.0
  0
ARC
  5
1348C
  8
0
 10
4886.4677999384402938
 20
159.8664841837563984
 30
0.0
 40
0.035
 50
90.0
 51
170.9780000433277962
  0
ARC
  5
1348D
  8
0
 10
4884.3110392207681798
 20
159.8664841837563984
 30
0.0
 40
0.035
 50
9.0219999566722056
 51
90.0
  0
LINE
  5
1348E
  8
0
 10
4886.3785621337437988
 20
159.7534841837563988
 30
0.0
 11
4884.4002770254637653
 21
159.7534841837563988
 31
0.0
  0
LINE
  5
1348F
  8
0
 10
4884.9834195797038774
 20
159.7534841837563988
 30
0.0
 11
4884.9834195797038774
 21
154.3564841837564074
 31
0.0
  0
LINE
  5
13490
  8
0
 10
4886.5882466430030036
 20
160.1758395704351869
 30
0.0
 11
4886.5781744814039484
 21
159.9416792664571005
 31
0.0
  0
LINE
  5
13491
  8
0
 10
4884.1905925162045605
 20
160.1758395704351869
 30
0.0
 11
4884.192446228848894
 21
160.1327439636058045
 31
0.0
  0
LINE
  5
13492
  8
0
 10
4884.1999609046797559
 20
159.9580407720611106
 30
0.0
 11
4884.2006646778036156
 21
159.9416792664571005
 31
0.0
  0
ARC
  5
13493
  8
0
 10
4884.2055786589262425
 20
160.1764841837564006
 30
0.0
 40
0.015
 50
90.0
 51
182.4630000165421961
  0
ARC
  5
13494
  8
0
 10
4886.5362132817826932
 20
159.9434841837563965
 30
0.0
 40
0.042
 50
270.0
 51
357.5369999834430814
  0
ARC
  5
13495
  8
0
 10
4884.2426258774239614
 20
159.9434841837563965
 30
0.0
 40
0.042
 50
182.4630000165535932
 51
270.0
  0
ARC
  5
13496
  8
0
 10
4883.0401743393822471
 20
159.9956669746150908
 30
0.0
 40
1.160396746016376
 50
358.141841948875026
 51
6.7841580842395013
  0
LINE
  5
13497
  8
0
 10
4884.3456062078157629
 20
159.8719726631811113
 30
0.0
 11
4884.3587966410050285
 21
159.7888980084466937
 31
0.0
  0
LINE
  5
13498
  8
0
 10
4886.4332329513918012
 20
159.8719726631811113
 30
0.0
 11
4886.4200425182034451
 21
159.7888980084466937
 31
0.0
  0
ARC
  5
13499
  8
0
 10
4886.3785621337437988
 20
159.7954841837564004
 30
0.0
 40
0.042
 50
270.0
 51
350.9780000433357827
  0
ARC
  5
1349A
  8
0
 10
4884.4002770254637653
 20
159.7954841837564004
 30
0.0
 40
0.042
 50
189.0219999566689921
 51
270.0
  0
LINE
  5
1349B
  8
0
 10
4885.7954195795036867
 20
159.7534841837563988
 30
0.0
 11
4885.7954195795036867
 21
154.3564841837564074
 31
0.0
  0
ENDSEC
  0
EOF
