  0
SECTION
  2
HEADER
  9
$ACADVER
  1
AC1009
  9
$INSBASE
 10
4896.431527372356868
 20
158.5242255944500869
 30
0.0
  9
$EXTMIN
 10
4891.2598131647928312
 20
149.910304301806093
 30
-0.0000000349181948
  9
$EXTMAX
 10
4901.730714401404839
 20
158.5339020311855904
 30
0.0000000814935746
  9
$LIMMIN
 10
0.0
 20
0.0
  9
$LIMMAX
 10
11.6929133858000007
 20
8.2677165353999982
  9
$ORTHOMODE
 70
     0
  9
$REGENMODE
 70
     1
  9
$FILLMODE
 70
     1
  9
$QTEXTMODE
 70
     0
  9
$MIRRTEXT
 70
     0
  9
$DRAGMODE
 70
     2
  9
$LTSCALE
 40
0.6431102362
  9
$OSMODE
 70
  4095
  9
$ATTMODE
 70
     1
  9
$TEXTSIZE
 40
0.2
  9
$TRACEWID
 40
0.05
  9
$TEXTSTYLE
  7
STANDARD
  9
$CLAYER
  8
0
  9
$CELTYPE
  6
BYLAYER
  9
$CECOLOR
 62
   256
  9
$DIMSCALE
 40
1.0
  9
$DIMASZ
 40
0.1875
  9
$DIMEXO
 40
0.0625
  9
$DIMDLI
 40
0.4443307087
  9
$DIMRND
 40
0.0
  9
$DIMDLE
 40
0.0
  9
$DIMEXE
 40
0.125
  9
$DIMTP
 40
0.01
  9
$DIMTM
 40
0.01
  9
$DIMTXT
 40
2.0
  9
$DIMCEN
 40
0.1052362205
  9
$DIMTSZ
 40
0.0
  9
$DIMTOL
 70
     1
  9
$DIMLIM
 70
     0
  9
$DIMTIH
 70
     1
  9
$DIMTOH
 70
     1
  9
$DIMSE1
 70
     0
  9
$DIMSE2
 70
     0
  9
$DIMTAD
 70
     0
  9
$DIMZIN
 70
     0
  9
$DIMBLK
  1

  9
$DIMASO
 70
     1
  9
$DIMSHO
 70
     1
  9
$DIMPOST
  1
\X
  9
$DIMAPOST
  1

  9
$DIMALT
 70
     1
  9
$DIMALTD
 70
     2
  9
$DIMALTF
 40
25.3999999999999986
  9
$DIMLFAC
 40
1.0
  9
$DIMTOFL
 70
     0
  9
$DIMTVP
 40
0.0
  9
$DIMTIX
 70
     0
  9
$DIMSOXD
 70
     0
  9
$DIMSAH
 70
     0
  9
$DIMBLK1
  1

  9
$DIMBLK2
  1

  9
$DIMSTYLE
  2
STANDARD
  9
$DIMCLRD
 70
     0
  9
$DIMCLRE
 70
     0
  9
$DIMCLRT
 70
     0
  9
$DIMTFAC
 40
1.0
  9
$DIMGAP
 40
0.09
  9
$LUNITS
 70
     2
  9
$LUPREC
 70
     4
  9
$SKETCHINC
 40
0.1
  9
$FILLETRAD
 40
0.25
  9
$AUNITS
 70
     0
  9
$AUPREC
 70
     0
  9
$MENU
  1
.
  9
$ELEVATION
 40
0.0
  9
$PELEVATION
 40
0.0
  9
$THICKNESS
 40
0.0
  9
$LIMCHECK
 70
     0
  9
$BLIPMODE
 70
     0
  9
$CHAMFERA
 40
0.0
  9
$CHAMFERB
 40
0.0
  9
$SKPOLY
 70
     0
  9
$TDCREATE
 40
2458060.468368056230247
  9
$TDUPDATE
 40
2460955.7711458331905305
  9
$TDINDWG
 40
0.4399260417
  9
$TDUSRTIMER
 40
0.4399260417
  9
$USRTIMER
 70
     1
  9
$ANGBASE
 50
0.0
  9
$ANGDIR
 70
     0
  9
$PDMODE
 70
     0
  9
$PDSIZE
 40
0.3125
  9
$PLINEWID
 40
0.0
  9
$COORDS
 70
     1
  9
$SPLFRAME
 70
     0
  9
$SPLINETYPE
 70
     6
  9
$SPLINESEGS
 70
     8
  9
$ATTDIA
 70
     1
  9
$ATTREQ
 70
     1
  9
$HANDLING
 70
     1
  9
$HANDSEED
  5
1393D
  9
$SURFTAB1
 70
     6
  9
$SURFTAB2
 70
     6
  9
$SURFTYPE
 70
     6
  9
$SURFU
 70
     6
  9
$SURFV
 70
     6
  9
$UCSNAME
  2

  9
$UCSORG
 10
0.0
 20
0.0
 30
0.0
  9
$UCSXDIR
 10
1.0
 20
0.0
 30
0.0
  9
$UCSYDIR
 10
0.0
 20
1.0
 30
0.0
  9
$PUCSNAME
  2

  9
$PUCSORG
 10
0.0
 20
0.0
 30
0.0
  9
$PUCSXDIR
 10
1.0
 20
0.0
 30
0.0
  9
$PUCSYDIR
 10
0.0
 20
1.0
 30
0.0
  9
$USERI1
 70
     0
  9
$USERI2
 70
     0
  9
$USERI3
 70
     0
  9
$USERI4
 70
     0
  9
$USERI5
 70
     0
  9
$USERR1
 40
0.0
  9
$USERR2
 40
0.0
  9
$USERR3
 40
0.0
  9
$USERR4
 40
0.0
  9
$USERR5
 40
0.0
  9
$WORLDVIEW
 70
     1
  9
$SHADEDGE
 70
     3
  9
$SHADEDIF
 70
    70
  9
$TILEMODE
 70
     1
  9
$MAXACTVP
 70
    64
  9
$PLIMCHECK
 70
     0
  9
$PEXTMIN
 10
1.0000000000000000E+20
 20
1.0000000000000000E+20
 30
1.0000000000000000E+20
  9
$PEXTMAX
 10
-1.0000000000000000E+20
 20
-1.0000000000000000E+20
 30
-1.0000000000000000E+20
  9
$PLIMMIN
 10
0.0
 20
0.0
  9
$PLIMMAX
 10
12.0
 20
9.0
  9
$UNITMODE
 70
     0
  9
$VISRETAIN
 70
     1
  9
$PLINEGEN
 70
     0
  9
$PSLTSCALE
 70
     1
  0
ENDSEC
  0
SECTION
  2
TABLES
  0
TABLE
  2
VPORT
 70
     1
  0
VPORT
  2
*ACTIVE
 70
     0
 10
0.0
 20
0.0
 11
1.0
 21
1.0
 12
854.2495362440367899
 22
18.6299924733403586
 13
0.0
 23
0.0
 14
1.0
 24
1.0
 15
0.0
 25
0.0
 16
0.0
 26
0.0
 36
53.2874995227186403
 17
4042.2457275390629547
 27
135.5921106931554903
 37
0.0
 40
8.6866203680838243
 41
2.2939024390243898
 42
50.0
 43
0.0
 44
0.0
 50
0.0
 51
0.0
 71
     0
 72
   100
 73
     1
 74
     1
 75
     0
 76
     0
 77
     0
 78
     0
  0
ENDTAB
  0
TABLE
  2
LTYPE
 70
     2
  0
LTYPE
  2
CONTINUOUS
 70
     0
  3
Solid line
 72
    65
 73
     0
 40
0.0
  0
LTYPE
  2
PHANTOM2
 70
     0
  3
___ _ _ ___ _ _ ___ _ _ ___ _ _
 72
    65
 73
     6
 40
1.25
 49
0.625
 49
-0.125
 49
0.125
 49
-0.125
 49
0.125
 49
-0.125
  0
ENDTAB
  0
TABLE
  2
LAYER
 70
     2
  0
LAYER
  2
0
 70
     0
 62
   255
  6
CONTINUOUS
  0
LAYER
  2
DEFPOINTS
 70
     0
 62
     7
  6
CONTINUOUS
  0
ENDTAB
  0
TABLE
  2
STYLE
 70
     1
  0
STYLE
  2
STANDARD
 70
     0
 40
0.0
 41
0.8
 50
0.0
 71
     0
 42
0.2
  3
txt
  4

  0
ENDTAB
  0
TABLE
  2
VIEW
 70
     0
  0
ENDTAB
  0
TABLE
  2
UCS
 70
     0
  0
ENDTAB
  0
TABLE
  2
APPID
 70
     9
  0
APPID
  2
ACAD
 70
     0
  0
APPID
  2
ACAD_MLEADERVER
 70
     0
  0
APPID
  2
ACAD_EXEMPT_FROM_CAD_STANDARDS
 70
     0
  0
APPID
  2
ACAD_NAV_VCDISPLAY
 70
     0
  0
APPID
  2
ACAECLAYERSTANDARD
 70
     0
  0
APPID
  2
ACCMTRANSPARENCY
 70
     0
  0
APPID
  2
ACAD_DSTYLE_DIMJAG
 70
     0
  0
APPID
  2
ACAD_DSTYLE_DIMTALN
 70
     0
  0
APPID
  2
ACDBATTR
 70
     0
  0
ENDTAB
  0
TABLE
  2
DIMSTYLE
 70
     1
  0
DIMSTYLE
  2
STANDARD
 70
     0
  3

  4

  5

  6

  7

 40
1.0
 41
0.1875
 42
0.0625
 43
0.38
 44
0.125
 45
0.0
 46
0.0
 47
0.01
 48
0.01
140
0.15625
141
0.09
142
0.0
143
25.3999999999999986
144
1.0
145
0.0
146
1.0
147
0.09
 71
     1
 72
     0
 73
     1
 74
     1
 75
     0
 76
     0
 77
     0
 78
     4
170
     0
171
     2
172
     0
173
     0
174
     0
175
     0
176
     0
177
     0
178
     0
  0
ENDTAB
  0
ENDSEC
  0
SECTION
  2
BLOCKS
  0
BLOCK
  8
0
  2
$MODEL_SPACE
 70
     0
 10
0.0
 20
0.0
 30
0.0
  3
$MODEL_SPACE
  1

  0
ENDBLK
  5
21
  8
0
  0
BLOCK
 67
     1
  8
0
  2
$PAPER_SPACE
 70
     0
 10
0.0
 20
0.0
 30
0.0
  3
$PAPER_SPACE
  1

  0
ENDBLK
  5
1D
 67
     1
  8
0
  0
BLOCK
  8
0
  2
_FILLED
 70
     0
 10
0.0
 20
0.0
 30
0.0
  3
_FILLED
  1

  0
SOLID
  5
11002
  8
0
  6
BYBLOCK
 62
     0
 10
0.0
 20
0.0
 30
0.0
 11
-1.0
 21
0.1666666667
 31
0.0
 12
-1.0
 22
-0.1666666667
 32
0.0
 13
-1.0
 23
-0.1666666667
 33
0.0
  0
ENDBLK
  5
11003
  8
0
  6
BYBLOCK
 62
     0
  0
BLOCK
  8
0
  2
A$CB0E90CCF
 70
     0
 10
0.0
 20
0.0
 30
0.0
  3
A$CB0E90CCF
  1

  0
LINE
  5
128B3
  8
0
 10
350.827533171469895
 20
145.6316015979273004
 30
0.0
 11
341.5742607927990093
 21
145.63160264787561
 31
0.0
  0
ARC
  5
128B4
  8
0
 10
341.5745867069828137
 20
145.4412746454455032
 30
0.0
 40
0.1903282814746298
 50
90.0981121470637589
 51
178.897883833178895
  0
LINE
  5
128B5
  8
0
 10
341.3842936357834787
 20
145.4449354899678895
 30
0.0
 11
341.378633242416015
 21
145.1216910614197104
 31
0.0
  0
ARC
  5
128B6
  8
0
 10
341.5701307727533163
 20
145.0995405547897974
 30
0.0
 40
0.1927743475394171
 50
173.4019231215399088
 51
249.1046046878066136
  0
ARC
  5
128B7
  8
0
 10
341.4341590791145222
 20
144.7411486420720905
 30
0.0
 40
0.1905449780263
 50
4.3918699668863477
 51
69.3439108776806137
  0
ARC
  5
128B8
  8
0
 10
343.9353457454568002
 20
144.9191952096107059
 30
0.0
 40
2.3169740078148
 50
184.0453941483380049
 51
189.786308804476306
  0
ARC
  5
128B9
  8
0
 10
342.9689567055290809
 20
144.7586858175444036
 30
0.0
 40
1.3373787627547351
 50
190.0471003821027125
 51
235.8144113800032073
  0
ARC
  5
128BA
  8
0
 10
342.1235608856540011
 20
143.5608000862910956
 30
0.0
 40
0.1312019911618965
 50
5.9027218632596092
 51
44.2653633324823801
  0
ARC
  5
128BB
  8
0
 10
386.0379652984843801
 20
147.267268047684496
 30
0.0
 40
43.9393649849589565
 50
184.8212302970570136
 51
185.1787696891298935
  0
ARC
  5
128BC
  8
0
 10
342.3975080321670816
 20
143.311602647944909
 30
0.0
 40
0.1200000000692608
 50
184.9997245686907092
 51
269.999999987138608
  0
LINE
  5
128BD
  8
0
 10
342.397508032140081
 20
143.1916026478756123
 30
0.0
 11
350.827533171469895
 21
143.1916026478756123
 31
0.0
  0
LINE
  5
128BE
  8
0
 10
350.827533171469895
 20
143.6619028387756032
 30
0.0
 11
342.503365876840121
 21
143.6619028387756032
 31
0.0
  0
ARC
  5
128BF
  8
0
 10
342.503365876840121
 20
143.3878707471367022
 30
0.0
 40
0.2740320916388903
 50
90.0
 51
100.414622240360103
  0
ARC
  5
128C0
  8
0
 10
342.5489767239778871
 20
142.0236052996206979
 30
0.0
 40
1.6365512044547941
 50
93.3330065029609273
 51
97.0469256611080198
  0
ARC
  5
128C1
  8
0
 10
342.2794293068100728
 20
144.1044405476054067
 30
0.0
 40
0.4617960699402421
 50
265.3086065001475049
 51
278.5644741761204841
  0
LINE
  5
128C2
  8
0
 10
350.827533171469895
 20
144.9189976743755892
 30
0.0
 11
341.874150302440114
 21
144.9189976743755892
 31
0.0
  0
ARC
  5
128C3
  8
0
 10
341.874150302440114
 20
148.0338560907158012
 30
0.0
 40
3.1148584163402648
 50
265.1900711479299844
 51
270.0
  0
ARC
  5
128C4
  8
0
 10
341.5809984048032106
 20
144.5500434880925127
 30
0.0
 40
0.3812663361943787
 50
85.190071147930027
 51
94.7714225468604639
  0
ARC
  5
128C5
  8
0
 10
341.5683893900999806
 20
145.118888031942106
 30
0.0
 40
0.1898631668024605
 50
179.4123066499936101
 51
264.224823741407306
  0
LINE
  5
128C6
  8
0
 10
342.7271311797073849
 20
143.1916026478756123
 30
0.0
 11
342.7481996409741214
 21
142.0419832963112867
 31
0.0
  0
LINE
  5
128C7
  8
0
 10
342.7507835458739009
 20
141.9009902243552972
 30
0.0
 11
342.9161697020364272
 21
132.8765473285077121
 31
0.0
  0
ARC
  5
128C8
  8
0
 10
344.5125482912401935
 20
141.9716026478756135
 30
0.0
 40
0.7149999999999999
 50
193.4465530149099095
 51
166.5534469935550987
  0
ARC
  5
128C9
  8
0
 10
344.5125482912401935
 20
141.9716026478756135
 30
0.0
 40
0.4034205369000006
 50
209.2413141923481987
 51
150.7586858247883015
  0
ARC
  5
128CA
  8
0
 10
344.5125482912401935
 20
141.9716026478756135
 30
0.0
 40
0.2434565561
 50
244.166027429558909
 51
115.8339726367256048
  0
ARC
  5
128CB
  8
0
 10
344.5125482912401935
 20
141.9716026478756135
 30
0.0
 40
0.2296999548
 50
257.360363310578407
 51
102.6396368794012943
  0
LINE
  5
128CC
  8
0
 10
342.6514806466656182
 20
142.0333076506204009
 30
0.0
 11
344.462285732572127
 21
142.1957359663074101
 31
0.0
  0
ARC
  5
128CD
  8
0
 10
342.6528207587357997
 20
142.0183676338988903
 30
0.0
 40
0.015
 50
95.1256852119708043
 51
180.0000000026495002
  0
LINE
  5
128CE
  8
0
 10
342.6378207587358133
 20
142.0183676338982082
 30
0.0
 11
342.6378207587400766
 21
141.9248376617512122
 31
0.0
  0
LINE
  5
128CF
  8
0
 10
342.6514806466698815
 20
141.9098976450304121
 30
0.0
 11
344.4622857333214938
 21
141.7474693292757024
 31
0.0
  0
ARC
  5
128D0
  8
0
 10
342.6528207587401198
 20
141.9248376617518943
 30
0.0
 40
0.015
 50
180.0000000026495002
 51
264.8743147880030051
  0
ARC
  5
128D1
  8
0
 10
343.1685721479665858
 20
132.8547403912617142
 30
0.0
 40
0.2533427268022769
 50
175.0620507097351037
 51
249.9597379623506015
  0
ARC
  5
128D2
  8
0
 10
342.9956511104871879
 20
132.3806280164293128
 30
0.0
 40
0.2513197638768249
 50
9.00139627479615
 51
69.9638389473787754
  0
ARC
  5
128D3
  8
0
 10
344.6295765361908252
 20
132.6394571976277064
 30
0.0
 40
1.4029791334813471
 50
189.0013962747960932
 51
210.2477392227411883
  0
ARC
  5
128D4
  8
0
 10
342.2067764600272994
 20
131.2266500633434134
 30
0.0
 40
1.4016570653406539
 50
7.7549620200654159
 51
30.2477392227411599
  0
ARC
  5
128D5
  8
0
 10
343.7156205405979108
 20
131.4321278236265869
 30
0.0
 40
0.1211139514060506
 50
187.7549620200653919
 51
275.6518621440786205
  0
ARC
  5
128D6
  8
0
 10
343.7275482912671123
 20
131.2516026479763127
 30
0.0
 40
0.059999999899294
 50
29.9989566151623492
 51
90.0000000257685144
  0
ARC
  5
128D7
  8
0
 10
343.8314713396401885
 20
131.3116026478755884
 30
0.0
 40
0.059999999999992
 50
210.0010433402808019
 51
270.0000000000032969
  0
LINE
  5
128D8
  8
0
 10
343.8314713396401885
 20
131.2516026478755862
 30
0.0
 11
344.3251897081757988
 21
131.2516026478755862
 31
0.0
  0
LINE
  5
128D9
  8
0
 10
350.827533171469895
 20
132.2645856512756097
 30
0.0
 11
345.9673777235402099
 21
132.2645856512756097
 31
0.0
  0
LINE
  5
128DA
  8
0
 10
344.0437245908402133
 20
132.5334265729755998
 30
0.0
 11
343.9917850319400827
 21
132.3395856512755984
 31
0.0
  0
ARC
  5
128DB
  8
0
 10
500346.1702121297130361
 20
132.3345856512690091
 30
0.0
 40
500002.1784270977950655
 50
179.9999994270449974
 51
180.0000017188658035
  0
ARC
  5
128DC
  8
0
 10
344.0468133187611102
 20
132.3196116338268951
 30
0.0
 40
0.0550282927550404
 50
180.0270531850850944
 51
266.8250526847928086
  0
ARC
  5
128DD
  8
0
 10
345.4631896641699882
 20
10847.2581967716705549
 30
0.0
 40
10714.9936229825398186
 50
269.9924099805909918
 51
270.0026960210070115
  0
ARC
  5
128DE
  8
0
 10
344.0969436008431899
 20
132.5191089063017102
 30
0.0
 40
0.0551113291863834
 50
110.9472026187817022
 51
164.9420811218670053
  0
ARC
  5
128DF
  8
0
 10
253.4624945285075057
 20
369.2818025612421025
 30
0.0
 40
253.462494500051605
 50
290.9472026187817164
 51
291.2246730203663105
  0
ARC
  5
128E0
  8
0
 10
345.4485669700720791
 20
132.3647579747672864
 30
0.0
 40
0.6857507166830497
 50
97.1560697616723843
 51
109.2472586251475946
  0
ARC
  5
128E1
  8
0
 10
345.8679944183796238
 20
129.5214481047570985
 30
0.0
 40
3.559701087248559
 50
95.0310070259501316
 51
98.1534410695053339
  0
ARC
  5
128E2
  8
0
 10
349.6418879720574182
 20
84.7843727210346145
 30
0.0
 40
48.4556498357276482
 50
94.1627654084117864
 51
94.8372563332052891
  0
ARC
  5
128E3
  8
0
 10
345.4168414819287136
 20
142.3514827899973056
 30
0.0
 40
9.2663530927079361
 50
274.3797978394226789
 51
275.7875393277565763
  0
ARC
  5
128E4
  8
0
 10
346.1751786031786082
 20
135.1003443798348087
 30
0.0
 40
1.975842519480985
 50
275.1128137972006016
 51
282.365040064344214
  0
ARC
  5
128E5
  8
0
 10
346.5230002763408947
 20
133.4582977763861038
 30
0.0
 40
0.2976408876378664
 50
284.6512927478103734
 51
284.9803236092615748
  0
ARC
  5
128E6
  8
0
 10
346.6722472667311195
 20
133.0414930128650894
 30
0.0
 40
0.1481281914453611
 50
109.5702351370393046
 51
119.2198655206770042
  0
ARC
  5
128E7
  8
0
 10
346.6727413335589745
 20
133.0415199433770113
 30
0.0
 40
0.1482690697553284
 50
89.1894995564080943
 51
109.753614811199796
  0
LINE
  5
128E8
  8
0
 10
346.674838663240223
 20
133.1897741785755898
 30
0.0
 11
350.827533171469895
 21
133.191657240577598
 31
0.0
  0
LINE
  5
128E9
  8
0
 10
350.827533171469895
 20
132.4915297799290101
 30
0.0
 11
349.3107440447540171
 21
132.4860889664466015
 31
0.0
  0
LINE
  5
128EA
  8
0
 10
350.827533171469895
 20
132.5093591825612975
 30
0.0
 11
349.310679340042384
 21
132.512812680657305
 31
0.0
  0
ARC
  5
128EB
  8
0
 10
349.4342195878793973
 20
98.0635964785991519
 30
0.0
 40
34.422713944220952
 50
90.2055225127544134
 51
93.5941426606562459
  0
ARC
  5
128EC
  8
0
 10
349.0603165448860068
 20
106.4773186943398997
 30
0.0
 40
26.0366977291815509
 50
89.4490486955225066
 51
93.9340826726320159
  0
ARC
  5
128ED
  8
0
 10
350.4549420958571204
 20
92.3095526183683575
 30
0.0
 40
40.2348088399199924
 50
94.5312031739476737
 51
96.7608387073295688
  0
ARC
  5
128EE
  8
0
 10
351.4253499478647882
 20
84.1621248103081854
 30
0.0
 40
48.4686515836729725
 50
94.9134495167355254
 51
96.4961020763348643
  0
LINE
  5
128EF
  8
0
 10
343.9917850321413084
 20
132.3195856513027024
 30
0.0
 11
345.3135784785408191
 21
132.3195856382446038
 31
0.0
  0
ARC
  5
128F0
  8
0
 10
345.5747424877192771
 20
77061.7668595921131782
 30
0.0
 40
76929.4472743966180133
 50
269.9998054893669064
 51
270.0002733925418283
  0
ARC
  5
128F1
  8
0
 10
345.2103062072199009
 20
132.994395854481013
 30
0.0
 40
0.0087458401095091
 50
141.2966583920945993
 51
200.8046358938829883
  0
ARC
  5
128F2
  8
0
 10
345.2159309575644102
 20
132.9965330174958069
 30
0.0
 40
0.0147629226408901
 50
200.8046358938848925
 51
233.9533276599983083
  0
ARC
  5
128F3
  8
0
 10
345.2651560600518224
 20
133.06416962757541
 30
0.0
 40
0.0984159066758235
 50
233.9533276599983083
 51
247.2017166523964988
  0
ARC
  5
128F4
  8
0
 10
345.3377369455504891
 20
133.236847213379292
 30
0.0
 40
0.2857272346270594
 50
247.2017166523964988
 51
258.1857546554430201
  0
ARC
  5
128F5
  8
0
 10
345.693404312670225
 20
134.8088621539918108
 30
0.0
 40
1.897442546679148
 50
257.392180106590672
 51
262.2581476671630867
  0
ARC
  5
128F6
  8
0
 10
346.1719855902964014
 20
138.2734409528744095
 30
0.0
 40
5.3949168468039153
 50
262.1784362915627753
 51
264.9087961614130791
  0
ARC
  5
128F7
  8
0
 10
348.0983198655914066
 20
161.9095509265104056
 30
0.0
 40
29.1092697912195497
 50
265.2606649803896062
 51
267.8957355507596958
  0
ARC
  5
128F8
  8
0
 10
350.3562460194036134
 20
216.2382730958929926
 30
0.0
 40
83.4846725876253544
 50
267.7162280537477272
 51
269.0392317278224823
  0
ARC
  5
128F9
  8
0
 10
351.0129834884101001
 20
247.5859858541541882
 30
0.0
 40
114.8390649618808936
 50
268.9738661631557193
 51
269.9074746464394821
  0
ARC
  5
128FA
  8
0
 10
345.2230673281263194
 20
132.9849023016205081
 30
0.0
 40
0.024647355136458
 50
121.0405797718704974
 51
142.6233615141476889
  0
ARC
  5
128FB
  8
0
 10
345.267472318881687
 20
132.9111184075422898
 30
0.0
 40
0.1107627790124258
 50
115.3074577011989987
 51
121.0405797718704974
  0
LINE
  5
128FC
  8
0
 10
344.0438293784043253
 20
132.5338105381634932
 30
0.0
 11
345.3590655576401218
 21
132.5351152805756101
 31
0.0
  0
LINE
  5
128FD
  8
0
 10
345.3590655576401218
 20
132.5351152805756101
 30
0.0
 11
347.9269482801622075
 21
132.5508840684906033
 31
0.0
  0
LINE
  5
128FE
  8
0
 10
347.9269482801622075
 20
132.5508840684906033
 30
0.0
 11
350.827533171469895
 21
132.5636387900040063
 31
0.0
  0
ARC
  5
128FF
  8
0
 10
344.5012513161760239
 20
132.1841970656568037
 30
0.0
 40
0.0806926650017531
 50
22.1230286783653582
 51
85.282544804936407
  0
ARC
  5
12900
  8
0
 10
344.650165157724075
 20
132.2445856515238916
 30
0.0
 40
0.0800000002636997
 50
202.0243129524940002
 51
264.9186045633049957
  0
LINE
  5
12901
  8
0
 10
344.6430794883560225
 20
132.1649000610335918
 30
0.0
 11
345.0415667088363989
 21
132.1645699344518903
 31
0.0
  0
ARC
  5
12902
  8
0
 10
344.9589933115015015
 20
132.1845820896838006
 30
0.0
 40
0.080008008549511
 50
2.5022912598682079
 51
89.3932327783921181
  0
ARC
  5
12903
  8
0
 10
345.1196874972130217
 20
132.1852507448481049
 30
0.0
 40
0.0808118400683251
 50
177.9970564959947126
 51
248.3275083264624925
  0
ARC
  5
12904
  8
0
 10
345.7409869229456945
 20
132.1845856512690887
 30
0.0
 40
0.0799999999920186
 50
291.3259866964888829
 51
357.4999404956637932
  0
ARC
  5
12905
  8
0
 10
402.3511567411032956
 20
129.7504642840521001
 30
0.0
 40
56.5824767872530927
 50
177.453351961378587
 51
177.537969084309907
  0
LINE
  5
12906
  8
0
 10
346.7513668305529109
 20
132.1099366617056035
 30
0.0
 11
346.7522394230401233
 21
132.209692764875598
 31
0.0
  0
ARC
  5
12907
  8
0
 10
346.8195144948015809
 20
132.2091042923879058
 30
0.0
 40
0.0672776454729306
 50
124.4456996762886973
 51
179.4988317497679873
  0
LINE
  5
12908
  8
0
 10
346.7843546201127083
 20
132.1099323964160988
 30
0.0
 11
346.7853754039041974
 21
132.2645856512756097
 31
0.0
  0
LINE
  5
12909
  8
0
 10
347.2755040074561066
 20
132.2645856512756097
 30
0.0
 11
347.2752775667402148
 21
132.2315432242756117
 31
0.0
  0
ARC
  5
1290A
  8
0
 10
347.310564340714393
 20
132.2350491174213971
 30
0.0
 40
0.0354605090806834
 50
185.6739618842985067
 51
259.0272094079700764
  0
ARC
  5
1290B
  8
0
 10
347.3252596966581223
 20
132.2692377256539942
 30
0.0
 40
0.0722564956956109
 50
252.7350925151079082
 51
269.7658035692148815
  0
LINE
  5
1290C
  8
0
 10
347.3249643491400889
 20
132.1969818335755917
 30
0.0
 11
350.827533171469895
 21
132.1949862876419104
 31
0.0
  0
LINE
  5
1290D
  8
0
 10
350.827533171469895
 20
132.1094096173175956
 30
0.0
 11
344.1283846767400973
 21
132.1102758107755903
 31
0.0
  0
ARC
  5
1290E
  8
0
 10
344.1234582013786962
 20
131.8600757038875884
 30
0.0
 40
0.2502486036849312
 50
88.8719837904344843
 51
164.9784348248763024
  0
LINE
  5
1290F
  8
0
 10
343.8817610072176763
 20
131.9249357839134973
 30
0.0
 11
343.7375092566401236
 21
131.3865856512755954
 31
0.0
  0
LINE
  5
12910
  8
0
 10
343.7375092566401236
 20
131.3865856512755954
 30
0.0
 11
343.7375123434953252
 21
131.3606855949120131
 31
0.0
  0
ARC
  5
12911
  8
0
 10
343.7875123169400808
 20
131.3606915540756006
 30
0.0
 40
0.0499999738
 50
180.0068287021024958
 51
268.965441794098524
  0
ARC
  5
12912
  8
0
 10
344.1444200871977728
 20
131.009814647906893
 30
0.0
 40
0.3018818760212212
 50
52.7518594214643883
 51
85.4402235982832252
  0
ARC
  5
12913
  8
0
 10
344.1505290548603284
 20
131.0199605533202885
 30
0.0
 40
0.2901107675972251
 50
25.0552544716237016
 51
52.4994341539490321
  0
ARC
  5
12914
  8
0
 10
344.5402064382690241
 20
131.2022152225773937
 30
0.0
 40
0.1400813297165124
 50
205.0876414432788977
 51
263.8055093664096944
  0
LINE
  5
12915
  8
0
 10
344.5250911359402153
 20
131.0629517795256049
 30
0.0
 11
345.9571498203401916
 21
131.0621046512756038
 31
0.0
  0
ARC
  5
12916
  8
0
 10
345.9569627762197115
 20
131.2026757151027141
 30
0.0
 40
0.1405711882676869
 50
270.0762378263734718
 51
316.4921742850928013
  0
ARC
  5
12917
  8
0
 10
346.2605871996221936
 20
130.9032057426410915
 30
0.0
 40
0.2859295315091819
 50
109.7601909541991034
 51
134.8551438632538861
  0
ARC
  5
12918
  8
0
 10
345.9359668592118737
 20
131.0549475008299112
 30
0.0
 40
0.2561159242118249
 50
8.7927660182200142
 51
88.9663359545879189
  0
ARC
  5
12919
  8
0
 10
346.2975887570402165
 20
131.112104309275594
 30
0.0
 40
0.1099997554000016
 50
189.4215624702518141
 51
250.92076649083441
  0
ARC
  5
1291A
  8
0
 10
347.8627904798148052
 20
131.0224504474633989
 30
0.0
 40
0.2702027749062315
 50
112.886179236962505
 51
166.0922787294080081
  0
ARC
  5
1291B
  8
0
 10
347.4933935726691061
 20
131.1120846972233949
 30
0.0
 40
0.1099237483065621
 50
287.3866288955217101
 51
347.0207779452006207
  0
LINE
  5
1291C
  8
0
 10
350.827533171469895
 20
131.3615894834881033
 30
0.0
 11
343.7375123429220025
 21
131.3606904042520966
 31
0.0
  0
ARC
  5
1291D
  8
0
 10
341.6712422847289758
 20
21443.3900956958314055
 30
0.0
 40
21312.079500947118504
 50
270.0056869915626976
 51
270.0111538524236039
  0
ARC
  5
1291E
  8
0
 10
355.0138232373528808
 20
-47372.8382468510972103
 30
0.0
 40
47504.1501350866383291
 50
90.0079564253401259
 51
90.0110887530905046
  0
ARC
  5
1291F
  8
0
 10
349.8294903828709153
 20
-10039.4406985734694899
 30
0.0
 40
10170.7522268457105383
 50
89.9943776390999943
 51
90.0079564253401259
  0
LINE
  5
12920
  8
0
 10
347.7577081525312224
 20
131.2713826552223111
 30
0.0
 11
347.8523840916337804
 21
131.3113484278607928
 31
0.0
  0
ARC
  5
12921
  8
0
 10
351.2703139106158119
 20
65.6680633456402063
 30
0.0
 40
65.6680641941874228
 50
91.568521124646054
 51
93.1155407359195095
  0
ARC
  5
12922
  8
0
 10
343.9177907169406012
 20
130.7014247526336987
 30
0.0
 40
0.3001821044832867
 50
91.8804912003985379
 51
161.6090778036748929
  0
LINE
  5
12923
  8
0
 10
343.9079402799400782
 20
131.0014451931756128
 30
0.0
 11
350.827533171469895
 21
131.0016026477755986
 31
0.0
  0
ARC
  5
12924
  8
0
 10
342.6977828148998242
 20
131.107619728801609
 30
0.0
 40
0.9856692585755412
 50
322.0605670378762966
 51
341.5778000430674979
  0
ARC
  5
12925
  8
0
 10
344.2479388091509236
 20
129.8982240609377072
 30
0.0
 40
0.9804492563392398
 50
142.0182672067226974
 51
206.1940884790506061
  0
ARC
  5
12926
  8
0
 10
342.48856693369288
 20
129.0325434423643003
 30
0.0
 40
0.9803649515661824
 50
355.3447986508579106
 51
26.2039366585075406
  0
ARC
  5
12927
  8
0
 10
343.6052495688106774
 20
128.9415929672962875
 30
0.0
 40
0.1400153854970319
 50
175.3360655257235976
 51
261.1092089908386242
  0
ARC
  5
12928
  8
0
 10
343.5612266479031973
 20
128.6601725528454949
 30
0.0
 40
0.1448274961674451
 50
8.848428708316554
 51
81.10920899083861
  0
ARC
  5
12929
  8
0
 10
325.0903643581792721
 20
125.7847434216979963
 30
0.0
 40
18.8381644485202315
 50
8.4458831557080565
 51
8.848428708316554
  0
ARC
  5
1292A
  8
0
 10
346.4122342119451901
 20
128.9507324369513981
 30
0.0
 40
2.7174756604080659
 50
188.4458831557080032
 51
211.8597504702389926
  0
ARC
  5
1292B
  8
0
 10
349.7393866927484964
 20
131.0184610456392988
 30
0.0
 40
6.6348019462440764
 50
211.8597504702389926
 51
226.3802829462804027
  0
ARC
  5
1292C
  8
0
 10
348.7916481479858817
 20
130.0239230695489141
 30
0.0
 40
5.2610064246635524
 50
226.3802829462804027
 51
240.3132564789756884
  0
ARC
  5
1292D
  8
0
 10
348.6283547879469893
 20
129.7374853637994931
 30
0.0
 40
4.9312924869724268
 50
240.3132564789756884
 51
254.6747159464090942
  0
ARC
  5
1292E
  8
0
 10
347.2371640208307895
 20
124.7156637894319005
 30
0.0
 40
0.2800210293145062
 50
359.4899400844918773
 51
71.7146084906607229
  0
LINE
  5
1292F
  8
0
 10
347.5603460259133044
 20
125.7153397998677065
 30
0.0
 11
347.2369852576400717
 21
118.2910546983756035
 31
0.0
  0
ARC
  5
12930
  8
0
 10
350.8729128578717109
 20
127.6159137443307969
 30
0.0
 40
3.2302213366633179
 50
246.6698606485983021
 51
269.195055147094422
  0
ARC
  5
12931
  8
0
 10
352.6024203436463154
 20
131.9545908138441916
 30
0.0
 40
7.9001666671052817
 50
238.9161407432106046
 51
247.6137429121444029
  0
ARC
  5
12932
  8
0
 10
333.8934729707719953
 20
99.9458345962869856
 30
0.0
 40
29.1761570313086906
 50
59.9045446631716203
 51
61.5457517582424671
  0
ARC
  5
12933
  8
0
 10
347.6178662230294094
 20
125.5378735931603984
 30
0.0
 40
0.1865551596696331
 50
18.6233688906822188
 51
107.958502625244094
  0
ARC
  5
12934
  8
0
 10
344.2392577762776114
 20
118.4221709124082054
 30
0.0
 40
3.0005935269707078
 50
326.4259082042083833
 51
357.495562666124215
  0
ARC
  5
12935
  8
0
 10
346.947548221273621
 20
116.6245278211655005
 30
0.0
 40
0.2499999300334346
 50
146.4213398214818085
 51
180.000002014491912
  0
LINE
  5
12936
  8
0
 10
346.6975482912400821
 20
116.6245278123756037
 30
0.0
 11
346.6975483346402029
 21
116.4902968304756001
 31
0.0
  0
LINE
  5
12937
  8
0
 10
345.5675515643401923
 20
114.5016026478756004
 30
0.0
 11
345.5923415725440009
 21
114.9746866369484053
 31
0.0
  0
ARC
  5
12938
  8
0
 10
345.841997382839395
 20
114.9616044576138023
 30
0.0
 40
0.2499983340553105
 50
92.7635032115893665
 51
177.0003953208197913
  0
ARC
  5
12939
  8
0
 10
345.81794728669189
 20
115.4598489646072039
 30
0.0
 40
0.2488262802869899
 50
272.7635032115894091
 51
305.3195104590187157
  0
ARC
  5
1293A
  8
0
 10
345.816885234646179
 20
115.4613478719711992
 30
0.0
 40
0.2506633099093352
 50
305.3195104590183178
 51
359.9215247211849942
  0
ARC
  5
1293B
  8
0
 10
309.4717605568425256
 20
115.5111280756865
 30
0.0
 40
36.595822078496127
 50
359.9215247211849942
 51
0.0784960803257093
  0
ARC
  5
1293C
  8
0
 10
346.8160361220803907
 20
115.5622903273113025
 30
0.0
 40
0.7484885332745963
 50
111.6371212002565017
 51
180.0784960803256922
  0
ARC
  5
1293D
  8
0
 10
346.4480222245182972
 20
116.4899753017859041
 30
0.0
 40
0.2495263172758503
 50
291.641817169639296
 51
0.0738288538563808
  0
LINE
  5
1293E
  8
0
 10
345.5675515643401923
 20
114.5016026478756004
 30
0.0
 11
350.827533171469895
 21
114.5016025699758018
 31
0.0
  0
LINE
  5
1293F
  8
0
 10
350.827533171469895
 20
115.2113035638253962
 30
0.0
 11
345.8297683927249864
 21
115.2113035141423012
 31
0.0
  0
LINE
  5
12940
  8
0
 10
350.827533171469895
 20
115.4610044530760007
 30
0.0
 11
346.0675483094805145
 21
115.4610045800071987
 31
0.0
  0
LINE
  5
12941
  8
0
 10
346.6975482914788813
 20
116.6245387462756042
 30
0.0
 11
350.827533171469895
 21
116.6245387462756042
 31
0.0
  0
LINE
  5
12942
  8
0
 10
346.8929595968215267
 20
116.2580386941045987
 30
0.0
 11
350.827533171469895
 21
116.2580387403753974
 31
0.0
  0
ARC
  5
12943
  8
0
 10
346.6281755954971118
 20
116.1125427404751065
 30
0.0
 40
0.1693036894277951
 50
77.3476968258831903
 51
111.7700924253524022
  0
ARC
  5
12944
  8
0
 10
346.9394626059975053
 20
118.1216400911308995
 30
0.0
 40
1.8641815085610161
 50
261.5416348696953719
 51
268.5705777242948784
  0
LINE
  5
12945
  8
0
 10
343.4656978066225861
 20
128.9529777749756079
 30
0.0
 11
350.827533171469895
 21
128.9529777769255929
 31
0.0
  0
LINE
  5
12946
  8
0
 10
343.4751418416378783
 20
130.5016025418755987
 30
0.0
 11
350.827533171469895
 21
130.5016025418755987
 31
0.0
  0
LINE
  5
12947
  8
0
 10
343.3681778505398938
 20
129.4654407433756091
 30
0.0
 11
350.827533171469895
 21
129.4654407433756091
 31
0.0
  0
LINE
  5
12948
  8
0
 10
344.8016951384045115
 20
132.8491767454850958
 30
0.0
 11
343.4921802444306991
 21
132.8491673031155926
 31
0.0
  0
LINE
  5
12949
  8
0
 10
343.4921802444306991
 20
132.8491673031155926
 30
0.0
 11
343.1661439855400886
 21
132.8732079569755911
 31
0.0
  0
LINE
  5
1294A
  8
0
 10
343.1661439855400886
 20
132.8732079569755911
 30
0.0
 11
342.9159265498454943
 21
132.8735217376901119
 31
0.0
  0
LINE
  5
1294B
  8
0
 10
350.827533171469895
 20
145.6316015979273004
 30
0.0
 11
360.0808055501407807
 21
145.63160264787561
 31
0.0
  0
ARC
  5
1294C
  8
0
 10
360.0804796359569195
 20
145.4412746454455032
 30
0.0
 40
0.1903282814746298
 50
1.102116166821038
 51
89.9018878529362553
  0
LINE
  5
1294D
  8
0
 10
360.2707727071563113
 20
145.4449354899678895
 30
0.0
 11
360.276433100523775
 21
145.1216910614197104
 31
0.0
  0
ARC
  5
1294E
  8
0
 10
360.0849355701864738
 20
145.0995405547897974
 30
0.0
 40
0.1927743475394171
 50
290.8953953121933864
 51
6.5980768784600539
  0
ARC
  5
1294F
  8
0
 10
360.2209072638253247
 20
144.7411486420720905
 30
0.0
 40
0.1905449780263
 50
110.6560891223193011
 51
175.6081300331136106
  0
ARC
  5
12950
  8
0
 10
357.7197205974829899
 20
144.9191952096107059
 30
0.0
 40
2.3169740078148
 50
350.2136911955237224
 51
355.9546058516619951
  0
ARC
  5
12951
  8
0
 10
358.6861096374107092
 20
144.7586858175444036
 30
0.0
 40
1.3373787627547351
 50
304.1855886199967927
 51
349.9528996178971738
  0
ARC
  5
12952
  8
0
 10
359.5315054572857889
 20
143.5608000862910956
 30
0.0
 40
0.1312019911618965
 50
135.7346366675176057
 51
174.0972781367404139
  0
ARC
  5
12953
  8
0
 10
315.6171010444554099
 20
147.267268047684496
 30
0.0
 40
43.9393649849589565
 50
354.8212303108701917
 51
355.1787697029431001
  0
ARC
  5
12954
  8
0
 10
359.2575583107727084
 20
143.311602647944909
 30
0.0
 40
0.1200000000692608
 50
270.0000000128615056
 51
355.0002754313092055
  0
LINE
  5
12955
  8
0
 10
359.257558310799709
 20
143.1916026478756123
 30
0.0
 11
350.827533171469895
 21
143.1916026478756123
 31
0.0
  0
LINE
  5
12956
  8
0
 10
350.827533171469895
 20
143.6619028387756032
 30
0.0
 11
359.1517004660996122
 21
143.6619028387756032
 31
0.0
  0
ARC
  5
12957
  8
0
 10
359.1517004660996122
 20
143.3878707471367022
 30
0.0
 40
0.2740320916388903
 50
79.5853777596399254
 51
90.0
  0
ARC
  5
12958
  8
0
 10
359.1060896189619029
 20
142.0236052996206979
 30
0.0
 40
1.6365512044547941
 50
82.953074338891966
 51
86.6669934970390727
  0
ARC
  5
12959
  8
0
 10
359.3756370361297172
 20
144.1044405476054067
 30
0.0
 40
0.4617960699402421
 50
261.4355258238795159
 51
274.6913934998524951
  0
LINE
  5
1295A
  8
0
 10
350.827533171469895
 20
144.9189976743755892
 30
0.0
 11
359.7809160404996192
 21
144.9189976743755892
 31
0.0
  0
ARC
  5
1295B
  8
0
 10
359.7809160404996192
 20
148.0338560907158012
 30
0.0
 40
3.1148584163402648
 50
270.0
 51
274.8099288520700156
  0
ARC
  5
1295C
  8
0
 10
360.0740679381365794
 20
144.5500434880925127
 30
0.0
 40
0.3812663361943787
 50
85.2285774531395219
 51
94.8099288520699872
  0
ARC
  5
1295D
  8
0
 10
360.0866769528398095
 20
145.118888031942106
 30
0.0
 40
0.1898631668024605
 50
275.775176258592694
 51
0.587693350006389
  0
LINE
  5
1295E
  8
0
 10
358.9279351632324051
 20
143.1916026478756123
 30
0.0
 11
358.7388966409034197
 21
132.8765473285077121
 31
0.0
  0
ARC
  5
1295F
  8
0
 10
358.4864941949732042
 20
132.8547403912617142
 30
0.0
 40
0.2533427268022769
 50
290.0402620376494269
 51
4.9379492902649504
  0
ARC
  5
12960
  8
0
 10
358.6594152324526021
 20
132.3806280164293128
 30
0.0
 40
0.2513197638768249
 50
110.0361610526211962
 51
170.9986037252039068
  0
ARC
  5
12961
  8
0
 10
357.025489806748908
 20
132.6394571976277064
 30
0.0
 40
1.4029791334813471
 50
329.7522607772580727
 51
350.9986037252037931
  0
ARC
  5
12962
  8
0
 10
359.4482898829124906
 20
131.2266500633434134
 30
0.0
 40
1.4016570653406539
 50
149.7522607772581011
 51
172.2450379799346081
  0
ARC
  5
12963
  8
0
 10
357.9394458023418792
 20
131.4321278236265869
 30
0.0
 40
0.1211139514060506
 50
264.3481378559213795
 51
352.2450379799345797
  0
ARC
  5
12964
  8
0
 10
357.9275180516726209
 20
131.2516026479763127
 30
0.0
 40
0.059999999899294
 50
89.999999974231514
 51
150.001043384837601
  0
ARC
  5
12965
  8
0
 10
357.8235950032996016
 20
131.3116026478755884
 30
0.0
 40
0.059999999999992
 50
269.9999999999968168
 51
329.9989566597192265
  0
LINE
  5
12966
  8
0
 10
357.8235950032996016
 20
131.2516026478755862
 30
0.0
 11
357.3298766347639912
 21
131.2516026478755862
 31
0.0
  0
LINE
  5
12967
  8
0
 10
350.827533171469895
 20
132.2645856512756097
 30
0.0
 11
355.6876886193995801
 21
132.2645856512756097
 31
0.0
  0
LINE
  5
12968
  8
0
 10
357.6113417520995768
 20
132.5334265729755998
 30
0.0
 11
357.6632813109997073
 21
132.3395856512755984
 31
0.0
  0
ARC
  5
12969
  8
0
 10
-499644.5151457868050784
 20
132.3345856512690091
 30
0.0
 40
500002.1784270977950655
 50
359.9999982811341965
 51
0.0000005729549928
  0
ARC
  5
1296A
  8
0
 10
357.608253024178623
 20
132.3196116338268951
 30
0.0
 40
0.0550282927550404
 50
273.1749473152071914
 51
359.9729468149149056
  0
ARC
  5
1296B
  8
0
 10
356.1918766787698019
 20
10847.2581967716705549
 30
0.0
 40
10714.9936229825398186
 50
269.9973039789929885
 51
270.0075900194088945
  0
ARC
  5
1296C
  8
0
 10
357.5581227420964865
 20
132.5191089063017102
 30
0.0
 40
0.0551113291863834
 50
15.0579188781330195
 51
69.0527973812182978
  0
ARC
  5
1296D
  8
0
 10
448.1925718144321991
 20
369.2818025612421025
 30
0.0
 40
253.462494500051605
 50
248.7753269796336042
 51
249.052797381218312
  0
ARC
  5
1296E
  8
0
 10
356.2064993728677109
 20
132.3647579747672864
 30
0.0
 40
0.6857507166830497
 50
70.7527413748524054
 51
82.8439302383276157
  0
ARC
  5
1296F
  8
0
 10
355.7870719245602231
 20
129.5214481047570985
 30
0.0
 40
3.559701087248559
 50
81.8465589304947088
 51
84.9689929740498826
  0
ARC
  5
12970
  8
0
 10
352.0131783708823718
 20
84.7843727210346145
 30
0.0
 40
48.4556498357276482
 50
85.1627436667946967
 51
85.8372345915881994
  0
ARC
  5
12971
  8
0
 10
356.2382248610110764
 20
142.3514827899973056
 30
0.0
 40
9.2663530927079361
 50
264.21246067224331
 51
265.6202021605773211
  0
ARC
  5
12972
  8
0
 10
355.4798877397611818
 20
135.1003443798348087
 30
0.0
 40
1.975842519480985
 50
257.6349599356558997
 51
264.8871862027993984
  0
ARC
  5
12973
  8
0
 10
355.1320660665988953
 20
133.4582977763861038
 30
0.0
 40
0.2976408876378664
 50
255.0196763907383968
 51
255.3487072521895982
  0
ARC
  5
12974
  8
0
 10
354.9828190762086138
 20
133.0414930128650894
 30
0.0
 40
0.1481281914453611
 50
60.7801344793229603
 51
70.4297648629606527
  0
ARC
  5
12975
  8
0
 10
354.9823250093808156
 20
133.0415199433770113
 30
0.0
 40
0.1482690697553284
 50
70.2463851888001329
 51
90.8105004435919341
  0
LINE
  5
12976
  8
0
 10
354.9802276796996239
 20
133.1897741785755898
 30
0.0
 11
350.827533171469895
 21
133.191657240577598
 31
0.0
  0
LINE
  5
12977
  8
0
 10
350.827533171469895
 20
132.4915297799290101
 30
0.0
 11
352.344322298185773
 21
132.4860889664466015
 31
0.0
  0
LINE
  5
12978
  8
0
 10
350.827533171469895
 20
132.5093591825612975
 30
0.0
 11
352.3443870028974061
 21
132.512812680657305
 31
0.0
  0
ARC
  5
12979
  8
0
 10
352.2208467550603928
 20
98.0635964785991519
 30
0.0
 40
34.422713944220952
 50
86.4058573393437399
 51
89.7944774872455866
  0
ARC
  5
1297A
  8
0
 10
352.5947497980537833
 20
106.4773186943398997
 30
0.0
 40
26.0366977291815509
 50
86.0659173273679841
 51
90.5509513044774934
  0
ARC
  5
1297B
  8
0
 10
351.2001242470827265
 20
92.3095526183683575
 30
0.0
 40
40.2348088399199924
 50
83.2391612926704312
 51
85.4687968260523263
  0
ARC
  5
1297C
  8
0
 10
350.2297163950750019
 20
84.1621248103081854
 30
0.0
 40
48.4686515836729725
 50
83.50389792366515
 51
85.0865504832644746
  0
LINE
  5
1297D
  8
0
 10
357.6632813107984816
 20
132.3195856513027024
 30
0.0
 11
356.3414878643990278
 21
132.3195856382446038
 31
0.0
  0
ARC
  5
1297E
  8
0
 10
356.0803238552203993
 20
77061.7668595921131782
 30
0.0
 40
76929.4472743966180133
 50
269.9997266074581717
 51
270.0001945106330936
  0
ARC
  5
1297F
  8
0
 10
356.4447601357197755
 20
132.994395854481013
 30
0.0
 40
0.0087458401095091
 50
339.1953641061169833
 51
38.7033416079054007
  0
ARC
  5
12980
  8
0
 10
356.4391353853753799
 20
132.9965330174958069
 30
0.0
 40
0.0147629226408901
 50
306.0466723400016917
 51
339.1953641061149938
  0
ARC
  5
12981
  8
0
 10
356.3899102828880245
 20
133.06416962757541
 30
0.0
 40
0.0984159066758235
 50
292.7982833476033875
 51
306.0466723400016917
  0
ARC
  5
12982
  8
0
 10
356.317329397389301
 20
133.236847213379292
 30
0.0
 40
0.2857272346270594
 50
281.8142453445569799
 51
292.7982833476033875
  0
ARC
  5
12983
  8
0
 10
355.9616620302695083
 20
134.8088621539918108
 30
0.0
 40
1.897442546679148
 50
277.7418523328369133
 51
282.6078198934092143
  0
ARC
  5
12984
  8
0
 10
355.483080752643275
 20
138.2734409528744095
 30
0.0
 40
5.3949168468039153
 50
275.0912038385869209
 51
277.8215637084372247
  0
ARC
  5
12985
  8
0
 10
353.5567464773483835
 20
161.9095509265104056
 30
0.0
 40
29.1092697912195497
 50
272.1042644492403042
 51
274.7393350196102801
  0
ARC
  5
12986
  8
0
 10
351.2988203235361198
 20
216.2382730958929926
 30
0.0
 40
83.4846725876253544
 50
270.9607682721775177
 51
272.2837719462522728
  0
ARC
  5
12987
  8
0
 10
350.6420828545295763
 20
247.5859858541541882
 30
0.0
 40
114.8390649618808936
 50
270.0925253535605179
 51
271.0261338368442807
  0
ARC
  5
12988
  8
0
 10
356.4319990148134139
 20
132.9849023016205081
 30
0.0
 40
0.024647355136458
 50
37.3766384858522471
 51
58.9594202281295168
  0
ARC
  5
12989
  8
0
 10
356.3875940240581031
 20
132.9111184075422898
 30
0.0
 40
0.1107627790124258
 50
58.9594202281295168
 51
64.6925422988009871
  0
LINE
  5
1298A
  8
0
 10
357.6112369645354079
 20
132.5338105381634932
 30
0.0
 11
356.2960007852996114
 21
132.5351152805756101
 31
0.0
  0
LINE
  5
1298B
  8
0
 10
356.2960007852996114
 20
132.5351152805756101
 30
0.0
 11
353.7281180627775825
 21
132.5508840684906033
 31
0.0
  0
LINE
  5
1298C
  8
0
 10
353.7281180627775825
 20
132.5508840684906033
 30
0.0
 11
350.827533171469895
 21
132.5636387900040063
 31
0.0
  0
ARC
  5
1298D
  8
0
 10
357.1538150267637093
 20
132.1841970656568037
 30
0.0
 40
0.0806926650017531
 50
94.7174551950636072
 51
157.8769713216346133
  0
ARC
  5
1298E
  8
0
 10
357.004901185215715
 20
132.2445856515238916
 30
0.0
 40
0.0800000002636997
 50
275.081395436695118
 51
337.9756870475060282
  0
LINE
  5
1298F
  8
0
 10
357.0119868545838244
 20
132.1649000610335918
 30
0.0
 11
356.6134996341033911
 21
132.1645699344518903
 31
0.0
  0
ARC
  5
12990
  8
0
 10
356.6960730314382886
 20
132.1845820896838006
 30
0.0
 40
0.080008008549511
 50
90.6067672216078677
 51
177.4977087401317988
  0
ARC
  5
12991
  8
0
 10
356.5353788457268251
 20
132.1852507448481049
 30
0.0
 40
0.0808118400683251
 50
291.6724916735374791
 51
2.0029435040052408
  0
ARC
  5
12992
  8
0
 10
355.9140794199940956
 20
132.1845856512690887
 30
0.0
 40
0.0799999999920186
 50
182.5000595043362068
 51
248.6740133035110034
  0
ARC
  5
12993
  8
0
 10
299.3039096018363807
 20
129.7504642840521001
 30
0.0
 40
56.5824767872530927
 50
2.4620309156900579
 51
2.546648038621417
  0
LINE
  5
12994
  8
0
 10
354.9036995123868792
 20
132.1099366617056035
 30
0.0
 11
354.9028269198996099
 21
132.209692764875598
 31
0.0
  0
ARC
  5
12995
  8
0
 10
354.8355518481382092
 20
132.2091042923879058
 30
0.0
 40
0.0672776454729306
 50
0.5011682502320224
 51
55.5543003237112885
  0
LINE
  5
12996
  8
0
 10
354.8707117228270818
 20
132.1099323964160988
 30
0.0
 11
354.869690939035479
 21
132.2645856512756097
 31
0.0
  0
LINE
  5
12997
  8
0
 10
354.3795623354836266
 20
132.2645856512756097
 30
0.0
 11
354.3797887761995753
 21
132.2315432242756117
 31
0.0
  0
ARC
  5
12998
  8
0
 10
354.3445020022252834
 20
132.2350491174213971
 30
0.0
 40
0.0354605090806834
 50
280.9727905920299236
 51
354.3260381157015217
  0
ARC
  5
12999
  8
0
 10
354.3298066462816109
 20
132.2692377256539942
 30
0.0
 40
0.0722564956956109
 50
270.2341964307851185
 51
287.2649074848919781
  0
LINE
  5
1299A
  8
0
 10
354.3301019937997012
 20
132.1969818335755917
 30
0.0
 11
350.827533171469895
 21
132.1949862876419104
 31
0.0
  0
LINE
  5
1299B
  8
0
 10
350.827533171469895
 20
132.1094096173175956
 30
0.0
 11
357.526681666199579
 21
132.1102758107755903
 31
0.0
  0
ARC
  5
1299C
  8
0
 10
357.5316081415610938
 20
131.8600757038875884
 30
0.0
 40
0.2502486036849312
 50
15.0215651751236692
 51
91.1280162095655157
  0
LINE
  5
1299D
  8
0
 10
357.7733053357221138
 20
131.9249357839134973
 30
0.0
 11
357.9175570862996096
 21
131.3865856512755954
 31
0.0
  0
LINE
  5
1299E
  8
0
 10
357.9175570862996096
 20
131.3865856512755954
 30
0.0
 11
357.9175539994445217
 21
131.3606855949120131
 31
0.0
  0
ARC
  5
1299F
  8
0
 10
357.8675540259997092
 20
131.3606915540756006
 30
0.0
 40
0.0499999738
 50
271.034558205901476
 51
359.9931712978975042
  0
ARC
  5
129A0
  8
0
 10
357.5106462557420173
 20
131.009814647906893
 30
0.0
 40
0.3018818760212212
 50
94.5597764017167606
 51
127.2481405785355975
  0
ARC
  5
129A1
  8
0
 10
357.5045372880795185
 20
131.0199605533202885
 30
0.0
 40
0.2901107675972251
 50
127.5005658460510034
 51
154.944745528376302
  0
ARC
  5
129A2
  8
0
 10
357.1148599046708227
 20
131.2022152225773937
 30
0.0
 40
0.1400813297165124
 50
276.1944906335901919
 51
334.9123585567210739
  0
LINE
  5
129A3
  8
0
 10
357.1299752069995748
 20
131.0629517795256049
 30
0.0
 11
355.6979165225995985
 21
131.0621046512756038
 31
0.0
  0
ARC
  5
129A4
  8
0
 10
355.6981035667200217
 20
131.2026757151027141
 30
0.0
 40
0.1405711882676869
 50
223.5078257149071987
 51
269.9237621736265282
  0
ARC
  5
129A5
  8
0
 10
355.3944791433175965
 20
130.9032057426410915
 30
0.0
 40
0.2859295315091819
 50
45.1448561367460997
 51
70.2398090458008966
  0
ARC
  5
129A6
  8
0
 10
355.7190994837278026
 20
131.0549475008299112
 30
0.0
 40
0.2561159242118249
 50
91.0336640454120669
 51
171.2072339817798934
  0
ARC
  5
129A7
  8
0
 10
355.3574775858995736
 20
131.112104309275594
 30
0.0
 40
0.1099997554000016
 50
289.07923350916559
 51
350.5784375297482143
  0
ARC
  5
129A8
  8
0
 10
353.7922758631249849
 20
131.0224504474633989
 30
0.0
 40
0.2702027749062315
 50
13.9077212705920097
 51
67.1138207630374666
  0
ARC
  5
129A9
  8
0
 10
354.1616727702706839
 20
131.1120846972233949
 30
0.0
 40
0.1099237483065621
 50
192.9792220547986119
 51
252.6133711044784036
  0
LINE
  5
129AA
  8
0
 10
350.827533171469895
 20
131.3615894834881033
 30
0.0
 11
357.9175540000176738
 21
131.3606904042520966
 31
0.0
  0
ARC
  5
129AB
  8
0
 10
359.9838240582108142
 20
21443.3900956958314055
 30
0.0
 40
21312.079500947118504
 50
269.9888461475765098
 51
269.9943130084373024
  0
ARC
  5
129AC
  8
0
 10
346.6412431055867955
 20
-47372.8382468510972103
 30
0.0
 40
47504.1501350866383291
 50
89.9889112469094954
 51
89.9920435746598599
  0
ARC
  5
129AD
  8
0
 10
351.8255759600688748
 20
-10039.4406985734694899
 30
0.0
 40
10170.7522268457105383
 50
89.9920435746598599
 51
90.0056223609000057
  0
LINE
  5
129AE
  8
0
 10
353.8973581904086245
 20
131.2713826552223111
 30
0.0
 11
353.8026822513060097
 21
131.3113484278607928
 31
0.0
  0
ARC
  5
129AF
  8
0
 10
350.3847524323239782
 20
65.6680633456402063
 30
0.0
 40
65.6680641941874228
 50
86.8844592640805047
 51
88.4314788753539602
  0
ARC
  5
129B0
  8
0
 10
357.7372756259990751
 20
130.7014247526336987
 30
0.0
 40
0.3001821044832867
 50
18.3909221963250502
 51
88.1195087996014763
  0
LINE
  5
129B1
  8
0
 10
357.7471260629995982
 20
131.0014451931756128
 30
0.0
 11
350.827533171469895
 21
131.0016026477755986
 31
0.0
  0
ARC
  5
129B2
  8
0
 10
358.957283528039909
 20
131.107619728801609
 30
0.0
 40
0.9856692585755412
 50
198.4221999569325021
 51
217.9394329621237887
  0
ARC
  5
129B3
  8
0
 10
357.4071275337889233
 20
129.8982240609377072
 30
0.0
 40
0.9804492563392398
 50
333.8059115209493939
 51
37.9817327932772599
  0
ARC
  5
129B4
  8
0
 10
359.1664994092469101
 20
129.0325434423643003
 30
0.0
 40
0.9803649515661824
 50
153.7960633414924132
 51
184.6552013491420894
  0
ARC
  5
129B5
  8
0
 10
358.0498167741291127
 20
128.9415929672962875
 30
0.0
 40
0.1400153854970319
 50
278.8907910091613758
 51
4.6639344742763704
  0
ARC
  5
129B6
  8
0
 10
358.0938396950365927
 20
128.6601725528454949
 30
0.0
 40
0.1448274961674451
 50
98.8907910091614042
 51
171.1515712916834104
  0
ARC
  5
129B7
  8
0
 10
376.5647019847605179
 20
125.7847434216979963
 30
0.0
 40
18.8381644485202315
 50
171.1515712916834104
 51
171.5541168442919968
  0
ARC
  5
129B8
  8
0
 10
355.2428321309946
 20
128.9507324369513981
 30
0.0
 40
2.7174756604080659
 50
328.1402495297609789
 51
351.5541168442919115
  0
ARC
  5
129B9
  8
0
 10
351.9156796501912936
 20
131.0184610456392988
 30
0.0
 40
6.6348019462440764
 50
313.6197170537196257
 51
328.1402495297609789
  0
ARC
  5
129BA
  8
0
 10
352.8634181949537947
 20
130.0239230695489141
 30
0.0
 40
5.2610064246635524
 50
299.6867435210243116
 51
313.6197170537196257
  0
ARC
  5
129BB
  8
0
 10
353.0267115549928008
 20
129.7374853637994931
 30
0.0
 40
4.9312924869724268
 50
285.3252840535907922
 51
299.6867435210243116
  0
ARC
  5
129BC
  8
0
 10
354.4179023221090006
 20
124.7156637894319005
 30
0.0
 40
0.2800210293145062
 50
108.2853915093393056
 51
180.5100599155080943
  0
LINE
  5
129BD
  8
0
 10
354.0947203170264856
 20
125.7153397998677065
 30
0.0
 11
354.4180810852996046
 21
118.2910546983756035
 31
0.0
  0
ARC
  5
129BE
  8
0
 10
350.7821534850680791
 20
127.6159137443307969
 30
0.0
 40
3.2302213366633179
 50
270.804944852905578
 51
293.3301393514017263
  0
ARC
  5
129BF
  8
0
 10
349.0526459992934747
 20
131.9545908138441916
 30
0.0
 40
7.9001666671052817
 50
292.3862570878555971
 51
301.0838592567894239
  0
ARC
  5
129C0
  8
0
 10
367.7615933721677948
 20
99.9458345962869856
 30
0.0
 40
29.1761570313086906
 50
118.4542482417574973
 51
120.0954553368282944
  0
ARC
  5
129C1
  8
0
 10
354.0372001199103806
 20
125.5378735931603984
 30
0.0
 40
0.1865551596696331
 50
72.0414973747558491
 51
161.3766311093177137
  0
ARC
  5
129C2
  8
0
 10
357.4158085666621787
 20
118.4221709124082054
 30
0.0
 40
3.0005935269707078
 50
182.5044373338758135
 51
213.574091795791503
  0
ARC
  5
129C3
  8
0
 10
354.7075181216662259
 20
116.6245278211655005
 30
0.0
 40
0.2499999300334346
 50
359.9999979855081165
 51
33.5786601785181773
  0
LINE
  5
129C4
  8
0
 10
354.9575180516995943
 20
116.6245278123756037
 30
0.0
 11
354.9575180082995871
 21
116.4902968304756001
 31
0.0
  0
LINE
  5
129C5
  8
0
 10
356.0875147785997115
 20
114.5016026478756004
 30
0.0
 11
356.0627247703957892
 21
114.9746866369484053
 31
0.0
  0
ARC
  5
129C6
  8
0
 10
355.8130689601003951
 20
114.9616044576138023
 30
0.0
 40
0.2499983340553105
 50
2.999604679180162
 51
87.2364967884106335
  0
ARC
  5
129C7
  8
0
 10
355.8371190562479001
 20
115.4598489646072039
 30
0.0
 40
0.2488262802869899
 50
234.6804895409813128
 51
267.2364967884105909
  0
ARC
  5
129C8
  8
0
 10
355.8381811082934973
 20
115.4613478719711992
 30
0.0
 40
0.2506633099093352
 50
180.0784752788150058
 51
234.6804895409817107
  0
ARC
  5
129C9
  8
0
 10
392.1833057860973213
 20
115.5111280756865
 30
0.0
 40
36.595822078496127
 50
179.9215039196743078
 51
180.0784752788150058
  0
ARC
  5
129CA
  8
0
 10
354.8390302208593994
 20
115.5622903273113025
 30
0.0
 40
0.7484885332745963
 50
359.9215039196743078
 51
68.3628787997434557
  0
ARC
  5
129CB
  8
0
 10
355.2070441184214928
 20
116.4899753017859041
 30
0.0
 40
0.2495263172758503
 50
179.926171146143588
 51
248.358182830360704
  0
LINE
  5
129CC
  8
0
 10
356.0875147785997115
 20
114.5016026478756004
 30
0.0
 11
350.827533171469895
 21
114.5016025699758018
 31
0.0
  0
LINE
  5
129CD
  8
0
 10
350.827533171469895
 20
115.2113035638253962
 30
0.0
 11
355.82529795021469
 21
115.2113035141423012
 31
0.0
  0
LINE
  5
129CE
  8
0
 10
350.827533171469895
 20
115.4610044530760007
 30
0.0
 11
355.5875180334592756
 21
115.4610045800071987
 31
0.0
  0
LINE
  5
129CF
  8
0
 10
354.9575180514609087
 20
116.6245387462756042
 30
0.0
 11
350.827533171469895
 21
116.6245387462756042
 31
0.0
  0
LINE
  5
129D0
  8
0
 10
354.7621067461182065
 20
116.2580386941045987
 30
0.0
 11
350.827533171469895
 21
116.2580387403753974
 31
0.0
  0
ARC
  5
129D1
  8
0
 10
355.026890747442792
 20
116.1125427404751065
 30
0.0
 40
0.1693036894277951
 50
68.2299075746475978
 51
102.6523031741167955
  0
ARC
  5
129D2
  8
0
 10
354.7156037369422847
 20
118.1216400911308995
 30
0.0
 40
1.8641815085610161
 50
271.4294222757051216
 51
278.4583651303046281
  0
LINE
  5
129D3
  8
0
 10
358.189368536317204
 20
128.9529777749756079
 30
0.0
 11
350.827533171469895
 21
128.9529777769255929
 31
0.0
  0
LINE
  5
129D4
  8
0
 10
358.1799245013019117
 20
130.5016025418755987
 30
0.0
 11
350.827533171469895
 21
130.5016025418755987
 31
0.0
  0
LINE
  5
129D5
  8
0
 10
358.2868884923997825
 20
129.4654407433756091
 30
0.0
 11
350.827533171469895
 21
129.4654407433756091
 31
0.0
  0
LINE
  5
129D6
  8
0
 10
356.8533712045352786
 20
132.8491767454850958
 30
0.0
 11
358.162886098509091
 21
132.8491673031155926
 31
0.0
  0
LINE
  5
129D7
  8
0
 10
358.162886098509091
 20
132.8491673031155926
 30
0.0
 11
358.4889223573997015
 21
132.8732079569755911
 31
0.0
  0
LINE
  5
129D8
  8
0
 10
358.4889223573997015
 20
132.8732079569755911
 30
0.0
 11
358.7391397930942958
 21
132.8735217376901119
 31
0.0
  0
LINE
  5
129D9
  8
0
 10
350.827533171469895
 20
114.5016025699758018
 30
0.0
 11
337.0039284770787162
 21
99.1603350104735455
 31
0.0
  0
ENDBLK
  5
129DD
  8
0
  0
ENDSEC
  0
SECTION
  2
ENTITIES
  0
ATTDEF
  5
8017
  8
DEFPOINTS
 10
4896.4205101739280508
 20
158.5221217876913897
 30
0.0
 40
0.001
  1
P38540-G
  3

  2
MODELNUMBER
 70
     0
1001
ACDBATTR
1070
     0
1070
     1
  0
ATTDEF
  5
8018
  8
DEFPOINTS
 10
4896.4205101739280508
 20
158.5204551210246962
 30
0.0
 40
0.001
  1
KALLISTA
  3

  2
BRANDNAME
 70
     0
1001
ACDBATTR
1070
     0
1070
     1
  0
ATTDEF
  5
8019
  8
DEFPOINTS
 10
4896.4205101739280508
 20
158.5187884543580026
 30
0.0
 40
0.001
  1
RAINHEAD
  3

  2
PRODUCT
 70
     0
1001
ACDBATTR
1070
     0
1070
     1
  0
LINE
  5
1361E
  8
0
 10
4891.431527372356868
 20
150.436099610149995
 30
0.0
 11
4901.4315273723559585
 21
150.436099610149995
 31
0.0
  0
LINE
  5
1361F
  8
0
 10
4901.4315273723559585
 20
149.9935586652501058
 30
0.0
 11
4901.4315273723559585
 21
150.436099610149995
 31
0.0
  0
LINE
  5
13620
  8
0
 10
4891.431527372356868
 20
149.9935586652501058
 30
0.0
 11
4891.431527372356868
 21
150.436099610149995
 31
0.0
  0
LINE
  5
13621
  8
0
 10
4891.4614273723564111
 20
149.9636586652499943
 30
0.0
 11
4901.4016273723564154
 21
149.9636586652499943
 31
0.0
  0
ARC
  5
13622
  8
0
 10
4901.4016273723564154
 20
149.9935586652501058
 30
0.0
 40
0.0299
 50
270.0
 51
0.0
  0
ARC
  5
13623
  8
0
 10
4891.4614273723564111
 20
149.9935586652501058
 30
0.0
 40
0.0299
 50
180.0
 51
270.0
  0
LINE
  5
13624
  8
0
 10
4892.1180917304509421
 20
149.9636586652499943
 30
0.0
 11
4892.122534351898139
 21
149.922317617889604
 31
0.0
  0
ARC
  5
13625
  8
0
 10
4892.130389127682065
 20
149.9231617134699093
 30
0.0
 40
0.0079
 50
186.1336218145034991
 51
268.0001727913889908
  0
LINE
  5
13626
  8
0
 10
4892.2302664171520519
 20
149.9185569833512091
 30
0.0
 11
4892.2383205768574044
 21
149.9636586652499943
 31
0.0
  0
ARC
  5
13627
  8
0
 10
4892.2224894478977149
 20
149.9199457775104065
 30
0.0
 40
0.0079
 50
268.0001727913889908
 51
349.8749738622519203
  0
LINE
  5
13628
  8
0
 10
4892.1301134454697603
 20
149.9152665251050109
 30
0.0
 11
4892.2222137656835912
 21
149.9120505891455082
 31
0.0
  0
LINE
  5
13629
  8
0
 10
4892.2785582274518674
 20
149.9636586652499943
 30
0.0
 11
4892.2829948355547458
 21
149.9223735753830908
 31
0.0
  0
ARC
  5
1362A
  8
0
 10
4892.2908496113414003
 20
149.9232176709633961
 30
0.0
 40
0.0079
 50
186.1336218145034991
 51
268.0001727913889908
  0
LINE
  5
1362B
  8
0
 10
4892.3907269008095682
 20
149.9186129408446959
 30
0.0
 11
4892.3987710677465657
 21
149.9636586652499943
 31
0.0
  0
ARC
  5
1362C
  8
0
 10
4892.3829499315552312
 20
149.9200017350038934
 30
0.0
 40
0.0079
 50
268.0001727913889908
 51
349.8749738622519203
  0
LINE
  5
1362D
  8
0
 10
4892.2905739291272766
 20
149.9153224825986115
 30
0.0
 11
4892.3826742493411075
 21
149.9121065466391087
 31
0.0
  0
LINE
  5
1362E
  8
0
 10
4892.2476484540102319
 20
149.9636586652499943
 30
0.0
 11
4892.2521332048017939
 21
149.9219255810533014
 31
0.0
  0
ARC
  5
1362F
  8
0
 10
4892.2599879805893579
 20
149.9227696766336067
 30
0.0
 40
0.0079
 50
186.1336218145034991
 51
268.0001727913889908
  0
ARC
  5
13630
  8
0
 10
4892.3520883008022793
 20
149.9195537406741039
 30
0.0
 40
0.0079
 50
268.0001727913889908
 51
304.1961239137847883
  0
LINE
  5
13631
  8
0
 10
4892.2597122983752342
 20
149.9148744882687083
 30
0.0
 11
4892.3518126185881556
 21
149.9116585523092056
 31
0.0
  0
LINE
  5
13632
  8
0
 10
4892.658401382656848
 20
149.9636586652499943
 30
0.0
 11
4892.6628440041031354
 21
149.922317617889604
 31
0.0
  0
ARC
  5
13633
  8
0
 10
4892.6706987798879709
 20
149.9231617134699093
 30
0.0
 40
0.0079
 50
186.1336218145034991
 51
268.0001727913889908
  0
ARC
  5
13634
  8
0
 10
4892.7627991001036207
 20
149.9199457775104065
 30
0.0
 40
0.0079
 50
268.0001727913889908
 51
310.3495951379388771
  0
LINE
  5
13635
  8
0
 10
4892.6704230976756662
 20
149.9152665251050109
 30
0.0
 11
4892.7625234178885876
 21
149.9120505891455082
 31
0.0
  0
LINE
  5
13636
  8
0
 10
4892.7174761815567763
 20
149.9636586652499943
 30
0.0
 11
4892.7219188030030637
 21
149.922317617889604
 31
0.0
  0
ARC
  5
13637
  8
0
 10
4892.7297735787888087
 20
149.9231617134699093
 30
0.0
 40
0.0079
 50
186.1336218145034991
 51
268.0001727913889908
  0
LINE
  5
13638
  8
0
 10
4892.8296508682569765
 20
149.9185569833512091
 30
0.0
 11
4892.837705027964148
 21
149.9636586652499943
 31
0.0
  0
ARC
  5
13639
  8
0
 10
4892.821873899003549
 20
149.9199457775104065
 30
0.0
 40
0.0079
 50
268.0001727913889908
 51
349.8749738622519203
  0
LINE
  5
1363A
  8
0
 10
4892.729497896574685
 20
149.9152665251050109
 30
0.0
 11
4892.8215982167912443
 21
149.9120505891455082
 31
0.0
  0
LINE
  5
1363B
  8
0
 10
4892.9692243058580061
 20
149.9636586652499943
 30
0.0
 11
4892.9736669273042935
 21
149.922317617889604
 31
0.0
  0
ARC
  5
1363C
  8
0
 10
4892.981521703089129
 20
149.9231617134699093
 30
0.0
 40
0.0079
 50
186.1336218145034991
 51
268.0001727913889908
  0
LINE
  5
1363D
  8
0
 10
4893.0813989925582064
 20
149.9185569833512091
 30
0.0
 11
4893.0894531522626494
 21
149.9636586652499943
 31
0.0
  0
ARC
  5
1363E
  8
0
 10
4893.0736220233038694
 20
149.9199457775104065
 30
0.0
 40
0.0079
 50
268.0001727913889908
 51
349.8749738622519203
  0
LINE
  5
1363F
  8
0
 10
4892.9812460208750053
 20
149.9152665251050109
 30
0.0
 11
4893.0733463410897457
 21
149.9120505891455082
 31
0.0
  0
LINE
  5
13640
  8
0
 10
4893.0973792645572757
 20
149.9636586652499943
 30
0.0
 11
4893.1018218860017441
 21
149.922317617889604
 31
0.0
  0
ARC
  5
13641
  8
0
 10
4893.1096766617893081
 20
149.9231617134699093
 30
0.0
 40
0.0079
 50
186.1336218145034991
 51
268.0001727913889908
  0
LINE
  5
13642
  8
0
 10
4893.2095539512583855
 20
149.9185569833512091
 30
0.0
 11
4893.2176081109628285
 21
149.9636586652499943
 31
0.0
  0
ARC
  5
13643
  8
0
 10
4893.2017769820040485
 20
149.9199457775104065
 30
0.0
 40
0.0079
 50
268.0001727913889908
 51
349.8749738622519203
  0
LINE
  5
13644
  8
0
 10
4893.1094009795751845
 20
149.9152665251050109
 30
0.0
 11
4893.2015012997899248
 21
149.9120505891455082
 31
0.0
  0
LINE
  5
13645
  8
0
 10
4893.3221079329568965
 20
149.9636586652499943
 30
0.0
 11
4893.3265505544031839
 21
149.922317617889604
 31
0.0
  0
ARC
  5
13646
  8
0
 10
4893.3344053301889289
 20
149.9231617134699093
 30
0.0
 40
0.0079
 50
186.1336218145034991
 51
268.0001727913889908
  0
ARC
  5
13647
  8
0
 10
4893.4265056504036693
 20
149.9199457775104065
 30
0.0
 40
0.0079
 50
268.0001727913889908
 51
318.8790095607561739
  0
LINE
  5
13648
  8
0
 10
4893.3341296479757148
 20
149.9152665251050109
 30
0.0
 11
4893.4262299681895456
 21
149.9120505891455082
 31
0.0
  0
LINE
  5
13649
  8
0
 10
4893.4056520818558056
 20
149.9636586652499943
 30
0.0
 11
4893.4100947033030025
 21
149.922317617889604
 31
0.0
  0
ARC
  5
1364A
  8
0
 10
4893.4179494790887475
 20
149.9231617134699093
 30
0.0
 40
0.0079
 50
186.1336218145034991
 51
268.0001727913889908
  0
LINE
  5
1364B
  8
0
 10
4893.5178267685578248
 20
149.9185569833512091
 30
0.0
 11
4893.5258809282631773
 21
149.9636586652499943
 31
0.0
  0
ARC
  5
1364C
  8
0
 10
4893.5100497993025783
 20
149.9199457775104065
 30
0.0
 40
0.0079
 50
268.0001727913889908
 51
349.8749738622519203
  0
LINE
  5
1364D
  8
0
 10
4893.4176737968746238
 20
149.9152665251050109
 30
0.0
 11
4893.5097741170911831
 21
149.9120505891455082
 31
0.0
  0
LINE
  5
1364E
  8
0
 10
4893.4013990532557727
 20
149.9636586652499943
 30
0.0
 11
4893.4058416747020601
 21
149.922317617889604
 31
0.0
  0
ARC
  5
1364F
  8
0
 10
4893.4136964504887146
 20
149.9231617134699093
 30
0.0
 40
0.0079
 50
186.1336218145034991
 51
285.6154199240161802
  0
LINE
  5
13650
  8
0
 10
4893.560947045051762
 20
149.9185569833512091
 30
0.0
 11
4893.5690012047571145
 21
149.9636586652499943
 31
0.0
  0
ARC
  5
13651
  8
0
 10
4893.5531700757974249
 20
149.9199457775104065
 30
0.0
 40
0.0079
 50
268.0001727913889908
 51
349.8749738622519203
  0
LINE
  5
13652
  8
0
 10
4893.5144617683254182
 20
149.9133925699476038
 30
0.0
 11
4893.5528943935842108
 21
149.9120505891455082
 31
0.0
  0
LINE
  5
13653
  8
0
 10
4893.8204911612574506
 20
149.9636586652499943
 30
0.0
 11
4893.8249337827028285
 21
149.922317617889604
 31
0.0
  0
ARC
  5
13654
  8
0
 10
4893.8327885584903925
 20
149.9231617134699093
 30
0.0
 40
0.0079
 50
186.1336218145034991
 51
268.0001727913889908
  0
LINE
  5
13655
  8
0
 10
4893.9326658479585603
 20
149.9185569833512091
 30
0.0
 11
4893.9407200076630033
 21
149.9636586652499943
 31
0.0
  0
ARC
  5
13656
  8
0
 10
4893.9248888787042233
 20
149.9199457775104065
 30
0.0
 40
0.0079
 50
268.0001727913889908
 51
349.8749738622519203
  0
LINE
  5
13657
  8
0
 10
4893.8325128762762688
 20
149.9152665251050109
 30
0.0
 11
4893.9246131964900997
 21
149.9120505891455082
 31
0.0
  0
LINE
  5
13658
  8
0
 10
4893.9990924060566613
 20
149.9636586652499943
 30
0.0
 11
4894.0035350275029487
 21
149.922317617889604
 31
0.0
  0
ARC
  5
13659
  8
0
 10
4894.0113898032886937
 20
149.9231617134699093
 30
0.0
 40
0.0079
 50
186.1336218145034991
 51
268.0001727913889908
  0
LINE
  5
1365A
  8
0
 10
4894.111267092757771
 20
149.9185569833512091
 30
0.0
 11
4894.1193212524631235
 21
149.9636586652499943
 31
0.0
  0
ARC
  5
1365B
  8
0
 10
4894.103490123503434
 20
149.9199457775104065
 30
0.0
 40
0.0079
 50
268.0001727913889908
 51
349.8749738622519203
  0
LINE
  5
1365C
  8
0
 10
4894.011114121076389
 20
149.9152665251050109
 30
0.0
 11
4894.1032144412902198
 21
149.9120505891455082
 31
0.0
  0
LINE
  5
1365D
  8
0
 10
4894.1443854017570629
 20
149.9636586652499943
 30
0.0
 11
4894.1488280232042598
 21
149.922317617889604
 31
0.0
  0
ARC
  5
1365E
  8
0
 10
4894.1566827989890953
 20
149.9231617134699093
 30
0.0
 40
0.0079
 50
186.1336218145034991
 51
268.0001727913889908
  0
ARC
  5
1365F
  8
0
 10
4894.2487831192038357
 20
149.9199457775104065
 30
0.0
 40
0.0079
 50
268.0001727913889908
 51
300.4888692062020823
  0
LINE
  5
13660
  8
0
 10
4894.1564071167749717
 20
149.9152665251050109
 30
0.0
 11
4894.248507436989712
 21
149.9120505891455082
 31
0.0
  0
LINE
  5
13661
  8
0
 10
4894.1798150554568565
 20
149.9636586652499943
 30
0.0
 11
4894.1842576769031439
 21
149.922317617889604
 31
0.0
  0
ARC
  5
13662
  8
0
 10
4894.1921124526888889
 20
149.9231617134699093
 30
0.0
 40
0.0079
 50
186.1336218145034991
 51
268.0001727913889908
  0
LINE
  5
13663
  8
0
 10
4894.2919897421579662
 20
149.9185569833512091
 30
0.0
 11
4894.2974823468894101
 21
149.9493144702173879
 31
0.0
  0
ARC
  5
13664
  8
0
 10
4894.2842127729036292
 20
149.9199457775104065
 30
0.0
 40
0.0079
 50
268.0001727913889908
 51
349.8749738622519203
  0
LINE
  5
13665
  8
0
 10
4894.1918367704756747
 20
149.9152665251050109
 30
0.0
 11
4894.2839370906904151
 21
149.9120505891455082
 31
0.0
  0
LINE
  5
13666
  8
0
 10
4894.295940880656417
 20
149.9636586652499943
 30
0.0
 11
4894.3003835021027044
 21
149.922317617889604
 31
0.0
  0
ARC
  5
13667
  8
0
 10
4894.3082382778902684
 20
149.9231617134699093
 30
0.0
 40
0.0079
 50
186.1336218145034991
 51
268.0001727913889908
  0
LINE
  5
13668
  8
0
 10
4894.4081155673584362
 20
149.9185569833512091
 30
0.0
 11
4894.4161697270628792
 21
149.9636586652499943
 31
0.0
  0
ARC
  5
13669
  8
0
 10
4894.4003385981040992
 20
149.9199457775104065
 30
0.0
 40
0.0079
 50
268.0001727913889908
 51
349.8749738622519203
  0
LINE
  5
1366A
  8
0
 10
4894.3079625956752352
 20
149.9152665251050109
 30
0.0
 11
4894.4000629158899756
 21
149.9120505891455082
 31
0.0
  0
ARC
  5
1366B
  8
0
 10
4894.2917914196241327
 20
149.9413506051463116
 30
0.0
 40
0.0293604206395015
 50
259.9647953372751203
 51
298.7551898409661248
  0
ARC
  5
1366C
  8
0
 10
4894.0089976363133246
 20
149.9364588186982132
 30
0.0
 40
0.0727479849105612
 50
178.1205483669214118
 51
193.3412748243532064
  0
ARC
  5
1366D
  8
0
 10
4893.9453793769007461
 20
149.9213717008065032
 30
0.0
 40
0.0073652344568372
 50
193.3412748243594876
 51
279.0919683279731203
  0
ARC
  5
1366E
  8
0
 10
4894.0218714776301567
 20
152.2470383457406911
 30
0.0
 40
2.3341551619710139
 50
268.1506198287165716
 51
269.7293680361099177
  0
ARC
  5
1366F
  8
0
 10
4894.0216014772104245
 20
150.8968133485381031
 30
0.0
 40
0.9839629075574799
 50
269.3737192443483082
 51
270.8912104258614022
  0
ARC
  5
13670
  8
0
 10
4894.0145605035768313
 20
150.0230279363231887
 30
0.0
 40
0.1123039873631231
 50
281.4769101333557728
 51
284.2526938483578078
  0
LINE
  5
13671
  8
0
 10
4894.6293727603570005
 20
149.9636586652499943
 30
0.0
 11
4894.6338153818032879
 21
149.922317617889604
 31
0.0
  0
ARC
  5
13672
  8
0
 10
4894.6416701575890329
 20
149.9231617134699093
 30
0.0
 40
0.0079
 50
186.1336218145034991
 51
268.0001727913889908
  0
ARC
  5
13673
  8
0
 10
4894.7337704778028638
 20
149.9199457775104065
 30
0.0
 40
0.0079
 50
268.0001727913889908
 51
303.1488670887734997
  0
LINE
  5
13674
  8
0
 10
4894.6413944753749092
 20
149.9152665251050109
 30
0.0
 11
4894.7334947955887401
 21
149.9120505891455082
 31
0.0
  0
LINE
  5
13675
  8
0
 10
4894.6706514236557268
 20
149.9636586652499943
 30
0.0
 11
4894.6750940451029237
 21
149.922317617889604
 31
0.0
  0
ARC
  5
13676
  8
0
 10
4894.6829488208886687
 20
149.9231617134699093
 30
0.0
 40
0.0079
 50
186.1336218145034991
 51
268.0001727913889908
  0
ARC
  5
13677
  8
0
 10
4894.7750491411034091
 20
149.9199457775104065
 30
0.0
 40
0.0079
 50
268.0001727913889908
 51
302.8334418033090856
  0
LINE
  5
13678
  8
0
 10
4894.6826731386754545
 20
149.9152665251050109
 30
0.0
 11
4894.7747734588901949
 21
149.9120505891455082
 31
0.0
  0
LINE
  5
13679
  8
0
 10
4894.7112154056558211
 20
149.9636586652499943
 30
0.0
 11
4894.715658027103018
 21
149.922317617889604
 31
0.0
  0
ARC
  5
1367A
  8
0
 10
4894.7235128028878535
 20
149.9231617134699093
 30
0.0
 40
0.0079
 50
186.1336218145034991
 51
268.0001727913889908
  0
LINE
  5
1367B
  8
0
 10
4894.8233900923587498
 20
149.9185569833512091
 30
0.0
 11
4894.8314442520631928
 21
149.9636586652499943
 31
0.0
  0
ARC
  5
1367C
  8
0
 10
4894.8156131231025938
 20
149.9199457775104065
 30
0.0
 40
0.0079
 50
268.0001727913889908
 51
349.8749738622519203
  0
LINE
  5
1367D
  8
0
 10
4894.7232371206746393
 20
149.9152665251050109
 30
0.0
 11
4894.8153374408902891
 21
149.9120505891455082
 31
0.0
  0
LINE
  5
1367E
  8
0
 10
4894.8866818701580996
 20
149.9636586652499943
 30
0.0
 11
4894.891124491602568
 21
149.922317617889604
 31
0.0
  0
ARC
  5
1367F
  8
0
 10
4894.8989792673892225
 20
149.9231617134699093
 30
0.0
 40
0.0079
 50
186.1336218145034991
 51
268.0001727913889908
  0
ARC
  5
13680
  8
0
 10
4894.9910795876048724
 20
149.9199457775104065
 30
0.0
 40
0.0079
 50
268.0001727913889908
 51
294.406203643172887
  0
LINE
  5
13681
  8
0
 10
4894.8987035851750989
 20
149.9152665251050109
 30
0.0
 11
4894.9908039053898392
 21
149.9120505891455082
 31
0.0
  0
LINE
  5
13682
  8
0
 10
4894.9103016392564314
 20
149.9636586652499943
 30
0.0
 11
4894.9147442607018093
 21
149.922317617889604
 31
0.0
  0
ARC
  5
13683
  8
0
 10
4894.9225990364893732
 20
149.9231617134699093
 30
0.0
 40
0.0079
 50
186.1336218145034991
 51
268.0001727913889908
  0
LINE
  5
13684
  8
0
 10
4895.0224763259593601
 20
149.9185569833512091
 30
0.0
 11
4895.0305304856619841
 21
149.9636586652499943
 31
0.0
  0
ARC
  5
13685
  8
0
 10
4895.0146993567041136
 20
149.9199457775104065
 30
0.0
 40
0.0079
 50
268.0001727913889908
 51
349.8749738622519203
  0
LINE
  5
13686
  8
0
 10
4894.9223233542761591
 20
149.9152665251050109
 30
0.0
 11
4895.0144236744899899
 21
149.9120505891455082
 31
0.0
  0
LINE
  5
13687
  8
0
 10
4895.0651242892572554
 20
149.9636586652499943
 30
0.0
 11
4895.0695669107017238
 21
149.922317617889604
 31
0.0
  0
ARC
  5
13688
  8
0
 10
4895.0774216864892878
 20
149.9231617134699093
 30
0.0
 40
0.0079
 50
186.1336218145034991
 51
268.0001727913889908
  0
ARC
  5
13689
  8
0
 10
4895.1695220067040282
 20
149.9199457775104065
 30
0.0
 40
0.0079
 50
268.0001727913889908
 51
311.2034394446426973
  0
LINE
  5
1368A
  8
0
 10
4895.0771460042751642
 20
149.9152665251050109
 30
0.0
 11
4895.1692463244899045
 21
149.9120505891455082
 31
0.0
  0
LINE
  5
1368B
  8
0
 10
4895.1264902496568538
 20
149.9636586652499943
 30
0.0
 11
4895.1309328711031412
 21
149.922317617889604
 31
0.0
  0
ARC
  5
1368C
  8
0
 10
4895.1387876468888862
 20
149.9231617134699093
 30
0.0
 40
0.0079
 50
186.1336218145034991
 51
268.0001727913889908
  0
LINE
  5
1368D
  8
0
 10
4895.2386649363579636
 20
149.9185569833512091
 30
0.0
 11
4895.2467190960633161
 21
149.9636586652499943
 31
0.0
  0
ARC
  5
1368E
  8
0
 10
4895.2308879671036266
 20
149.9199457775104065
 30
0.0
 40
0.0079
 50
268.0001727913889908
 51
349.8749738622519203
  0
LINE
  5
1368F
  8
0
 10
4895.1385119646756721
 20
149.9152665251050109
 30
0.0
 11
4895.2306122848904124
 21
149.9120505891455082
 31
0.0
  0
LINE
  5
13690
  8
0
 10
4895.3276690153570598
 20
149.9636586652499943
 30
0.0
 11
4895.3321116368042567
 21
149.922317617889604
 31
0.0
  0
ARC
  5
13691
  8
0
 10
4895.3399664125881827
 20
149.9231617134699093
 30
0.0
 40
0.0079
 50
186.1336218145034991
 51
268.0001727913889908
  0
LINE
  5
13692
  8
0
 10
4895.4398437020581696
 20
149.9185569833512091
 30
0.0
 11
4895.4478978617626126
 21
149.9636586652499943
 31
0.0
  0
ARC
  5
13693
  8
0
 10
4895.4320667328038326
 20
149.9199457775104065
 30
0.0
 40
0.0079
 50
268.0001727913889908
 51
349.8749738622519203
  0
LINE
  5
13694
  8
0
 10
4895.3396907303749686
 20
149.9152665251050109
 30
0.0
 11
4895.4317910505897089
 21
149.9120505891455082
 31
0.0
  0
LINE
  5
13695
  8
0
 10
4895.5005077951573185
 20
149.9636586652499943
 30
0.0
 11
4895.5049504166026964
 21
149.922317617889604
 31
0.0
  0
ARC
  5
13696
  8
0
 10
4895.5128051923893509
 20
149.9231617134699093
 30
0.0
 40
0.0079
 50
186.1336218145034991
 51
268.0001727913889908
  0
ARC
  5
13697
  8
0
 10
4895.6049055126040912
 20
149.9199457775104065
 30
0.0
 40
0.0079
 50
268.0001727913889908
 51
283.270083002721492
  0
LINE
  5
13698
  8
0
 10
4895.5125295101752272
 20
149.9152665251050109
 30
0.0
 11
4895.604629830390877
 21
149.9120505891455082
 31
0.0
  0
LINE
  5
13699
  8
0
 10
4895.5210271487558202
 20
149.9632212482501075
 30
0.0
 11
4895.5254697702030171
 21
149.9218802008896034
 31
0.0
  0
ARC
  5
1369A
  8
0
 10
4895.5333245459887621
 20
149.9227242964699087
 30
0.0
 40
0.0079
 50
186.1336218145034991
 51
268.0001727913889908
  0
ARC
  5
1369B
  8
0
 10
4895.625424866202593
 20
149.919508360510406
 30
0.0
 40
0.0079
 50
268.0001727913889908
 51
296.7808183652898038
  0
LINE
  5
1369C
  8
0
 10
4895.5330488637746384
 20
149.9148291081050104
 30
0.0
 11
4895.6251491839911978
 21
149.9116131721455076
 31
0.0
  0
LINE
  5
1369D
  8
0
 10
4895.5364654217573843
 20
149.9636586652499943
 30
0.0
 11
4895.5409080432018527
 21
149.922317617889604
 31
0.0
  0
ARC
  5
1369E
  8
0
 10
4895.5487628189894167
 20
149.9231617134699093
 30
0.0
 40
0.0079
 50
186.1336218145034991
 51
268.0001727913889908
  0
LINE
  5
1369F
  8
0
 10
4895.6486401084594036
 20
149.9185569833512091
 30
0.0
 11
4895.6566942681629371
 21
149.9636586652499943
 31
0.0
  0
ARC
  5
136A0
  8
0
 10
4895.6408631392041571
 20
149.9199457775104065
 30
0.0
 40
0.0079
 50
268.0001727913889908
 51
349.8749738622519203
  0
LINE
  5
136A1
  8
0
 10
4895.548487136775293
 20
149.9152665251050109
 30
0.0
 11
4895.6405874569900334
 21
149.9120505891455082
 31
0.0
  0
LINE
  5
136A2
  8
0
 10
4895.6549283504200503
 20
149.9215882106311994
 30
0.0
 11
4895.6624412001865494
 21
149.9636586652499943
 31
0.0
  0
ARC
  5
136A3
  8
0
 10
4895.6471513811657132
 20
149.9229770047905106
 30
0.0
 40
0.0079
 50
269.516365200087705
 51
349.8749738622519203
  0
LINE
  5
136A4
  8
0
 10
4895.4469842846019674
 20
149.9585428160453091
 30
0.0
 11
4895.4510336882385673
 21
149.9208608776648077
 31
0.0
  0
ARC
  5
136A5
  8
0
 10
4895.4588884640261313
 20
149.921704973245113
 30
0.0
 40
0.0079
 50
186.1336218145034991
 51
268.0001727913889908
  0
ARC
  5
136A6
  8
0
 10
4895.5509887842399621
 20
149.9184890372856103
 30
0.0
 40
0.0079
 50
268.0001727913889908
 51
322.721785372980321
  0
LINE
  5
136A7
  8
0
 10
4895.4586127818120076
 20
149.9138097848801863
 30
0.0
 11
4895.5507131020267479
 21
149.9105938489207119
 31
0.0
  0
LINE
  5
136A8
  8
0
 10
4895.3269294838928545
 20
149.9200335948181078
 30
0.0
 11
4895.3297363136907734
 21
149.9444213119521123
 31
0.0
  0
ARC
  5
136A9
  8
0
 10
4895.3190812920793178
 20
149.9209368584783988
 30
0.0
 40
0.0079
 50
271.5598032856092914
 51
353.4346043564717093
  0
LINE
  5
136AA
  8
0
 10
4895.2334320604240929
 20
149.9124666338979921
 30
0.0
 11
4895.3192963327674079
 21
149.9130397857611001
 31
0.0
  0
LINE
  5
136AB
  8
0
 10
4895.9565238950863204
 20
149.9636586652499943
 30
0.0
 11
4895.9627004260610192
 21
149.9204409797333142
 31
0.0
  0
ARC
  5
136AC
  8
0
 10
4895.9705209617886794
 20
149.9215586652501031
 30
0.0
 40
0.0079
 50
188.1334490231323002
 51
270.0
  0
LINE
  5
136AD
  8
0
 10
4896.07049810810895
 20
149.9204421058340984
 30
0.0
 11
4896.0766681283648722
 21
149.9636586652499943
 31
0.0
  0
ARC
  5
136AE
  8
0
 10
4896.0626774115244189
 20
149.9215586652501031
 30
0.0
 40
0.0079
 50
270.0
 51
351.8748010708845868
  0
LINE
  5
136AF
  8
0
 10
4895.9360414163020323
 20
149.9636586652499943
 30
0.0
 11
4895.9422179472758216
 21
149.9204409797333142
 31
0.0
  0
ARC
  5
136B0
  8
0
 10
4895.9500384830053008
 20
149.9215586652501031
 30
0.0
 40
0.0079
 50
188.1334490231323002
 51
270.0
  0
LINE
  5
136B1
  8
0
 10
4895.9500384830053008
 20
149.9136586652500966
 30
0.0
 11
4896.0626774115244189
 21
149.9136586652500966
 31
0.0
  0
LINE
  5
136B2
  8
0
 10
4896.4305985771279666
 20
149.9636586652499943
 30
0.0
 11
4896.4367886247746355
 21
149.9203464024870982
 31
0.0
  0
ARC
  5
136B3
  8
0
 10
4896.4446091605041147
 20
149.9214640880038019
 30
0.0
 40
0.0079
 50
188.1334490231323002
 51
270.0
  0
LINE
  5
136B4
  8
0
 10
4896.5445863068225663
 20
149.9203475285877971
 30
0.0
 11
4896.5507698298551986
 21
149.9636586652499943
 31
0.0
  0
ARC
  5
136B5
  8
0
 10
4896.5367656102389446
 20
149.9214640880038019
 30
0.0
 40
0.0079
 50
270.0
 51
351.8748010708845868
  0
LINE
  5
136B6
  8
0
 10
4896.4446091605041147
 20
149.9135640880037954
 30
0.0
 11
4896.5367656102389446
 21
149.9135640880037954
 31
0.0
  0
LINE
  5
136B7
  8
0
 10
4896.4186109269567169
 20
149.9636586652499943
 30
0.0
 11
4896.4248009746042953
 21
149.9203464024870982
 31
0.0
  0
ARC
  5
136B8
  8
0
 10
4896.4326215103319555
 20
149.9214640880038019
 30
0.0
 40
0.0079
 50
188.1334490231323002
 51
270.0
  0
LINE
  5
136B9
  8
0
 10
4896.4067044606572381
 20
149.9636586652499943
 30
0.0
 11
4896.4128945083039071
 21
149.9203464024870982
 31
0.0
  0
ARC
  5
136BA
  8
0
 10
4896.4207150440315672
 20
149.9214640880038019
 30
0.0
 40
0.0079
 50
188.1334490231323002
 51
270.0
  0
LINE
  5
136BB
  8
0
 10
4896.3948945761567302
 20
149.9636586652499943
 30
0.0
 11
4896.4010846238043086
 21
149.9203464024870982
 31
0.0
  0
ARC
  5
136BC
  8
0
 10
4896.4089051595328783
 20
149.9214640880038019
 30
0.0
 40
0.0079
 50
188.1334490231323002
 51
270.0
  0
LINE
  5
136BD
  8
0
 10
4896.4207150440315672
 20
149.9135640880037954
 30
0.0
 11
4896.4326215103319555
 21
149.9135640880037954
 31
0.0
  0
LINE
  5
136BE
  8
0
 10
4896.4089051595328783
 20
149.9135640880037954
 30
0.0
 11
4896.4192880362197684
 21
149.9136940398250033
 31
0.0
  0
LINE
  5
136BF
  8
0
 10
4896.4326215103319555
 20
149.9135640880037954
 30
0.0
 11
4896.4417884451868304
 21
149.9140848221117892
 31
0.0
  0
LINE
  5
136C0
  8
0
 10
4896.3476550377572494
 20
149.9636586652499943
 30
0.0
 11
4896.3538450854030089
 21
149.9203464024870982
 31
0.0
  0
ARC
  5
136C1
  8
0
 10
4896.3616656211333975
 20
149.9214640880038019
 30
0.0
 40
0.0079
 50
188.1334490231323002
 51
270.0
  0
LINE
  5
136C2
  8
0
 10
4896.3358451531557876
 20
149.9636586652499943
 30
0.0
 11
4896.3420352008042755
 21
149.9203464024870982
 31
0.0
  0
ARC
  5
136C3
  8
0
 10
4896.3498557365328452
 20
149.9214640880038019
 30
0.0
 40
0.0079
 50
188.1334490231323002
 51
270.0
  0
LINE
  5
136C4
  8
0
 10
4896.3241074403558741
 20
149.9636586652499943
 30
0.0
 11
4896.3302974880043621
 21
149.9203464024870982
 31
0.0
  0
ARC
  5
136C5
  8
0
 10
4896.3381180237329318
 20
149.9214640880038019
 30
0.0
 40
0.0079
 50
188.1334490231323002
 51
270.0
  0
LINE
  5
136C6
  8
0
 10
4896.3123767883571418
 20
149.9636586652499943
 30
0.0
 11
4896.3185668360038107
 21
149.9203464024870982
 31
0.0
  0
ARC
  5
136C7
  8
0
 10
4896.3263873717332899
 20
149.9214640880038019
 30
0.0
 40
0.0079
 50
188.1334490231323002
 51
270.0
  0
LINE
  5
136C8
  8
0
 10
4896.3616656211333975
 20
149.9135640880037954
 30
0.0
 11
4896.4069049723266289
 21
149.9138214934743019
 31
0.0
  0
LINE
  5
136C9
  8
0
 10
4896.3498557365328452
 20
149.9135640880037954
 30
0.0
 11
4896.3605047708870188
 21
149.9136498428894129
 31
0.0
  0
LINE
  5
136CA
  8
0
 10
4896.3381180237329318
 20
149.9135640880037954
 30
0.0
 11
4896.3478693814568032
 21
149.9138178867563056
 31
0.0
  0
LINE
  5
136CB
  8
0
 10
4896.3263873717332899
 20
149.9135640880037954
 30
0.0
 11
4896.3372597272273197
 21
149.9136108512757062
 31
0.0
  0
LINE
  5
136CC
  8
0
 10
4896.8066583128565981
 20
149.9636586652499943
 30
0.0
 11
4896.8128483605041765
 21
149.9203464024870982
 31
0.0
  0
ARC
  5
136CD
  8
0
 10
4896.8206688962318367
 20
149.9214640880038019
 30
0.0
 40
0.0079
 50
188.1334490231323002
 51
270.0
  0
LINE
  5
136CE
  8
0
 10
4896.9206460425521072
 20
149.9203475285877971
 30
0.0
 11
4896.9268295655847396
 21
149.9636586652499943
 31
0.0
  0
ARC
  5
136CF
  8
0
 10
4896.9128253459666666
 20
149.9214640880038019
 30
0.0
 40
0.0079
 50
270.0
 51
351.8748010708845868
  0
LINE
  5
136D0
  8
0
 10
4896.7862029926563991
 20
149.9636586652499943
 30
0.0
 11
4896.7923930403030681
 21
149.9203464024870982
 31
0.0
  0
ARC
  5
136D1
  8
0
 10
4896.8002135760325473
 20
149.9214640880038019
 30
0.0
 40
0.0079
 50
188.1334490231323002
 51
270.0
  0
LINE
  5
136D2
  8
0
 10
4896.8002135760325473
 20
149.9135640880037954
 30
0.0
 11
4896.9128253459666666
 21
149.9135640880037954
 31
0.0
  0
LINE
  5
136D3
  8
0
 10
4897.2011311784572172
 20
149.9636586652499943
 30
0.0
 11
4897.2073212261038861
 21
149.9203464024870982
 31
0.0
  0
ARC
  5
136D4
  8
0
 10
4897.2151417618333653
 20
149.9214640880038019
 30
0.0
 40
0.0079
 50
188.1334490231323002
 51
270.0
  0
LINE
  5
136D5
  8
0
 10
4897.2215864985555527
 20
149.9636586652499943
 30
0.0
 11
4897.2277765462040406
 21
149.9203464024870982
 31
0.0
  0
ARC
  5
136D6
  8
0
 10
4897.2355970819326103
 20
149.9214640880038019
 30
0.0
 40
0.0079
 50
188.1334490231323002
 51
270.0
  0
LINE
  5
136D7
  8
0
 10
4897.2420418187557516
 20
149.9636586652499943
 30
0.0
 11
4897.2482318664042396
 21
149.9203464024870982
 31
0.0
  0
ARC
  5
136D8
  8
0
 10
4897.2560524021328092
 20
149.9214640880038019
 30
0.0
 40
0.0079
 50
188.1334490231323002
 51
270.0
  0
LINE
  5
136D9
  8
0
 10
4897.2975350507567782
 20
149.9636586652499943
 30
0.0
 11
4897.3037250984043567
 21
149.9203464024870982
 31
0.0
  0
ARC
  5
136DA
  8
0
 10
4897.3115456341329264
 20
149.9214640880038019
 30
0.0
 40
0.0079
 50
188.1334490231323002
 51
270.0
  0
LINE
  5
136DB
  8
0
 10
4897.5293493684566783
 20
149.9636586652499943
 30
0.0
 11
4897.5355394161042568
 21
149.9203464024870982
 31
0.0
  0
ARC
  5
136DC
  8
0
 10
4897.5433599518328265
 20
149.9214640880038019
 30
0.0
 40
0.0079
 50
188.1334490231323002
 51
270.0
  0
LINE
  5
136DD
  8
0
 10
4897.6774253246567241
 20
149.9636586652499943
 30
0.0
 11
4897.6836153723043026
 21
149.9203464024870982
 31
0.0
  0
ARC
  5
136DE
  8
0
 10
4897.6914359080328722
 20
149.9214640880038019
 30
0.0
 40
0.0079
 50
188.1334490231323002
 51
270.0
  0
LINE
  5
136DF
  8
0
 10
4897.8322479745556848
 20
149.9636586652499943
 30
0.0
 11
4897.8384380222050822
 21
149.9203464024870982
 31
0.0
  0
ARC
  5
136E0
  8
0
 10
4897.8462585579327424
 20
149.9214640880038019
 30
0.0
 40
0.0079
 50
188.1334490231323002
 51
270.0
  0
LINE
  5
136E1
  8
0
 10
4897.8558677437567894
 20
149.9636586652499943
 30
0.0
 11
4897.8620577914043679
 21
149.9203464024870982
 31
0.0
  0
ARC
  5
136E2
  8
0
 10
4897.8698783271329376
 20
149.9214640880038019
 30
0.0
 40
0.0079
 50
188.1334490231323002
 51
270.0
  0
LINE
  5
136E3
  8
0
 10
4898.0314985096565579
 20
149.9636586652499943
 30
0.0
 11
4898.0376885573041363
 21
149.9203464024870982
 31
0.0
  0
ARC
  5
136E4
  8
0
 10
4898.045509093032706
 20
149.9214640880038019
 30
0.0
 40
0.0079
 50
188.1334490231323002
 51
270.0
  0
LINE
  5
136E5
  8
0
 10
4898.0718981902564337
 20
149.9636586652499943
 30
0.0
 11
4898.0780882379040122
 21
149.9203464024870982
 31
0.0
  0
ARC
  5
136E6
  8
0
 10
4898.0859087736325819
 20
149.9214640880038019
 30
0.0
 40
0.0079
 50
188.1334490231323002
 51
270.0
  0
LINE
  5
136E7
  8
0
 10
4898.1133407047573201
 20
149.9636586652499943
 30
0.0
 11
4898.119530752403989
 21
149.9203464024870982
 31
0.0
  0
ARC
  5
136E8
  8
0
 10
4898.1273512881325587
 20
149.9214640880038019
 30
0.0
 40
0.0079
 50
188.1334490231323002
 51
270.0
  0
LINE
  5
136E9
  8
0
 10
4898.4469427151570926
 20
149.9636586652499943
 30
0.0
 11
4898.4531327628037616
 21
149.9203464024870982
 31
0.0
  0
ARC
  5
136EA
  8
0
 10
4898.4609532985332407
 20
149.9214640880038019
 30
0.0
 40
0.0079
 50
188.1334490231323002
 51
270.0
  0
LINE
  5
136EB
  8
0
 10
4898.5492608131571615
 20
149.9636586652499943
 30
0.0
 11
4898.5554508608038304
 21
149.9203464024870982
 31
0.0
  0
ARC
  5
136EC
  8
0
 10
4898.5632713965333096
 20
149.9214640880038019
 30
0.0
 40
0.0079
 50
188.1334490231323002
 51
270.0
  0
LINE
  5
136ED
  8
0
 10
4898.7436086371581041
 20
149.9636586652499943
 30
0.0
 11
4898.7497986848038636
 21
149.9203464024870982
 31
0.0
  0
ARC
  5
136EE
  8
0
 10
4898.7576192205324332
 20
149.9214640880038019
 30
0.0
 40
0.0079
 50
188.1334490231323002
 51
270.0
  0
LINE
  5
136EF
  8
0
 10
4898.8104324335572528
 20
149.9636586652499943
 30
0.0
 11
4898.8166224812039218
 21
149.9203464024870982
 31
0.0
  0
ARC
  5
136F0
  8
0
 10
4898.824443016931582
 20
149.9214640880038019
 30
0.0
 40
0.0079
 50
188.1334490231323002
 51
270.0
  0
LINE
  5
136F1
  8
0
 10
4899.294053540056666
 20
149.9636586652499943
 30
0.0
 11
4899.3002435877042444
 21
149.9203464024870982
 31
0.0
  0
ARC
  5
136F2
  8
0
 10
4899.3080641234328141
 20
149.9214640880038019
 30
0.0
 40
0.0079
 50
188.1334490231323002
 51
270.0
  0
LINE
  5
136F3
  8
0
 10
4899.3413050583558288
 20
149.9636586652499943
 30
0.0
 11
4899.3474951060043168
 21
149.9203464024870982
 31
0.0
  0
ARC
  5
136F4
  8
0
 10
4899.3553156417328864
 20
149.9214640880038019
 30
0.0
 40
0.0079
 50
188.1334490231323002
 51
270.0
  0
LINE
  5
136F5
  8
0
 10
4899.4207550487572007
 20
149.9636586652499943
 30
0.0
 11
4899.4269450964038697
 21
149.9203464024870982
 31
0.0
  0
ARC
  5
136F6
  8
0
 10
4899.4347656321333488
 20
149.9214640880038019
 30
0.0
 40
0.0079
 50
188.1334490231323002
 51
270.0
  0
LINE
  5
136F7
  8
0
 10
4899.6453217785574452
 20
149.9636586652499943
 30
0.0
 11
4899.6515118262041142
 21
149.9203464024870982
 31
0.0
  0
ARC
  5
136F8
  8
0
 10
4899.6593323619326839
 20
149.9214640880038019
 30
0.0
 40
0.0079
 50
188.1334490231323002
 51
270.0
  0
LINE
  5
136F9
  8
0
 10
4899.6697809508568753
 20
149.9636586652499943
 30
0.0
 11
4899.6759709985044537
 21
149.9203464024870982
 31
0.0
  0
ARC
  5
136FA
  8
0
 10
4899.6837915342330234
 20
149.9214640880038019
 30
0.0
 40
0.0079
 50
188.1334490231323002
 51
270.0
  0
LINE
  5
136FB
  8
0
 10
4897.4113554102523267
 20
149.9203475285877971
 30
0.0
 11
4897.4175389332840496
 21
149.9636586652499943
 31
0.0
  0
ARC
  5
136FC
  8
0
 10
4897.4035347136668861
 20
149.9214640880038019
 30
0.0
 40
0.0079
 50
270.0
 51
351.8748010708845868
  0
LINE
  5
136FD
  8
0
 10
4897.6429908592526772
 20
149.9203475285877971
 30
0.0
 11
4897.6491743822844001
 21
149.9636586652499943
 31
0.0
  0
ARC
  5
136FE
  8
0
 10
4897.6351701626681461
 20
149.9214640880038019
 30
0.0
 40
0.0079
 50
270.0
 51
351.8748010708845868
  0
LINE
  5
136FF
  8
0
 10
4897.7914130543531428
 20
149.9203475285877971
 30
0.0
 11
4897.7975965773848657
 21
149.9636586652499943
 31
0.0
  0
ARC
  5
13700
  8
0
 10
4897.7835923577677022
 20
149.9214640880038019
 30
0.0
 40
0.0079
 50
270.0
 51
351.8748010708845868
  0
LINE
  5
13701
  8
0
 10
4897.9698554734522986
 20
149.9203475285877971
 30
0.0
 11
4897.9760389964840215
 21
149.9636586652499943
 31
0.0
  0
ARC
  5
13702
  8
0
 10
4897.9620347768677675
 20
149.9214640880038019
 30
0.0
 40
0.0079
 50
270.0
 51
351.8748010708845868
  0
LINE
  5
13703
  8
0
 10
4898.2271645831524438
 20
149.9203475285877971
 30
0.0
 11
4898.2333481061850762
 21
149.9636586652499943
 31
0.0
  0
ARC
  5
13704
  8
0
 10
4898.2193438865679127
 20
149.9214640880038019
 30
0.0
 40
0.0079
 50
270.0
 51
351.8748010708845868
  0
LINE
  5
13705
  8
0
 10
4898.045509093032706
 20
149.9135640880037954
 30
0.0
 11
4898.2193438865679127
 21
149.9135640880037954
 31
0.0
  0
LINE
  5
13706
  8
0
 10
4897.7835923577677022
 20
149.9135640880037954
 30
0.0
 11
4897.6914359080328722
 21
149.9135640880037954
 31
0.0
  0
LINE
  5
13707
  8
0
 10
4897.8462585579327424
 20
149.9135640880037954
 30
0.0
 11
4897.9620347768677675
 21
149.9135640880037954
 31
0.0
  0
LINE
  5
13708
  8
0
 10
4897.5433599518328265
 20
149.9135640880037954
 30
0.0
 11
4897.6351701626681461
 21
149.9135640880037954
 31
0.0
  0
LINE
  5
13709
  8
0
 10
4897.2151417618333653
 20
149.9135640880037954
 30
0.0
 11
4897.4035347136668861
 21
149.9135640880037954
 31
0.0
  0
LINE
  5
1370A
  8
0
 10
4898.6632502367247071
 20
149.9203475285877971
 30
0.0
 11
4898.6694337597564299
 21
149.9636586652499943
 31
0.0
  0
ARC
  5
1370B
  8
0
 10
4898.655429540140176
 20
149.9214640880038019
 30
0.0
 40
0.0079
 50
270.0
 51
351.8748010708845868
  0
LINE
  5
1370C
  8
0
 10
4898.7124858200249946
 20
149.9203475285877971
 30
0.0
 11
4898.7186693430567175
 21
149.9636586652499943
 31
0.0
  0
ARC
  5
1370D
  8
0
 10
4898.7046651234386445
 20
149.9214640880038019
 30
0.0
 40
0.0079
 50
270.0
 51
351.8748010708845868
  0
LINE
  5
1370E
  8
0
 10
4898.9245949017249586
 20
149.9203475285877971
 30
0.0
 11
4898.930778424755772
 21
149.9636586652499943
 31
0.0
  0
ARC
  5
1370F
  8
0
 10
4898.9167742051404275
 20
149.9214640880038019
 30
0.0
 40
0.0079
 50
270.0
 51
351.8748010708845868
  0
LINE
  5
13710
  8
0
 10
4899.0365314897244389
 20
149.9203475285877971
 30
0.0
 11
4899.0427150127579807
 21
149.9636586652499943
 31
0.0
  0
ARC
  5
13711
  8
0
 10
4899.0287107931399078
 20
149.9214640880038019
 30
0.0
 40
0.0079
 50
270.0
 51
351.8748010708845868
  0
LINE
  5
13712
  8
0
 10
4899.5347632887251166
 20
149.9203475285877971
 30
0.0
 11
4899.5409468117568395
 21
149.9636586652499943
 31
0.0
  0
ARC
  5
13713
  8
0
 10
4899.526942592139676
 20
149.9214640880038019
 30
0.0
 40
0.0079
 50
270.0
 51
351.8748010708845868
  0
LINE
  5
13714
  8
0
 10
4899.7839513893250114
 20
149.9203475285877971
 30
0.0
 11
4899.7901349123567343
 21
149.9636586652499943
 31
0.0
  0
ARC
  5
13715
  8
0
 10
4899.7761306927386613
 20
149.9214640880038019
 30
0.0
 40
0.0079
 50
270.0
 51
351.8748010708845868
  0
LINE
  5
13716
  8
0
 10
4899.8876469158249165
 20
149.9203475285877971
 30
0.0
 11
4899.8938304388557299
 21
149.9636586652499943
 31
0.0
  0
ARC
  5
13717
  8
0
 10
4899.8798262192403854
 20
149.9214640880038019
 30
0.0
 40
0.0079
 50
270.0
 51
351.8748010708845868
  0
LINE
  5
13718
  8
0
 10
4899.3080641234328141
 20
149.9135640880037954
 30
0.0
 11
4899.526942592139676
 21
149.9135640880037954
 31
0.0
  0
LINE
  5
13719
  8
0
 10
4899.6593323619326839
 20
149.9135640880037954
 30
0.0
 11
4899.8798262192403854
 21
149.9135640880037954
 31
0.0
  0
LINE
  5
1371A
  8
0
 10
4898.4609532985332407
 20
149.9135640880037954
 30
0.0
 11
4898.7046651234386445
 21
149.9135640880037954
 31
0.0
  0
LINE
  5
1371B
  8
0
 10
4898.7576192205324332
 20
149.9135640880037954
 30
0.0
 11
4899.0287107931399078
 21
149.9135640880037954
 31
0.0
  0
LINE
  5
1371C
  8
0
 10
4900.0844430636570905
 20
149.9636586652499943
 30
0.0
 11
4900.092025446738262
 21
149.9179069752790951
 31
0.0
  0
ARC
  5
1371D
  8
0
 10
4900.0998059093299162
 20
149.9192760632467127
 30
0.0
 40
0.0079
 50
189.9798760876996084
 51
271.846427064567024
  0
LINE
  5
1371E
  8
0
 10
4900.1999497356900974
 20
149.9213872996043051
 30
0.0
 11
4900.2043324722271791
 21
149.9636586652499943
 31
0.0
  0
ARC
  5
1371F
  8
0
 10
4900.192097123493113
 20
149.922251291321686
 30
0.0
 40
0.0079
 50
271.846427064567024
 51
353.721228135450076
  0
LINE
  5
13720
  8
0
 10
4900.1000604524961091
 20
149.9113801650852054
 30
0.0
 11
4900.1923516666593059
 21
149.9143553931602071
 31
0.0
  0
LINE
  5
13721
  8
0
 10
4900.0253700618568473
 20
149.9636586652499943
 30
0.0
 11
4900.0332260383529501
 21
149.9187526802317905
 31
0.0
  0
ARC
  5
13722
  8
0
 10
4900.0412454747338415
 20
149.9202509077711056
 30
0.0
 40
0.0081581888684941
 50
190.5822642563261979
 51
274.8065845620981804
  0
LINE
  5
13723
  8
0
 10
4900.041929068648642
 20
149.9121214093256924
 30
0.0
 11
4900.0948587960983787
 21
149.9131168367796079
 31
0.0
  0
LINE
  5
13724
  8
0
 10
4900.4950974675557518
 20
149.9636586652499943
 30
0.0
 11
4900.5026798506387422
 21
149.9179069752794078
 31
0.0
  0
ARC
  5
13725
  8
0
 10
4900.5104603132303964
 20
149.9192760632467127
 30
0.0
 40
0.0079
 50
189.9798760876996084
 51
271.846427064567024
  0
LINE
  5
13726
  8
0
 10
4900.6106041395896682
 20
149.9213872996043051
 30
0.0
 11
4900.6149868761267498
 21
149.9636586652499943
 31
0.0
  0
ARC
  5
13727
  8
0
 10
4900.6027515273935933
 20
149.922251291321686
 30
0.0
 40
0.0079
 50
271.846427064567024
 51
353.721228135450076
  0
LINE
  5
13728
  8
0
 10
4900.5107148563956798
 20
149.9113801650852054
 30
0.0
 11
4900.6030060705597862
 21
149.9143553931602071
 31
0.0
  0
LINE
  5
13729
  8
0
 10
4900.4645190852570522
 20
149.9636586652499943
 30
0.0
 11
4900.4723750617522455
 21
149.9187526802317905
 31
0.0
  0
ARC
  5
1372A
  8
0
 10
4900.4803944981331369
 20
149.9202509077711056
 30
0.0
 40
0.0081581888684941
 50
190.5822642563261979
 51
274.8065845620981804
  0
LINE
  5
1372B
  8
0
 10
4900.4810780920488469
 20
149.9121214093256924
 30
0.0
 11
4900.5055131999979494
 21
149.9131168367796079
 31
0.0
  0
LINE
  5
1372C
  8
0
 10
4900.6247341678572411
 20
149.9636586652499943
 30
0.0
 11
4900.632316550939322
 21
149.9179069752790951
 31
0.0
  0
ARC
  5
1372D
  8
0
 10
4900.6400970135300668
 20
149.9192760632467127
 30
0.0
 40
0.0079
 50
189.9798760876996084
 51
271.846427064567024
  0
LINE
  5
1372E
  8
0
 10
4900.7402408398911575
 20
149.9213872996043051
 30
0.0
 11
4900.7446235764264202
 21
149.9636586652499943
 31
0.0
  0
ARC
  5
1372F
  8
0
 10
4900.7323882276941731
 20
149.922251291321686
 30
0.0
 40
0.0079
 50
271.846427064567024
 51
353.721228135450076
  0
LINE
  5
13730
  8
0
 10
4900.6403515566962596
 20
149.9113801650852054
 30
0.0
 11
4900.732642770860366
 21
149.9143553931602071
 31
0.0
  0
LINE
  5
13731
  8
0
 10
4895.7130507730389581
 20
150.436099610149995
 30
0.0
 11
4895.7130507734573257
 21
151.0266507912500913
 31
0.0
  0
LINE
  5
13732
  8
0
 10
4895.713050773057148
 20
151.0266507912500913
 30
0.0
 11
4895.7398136398569477
 21
151.0266507912500913
 31
0.0
  0
LINE
  5
13733
  8
0
 10
4895.7398136398569477
 20
151.0266507912500913
 30
0.0
 11
4895.7398136398569477
 21
151.4990917361500919
 31
0.0
  0
LINE
  5
13734
  8
0
 10
4895.7398136398569477
 20
151.4990917361500919
 30
0.0
 11
4897.1232957802567398
 21
151.4990917361500919
 31
0.0
  0
LINE
  5
13735
  8
0
 10
4897.1232957802567398
 20
151.4990917361500919
 30
0.0
 11
4897.1232957802567398
 21
151.0266507912500913
 31
0.0
  0
LINE
  5
13736
  8
0
 10
4897.1232957802567398
 20
151.0266507912500913
 30
0.0
 11
4897.15005864705563
 21
151.0266507912500913
 31
0.0
  0
LINE
  5
13737
  8
0
 10
4897.15005864705563
 20
151.0266507912500913
 30
0.0
 11
4897.15005864705563
 21
150.436099610149995
 31
0.0
  0
LINE
  5
13738
  8
0
 10
4896.9064815427573194
 20
152.6892255944501073
 30
0.0
 11
4895.9565732019564166
 21
152.6892255944501073
 31
0.0
  0
ARC
  5
13739
  8
0
 10
4895.9565732019564166
 20
152.6692275009592095
 30
0.0
 40
0.0199980934908801
 50
90.0
 51
180.0054622670081983
  0
LINE
  5
1373A
  8
0
 10
4895.9365751085570082
 20
152.6692255944500971
 30
0.0
 11
4895.9365852004693807
 21
152.5633677305310982
 31
0.0
  0
ARC
  5
1373B
  8
0
 10
4895.9477003955071268
 20
152.5633687901932092
 30
0.0
 40
0.0111151950899662
 50
180.0054622670228923
 51
224.3890131173847919
  0
ARC
  5
1373C
  8
0
 10
4896.7735219640053401
 20
153.3071248170284946
 30
0.0
 40
1.122480640817485
 50
222.0305897064301064
 51
224.3722733844832931
  0
ARC
  5
1373D
  8
0
 10
4895.9632609946092998
 20
152.5150384651433058
 30
0.0
 40
0.0106318181556282
 50
0.2424762055123033
 51
42.0138499735429107
  0
LINE
  5
1373E
  8
0
 10
4895.9738927175567369
 20
152.5150834589501017
 30
0.0
 11
4895.9738927252556095
 21
151.9380488012500905
 31
0.0
  0
LINE
  5
1373F
  8
0
 10
4895.9738927252556095
 20
151.9380488012500905
 30
0.0
 11
4895.9753826080568615
 21
151.8238381720499888
 31
0.0
  0
ARC
  5
13740
  8
0
 10
4896.052340759200888
 20
151.823196638996194
 30
0.0
 40
0.0769608250488195
 50
179.5223860700542104
 51
188.3635846481215879
  0
ARC
  5
13741
  8
0
 10
4895.9937065215472103
 20
151.8145763631486886
 30
0.0
 40
0.017696308000585
 50
188.3635846481230942
 51
209.417404268438105
  0
ARC
  5
13742
  8
0
 10
4896.166406323438423
 20
151.9379352340266109
 30
0.0
 40
0.2298356721685114
 50
215.0677140060365957
 51
247.4845498783701885
  0
ARC
  5
13743
  8
0
 10
4896.0515139413828365
 20
151.6609714920267891
 30
0.0
 40
0.0700129446583309
 50
309.4589968681640926
 51
67.4220034588378354
  0
ARC
  5
13744
  8
0
 10
4896.431527372868004
 20
151.199225594029798
 30
0.0
 40
0.5280000006612716
 50
129.4534798119910022
 51
145.394114289765497
  0
ARC
  5
13745
  8
0
 10
4896.9064815427573194
 20
152.6692275009592095
 30
0.0
 40
0.0199980934908801
 50
359.9945377329917733
 51
90.0
  0
LINE
  5
13746
  8
0
 10
4896.9264796361567278
 20
152.6692255944500971
 30
0.0
 11
4896.9264695442452648
 21
152.5633677305310982
 31
0.0
  0
ARC
  5
13747
  8
0
 10
4896.9153543492066092
 20
152.5633687901932092
 30
0.0
 40
0.0111151950899662
 50
315.6109868826140996
 51
359.9945377329771077
  0
ARC
  5
13748
  8
0
 10
4896.0895327807093054
 20
153.3071248170284946
 30
0.0
 40
1.122480640817485
 50
315.6277266155166217
 51
317.969410293569922
  0
ARC
  5
13749
  8
0
 10
4896.8997937501053457
 20
152.5150384651433058
 30
0.0
 40
0.0106318181556282
 50
137.9861500264570964
 51
179.757523794487696
  0
LINE
  5
1374A
  8
0
 10
4896.8891620271569991
 20
152.5150834589501017
 30
0.0
 11
4896.8891620194581265
 21
151.9380488012500905
 31
0.0
  0
LINE
  5
1374B
  8
0
 10
4896.8891620194581265
 20
151.9380488012500905
 30
0.0
 11
4896.887672136655965
 21
151.8238381720499888
 31
0.0
  0
ARC
  5
1374C
  8
0
 10
4896.8107139855119385
 20
151.823196638996194
 30
0.0
 40
0.0769608250488195
 50
351.6364153518783837
 51
0.4776139299457833
  0
ARC
  5
1374D
  8
0
 10
4896.8693482231656162
 20
151.8145763631486886
 30
0.0
 40
0.017696308000585
 50
330.5825957315605024
 51
351.6364153518767921
  0
ARC
  5
1374E
  8
0
 10
4896.6966484212762225
 20
151.9379352340266109
 30
0.0
 40
0.2298356721685114
 50
292.5154501216297831
 51
324.9322859939633759
  0
ARC
  5
1374F
  8
0
 10
4896.8115408033308995
 20
151.6609714920267891
 30
0.0
 40
0.0700129446583309
 50
112.577996541162193
 51
230.5410031318359074
  0
ARC
  5
13750
  8
0
 10
4896.4315273718448225
 20
151.199225594029798
 30
0.0
 40
0.5280000006612716
 50
34.6058857102344533
 51
50.5465201880079391
  0
LINE
  5
13751
  8
0
 10
4896.0783947639565667
 20
151.7256184857500898
 30
0.0
 11
4896.7846599807571693
 21
151.7256184857500898
 31
0.0
  0
LINE
  5
13752
  8
0
 10
4896.7670457670910764
 20
151.6069159264501138
 30
0.0
 11
4896.0960089776217501
 21
151.6069159264501138
 31
0.0
  0
LINE
  5
13753
  8
0
 10
4895.2476864516793285
 20
158.5242255944500869
 30
0.0
 11
4897.615368293035317
 21
158.5242255944500869
 31
0.0
  0
ARC
  5
13754
  8
0
 10
4897.615368293035317
 20
158.5092255944499868
 30
0.0
 40
0.015
 50
357.5369999834447867
 51
90.0
  0
LINE
  5
13755
  8
0
 10
4897.5783210745357792
 20
158.2342255944500948
 30
0.0
 11
4895.2847336701770473
 21
158.2342255944500948
 31
0.0
  0
ARC
  5
13756
  8
0
 10
4897.5099077311942892
 20
158.199225594450013
 30
0.0
 40
0.035
 50
90.0
 51
170.9780000433277962
  0
ARC
  5
13757
  8
0
 10
4895.3531470135203563
 20
158.199225594450013
 30
0.0
 40
0.035
 50
9.0219999566722056
 51
90.0
  0
LINE
  5
13758
  8
0
 10
4897.4206699264959752
 20
158.0862255944500134
 30
0.0
 11
4895.4423848182168513
 21
158.0862255944500134
 31
0.0
  0
LINE
  5
13759
  8
0
 10
4896.0255273724569633
 20
158.0862255944500134
 30
0.0
 11
4896.0255273724569633
 21
152.6892255944501073
 31
0.0
  0
LINE
  5
1375A
  8
0
 10
4897.6303544357560895
 20
158.5085809811288868
 30
0.0
 11
4897.6202822741570344
 21
158.2744206771508004
 31
0.0
  0
LINE
  5
1375B
  8
0
 10
4895.2327003089576465
 20
158.5085809811288868
 30
0.0
 11
4895.2427724705557921
 21
158.2744206771508004
 31
0.0
  0
ARC
  5
1375C
  8
0
 10
4895.2476864516793285
 20
158.5092255944499868
 30
0.0
 40
0.015
 50
90.0
 51
182.4630000165421961
  0
ARC
  5
1375D
  8
0
 10
4897.5783210745357792
 20
158.2762255944500964
 30
0.0
 40
0.042
 50
270.0
 51
357.5369999834430814
  0
ARC
  5
1375E
  8
0
 10
4895.2847336701770473
 20
158.2762255944500964
 30
0.0
 40
0.042
 50
182.4630000165535932
 51
270.0
  0
LINE
  5
1375F
  8
0
 10
4895.3877140005688489
 20
158.2047140738748112
 30
0.0
 11
4895.4009044337581145
 21
158.1216394191403936
 31
0.0
  0
LINE
  5
13760
  8
0
 10
4897.4753407441439776
 20
158.2047140738748112
 30
0.0
 11
4897.4621503109556215
 21
158.1216394191403936
 31
0.0
  0
ARC
  5
13761
  8
0
 10
4897.4206699264959752
 20
158.1282255944501003
 30
0.0
 40
0.042
 50
270.0
 51
350.9780000433357827
  0
ARC
  5
13762
  8
0
 10
4895.4423848182168513
 20
158.1282255944501003
 30
0.0
 40
0.042
 50
189.0219999566689921
 51
270.0
  0
LINE
  5
13763
  8
0
 10
4896.8375273722567727
 20
158.0862255944500134
 30
0.0
 11
4896.8375273722567727
 21
152.6892255944501073
 31
0.0
  0
ENDSEC
  0
EOF
