  0
SECTION
  2
HEADER
  9
$ACADVER
  1
AC1009
  9
$INSBASE
 10
6656.9442732003699348
 20
-11.0709525409986895
 30
0.0
  9
$EXTMIN
 10
6654.5820684760192307
 20
-15.0079604294986897
 30
0.0
  9
$EXTMAX
 10
6659.3064779248188643
 20
-7.133944666998695
 30
0.0
  9
$LIMMIN
 10
0.0
 20
0.0
  9
$LIMMAX
 10
11.6929133858000007
 20
8.2677165353999982
  9
$ORTHOMODE
 70
     0
  9
$REGENMODE
 70
     1
  9
$FILLMODE
 70
     1
  9
$QTEXTMODE
 70
     0
  9
$MIRRTEXT
 70
     0
  9
$DRAGMODE
 70
     2
  9
$LTSCALE
 40
0.6431102362
  9
$OSMODE
 70
  4095
  9
$ATTMODE
 70
     1
  9
$TEXTSIZE
 40
0.2
  9
$TRACEWID
 40
0.05
  9
$TEXTSTYLE
  7
STANDARD
  9
$CLAYER
  8
0
  9
$CELTYPE
  6
BYLAYER
  9
$CECOLOR
 62
   256
  9
$DIMSCALE
 40
1.0
  9
$DIMASZ
 40
0.1875
  9
$DIMEXO
 40
0.0625
  9
$DIMDLI
 40
0.4443307087
  9
$DIMRND
 40
0.0
  9
$DIMDLE
 40
0.0
  9
$DIMEXE
 40
0.125
  9
$DIMTP
 40
0.01
  9
$DIMTM
 40
0.01
  9
$DIMTXT
 40
2.0
  9
$DIMCEN
 40
0.1052362205
  9
$DIMTSZ
 40
0.0
  9
$DIMTOL
 70
     1
  9
$DIMLIM
 70
     0
  9
$DIMTIH
 70
     1
  9
$DIMTOH
 70
     1
  9
$DIMSE1
 70
     0
  9
$DIMSE2
 70
     0
  9
$DIMTAD
 70
     0
  9
$DIMZIN
 70
     0
  9
$DIMBLK
  1

  9
$DIMASO
 70
     1
  9
$DIMSHO
 70
     1
  9
$DIMPOST
  1
\X
  9
$DIMAPOST
  1

  9
$DIMALT
 70
     1
  9
$DIMALTD
 70
     2
  9
$DIMALTF
 40
25.3999999999999986
  9
$DIMLFAC
 40
1.0
  9
$DIMTOFL
 70
     0
  9
$DIMTVP
 40
0.0
  9
$DIMTIX
 70
     0
  9
$DIMSOXD
 70
     0
  9
$DIMSAH
 70
     0
  9
$DIMBLK1
  1

  9
$DIMBLK2
  1

  9
$DIMSTYLE
  2
STANDARD
  9
$DIMCLRD
 70
     0
  9
$DIMCLRE
 70
     0
  9
$DIMCLRT
 70
     0
  9
$DIMTFAC
 40
1.0
  9
$DIMGAP
 40
0.09
  9
$LUNITS
 70
     2
  9
$LUPREC
 70
     4
  9
$SKETCHINC
 40
0.1
  9
$FILLETRAD
 40
0.0
  9
$AUNITS
 70
     0
  9
$AUPREC
 70
     0
  9
$MENU
  1
.
  9
$ELEVATION
 40
0.0
  9
$PELEVATION
 40
0.0
  9
$THICKNESS
 40
0.0
  9
$LIMCHECK
 70
     0
  9
$BLIPMODE
 70
     0
  9
$CHAMFERA
 40
0.0
  9
$CHAMFERB
 40
0.0
  9
$SKPOLY
 70
     0
  9
$TDCREATE
 40
2458060.468368056230247
  9
$TDUPDATE
 40
2460928.6098263887688518
  9
$TDINDWG
 40
0.9151228009
  9
$TDUSRTIMER
 40
0.9151228009
  9
$USRTIMER
 70
     1
  9
$ANGBASE
 50
0.0
  9
$ANGDIR
 70
     0
  9
$PDMODE
 70
     0
  9
$PDSIZE
 40
0.3125
  9
$PLINEWID
 40
0.0
  9
$COORDS
 70
     1
  9
$SPLFRAME
 70
     0
  9
$SPLINETYPE
 70
     6
  9
$SPLINESEGS
 70
     8
  9
$ATTDIA
 70
     1
  9
$ATTREQ
 70
     1
  9
$HANDLING
 70
     1
  9
$HANDSEED
  5
2A06A
  9
$SURFTAB1
 70
     6
  9
$SURFTAB2
 70
     6
  9
$SURFTYPE
 70
     6
  9
$SURFU
 70
     6
  9
$SURFV
 70
     6
  9
$UCSNAME
  2

  9
$UCSORG
 10
0.0
 20
0.0
 30
0.0
  9
$UCSXDIR
 10
1.0
 20
0.0
 30
0.0
  9
$UCSYDIR
 10
0.0
 20
1.0
 30
0.0
  9
$PUCSNAME
  2

  9
$PUCSORG
 10
0.0
 20
0.0
 30
0.0
  9
$PUCSXDIR
 10
1.0
 20
0.0
 30
0.0
  9
$PUCSYDIR
 10
0.0
 20
1.0
 30
0.0
  9
$USERI1
 70
     0
  9
$USERI2
 70
     0
  9
$USERI3
 70
     0
  9
$USERI4
 70
     0
  9
$USERI5
 70
     0
  9
$USERR1
 40
0.0
  9
$USERR2
 40
0.0
  9
$USERR3
 40
0.0
  9
$USERR4
 40
0.0
  9
$USERR5
 40
0.0
  9
$WORLDVIEW
 70
     1
  9
$SHADEDGE
 70
     3
  9
$SHADEDIF
 70
    70
  9
$TILEMODE
 70
     1
  9
$MAXACTVP
 70
    64
  9
$PLIMCHECK
 70
     0
  9
$PEXTMIN
 10
1.0000000000000000E+20
 20
1.0000000000000000E+20
 30
1.0000000000000000E+20
  9
$PEXTMAX
 10
-1.0000000000000000E+20
 20
-1.0000000000000000E+20
 30
-1.0000000000000000E+20
  9
$PLIMMIN
 10
0.0
 20
0.0
  9
$PLIMMAX
 10
12.0
 20
9.0
  9
$UNITMODE
 70
     0
  9
$VISRETAIN
 70
     1
  9
$PLINEGEN
 70
     0
  9
$PSLTSCALE
 70
     1
  0
ENDSEC
  0
SECTION
  2
TABLES
  0
TABLE
  2
VPORT
 70
     1
  0
VPORT
  2
*ACTIVE
 70
     0
 10
0.0
 20
0.0
 11
1.0
 21
1.0
 12
2864.5863630441690475
 22
-131.25160898135411
 13
0.0
 23
0.0
 14
1.0
 24
1.0
 15
0.0
 25
0.0
 16
0.0
 26
0.0
 36
5.1040778033513332
 17
3792.35791015625
 27
120.1806564331053977
 37
0.0
 40
7.9301918559304454
 41
2.2869047619047609
 42
50.0
 43
0.0
 44
0.0
 50
0.0
 51
0.0
 71
     0
 72
   100
 73
     1
 74
     1
 75
     0
 76
     0
 77
     0
 78
     0
  0
ENDTAB
  0
TABLE
  2
LTYPE
 70
     2
  0
LTYPE
  2
CONTINUOUS
 70
     0
  3
Solid line
 72
    65
 73
     0
 40
0.0
  0
LTYPE
  2
PHANTOM2
 70
     0
  3
___ _ _ ___ _ _ ___ _ _ ___ _ _
 72
    65
 73
     6
 40
1.25
 49
0.625
 49
-0.125
 49
0.125
 49
-0.125
 49
0.125
 49
-0.125
  0
ENDTAB
  0
TABLE
  2
LAYER
 70
     2
  0
LAYER
  2
0
 70
     0
 62
   255
  6
CONTINUOUS
  0
LAYER
  2
DEFPOINTS
 70
     0
 62
     7
  6
CONTINUOUS
  0
ENDTAB
  0
TABLE
  2
STYLE
 70
     1
  0
STYLE
  2
STANDARD
 70
     0
 40
0.0
 41
0.8
 50
0.0
 71
     0
 42
0.2
  3
txt
  4

  0
ENDTAB
  0
TABLE
  2
VIEW
 70
     0
  0
ENDTAB
  0
TABLE
  2
UCS
 70
     0
  0
ENDTAB
  0
TABLE
  2
APPID
 70
     9
  0
APPID
  2
ACAD
 70
     0
  0
APPID
  2
ACAD_MLEADERVER
 70
     0
  0
APPID
  2
ACAD_EXEMPT_FROM_CAD_STANDARDS
 70
     0
  0
APPID
  2
ACAD_NAV_VCDISPLAY
 70
     0
  0
APPID
  2
ACAECLAYERSTANDARD
 70
     0
  0
APPID
  2
ACCMTRANSPARENCY
 70
     0
  0
APPID
  2
ACAD_DSTYLE_DIMJAG
 70
     0
  0
APPID
  2
ACAD_DSTYLE_DIMTALN
 70
     0
  0
APPID
  2
ACDBATTR
 70
     0
  0
ENDTAB
  0
TABLE
  2
DIMSTYLE
 70
     1
  0
DIMSTYLE
  2
STANDARD
 70
     0
  3

  4

  5

  6

  7

 40
1.0
 41
0.1875
 42
0.0625
 43
0.38
 44
0.125
 45
0.0
 46
0.0
 47
0.01
 48
0.01
140
0.15625
141
0.09
142
0.0
143
25.3999999999999986
144
1.0
145
0.0
146
1.0
147
0.09
 71
     1
 72
     0
 73
     1
 74
     1
 75
     0
 76
     0
 77
     0
 78
     4
170
     0
171
     2
172
     0
173
     0
174
     0
175
     0
176
     0
177
     0
178
     0
  0
ENDTAB
  0
ENDSEC
  0
SECTION
  2
BLOCKS
  0
BLOCK
  8
0
  2
$MODEL_SPACE
 70
     0
 10
0.0
 20
0.0
 30
0.0
  3
$MODEL_SPACE
  1

  0
ENDBLK
  5
21
  8
0
  0
BLOCK
 67
     1
  8
0
  2
$PAPER_SPACE
 70
     0
 10
0.0
 20
0.0
 30
0.0
  3
$PAPER_SPACE
  1

  0
ENDBLK
  5
1D
 67
     1
  8
0
  0
BLOCK
  8
0
  2
_FILLED
 70
     0
 10
0.0
 20
0.0
 30
0.0
  3
_FILLED
  1

  0
SOLID
  5
1D213
  8
0
  6
BYBLOCK
 62
     0
 10
0.0
 20
0.0
 30
0.0
 11
-1.0
 21
0.1666666667
 31
0.0
 12
-1.0
 22
-0.1666666667
 32
0.0
 13
-1.0
 23
-0.1666666667
 33
0.0
  0
ENDBLK
  5
1D214
  8
0
  6
BYBLOCK
 62
     0
  0
BLOCK
  8
0
  2
A$C4A61B439
 70
     0
 10
0.0
 20
0.0
 30
0.0
  3
A$C4A61B439
  1

  0
LINE
  5
29309
  8
0
 10
177.6811052674314055
 20
130.4728992965773102
 30
0.0
 11
177.1612491864852927
 21
130.4729528733633117
 31
0.0
  0
ARC
  5
2930A
  8
0
 10
177.1612512162288056
 20
130.4926474945511927
 30
0.0
 40
0.0196946212925358
 50
186.9762033773818075
 51
269.9940950508914739
  0
LINE
  5
2930B
  8
0
 10
177.1417024004815062
 20
130.4902554429772863
 30
0.0
 11
177.137886147950212
 21
130.5214434066458864
 31
0.0
  0
LINE
  5
2930C
  8
0
 10
177.137886147950212
 20
130.5214434066458864
 30
0.0
 11
177.1375785071448945
 21
130.5875071069110902
 31
0.0
  0
ARC
  5
2930D
  8
0
 10
177.210889237185512
 20
130.616934392478214
 30
0.0
 40
0.0789963814041134
 50
180.0000000005763923
 51
201.8707674888225085
  0
LINE
  5
2930E
  8
0
 10
177.1318928557815013
 20
130.6169343924773898
 30
0.0
 11
177.1318928557815013
 21
131.0971587011156885
 31
0.0
  0
ARC
  5
2930F
  8
0
 10
177.1122009915389981
 20
131.0971587011156885
 30
0.0
 40
0.0196918642424385
 50
0.0
 51
89.9828631060514113
  0
LINE
  5
29310
  8
0
 10
177.1122068812815087
 20
131.1168505644772893
 30
0.0
 11
174.2760852640153928
 21
131.1168506502415028
 31
0.0
  0
ARC
  5
29311
  8
0
 10
176.9358909179819932
 20
131.0971655304794012
 30
0.0
 40
0.019685039397961
 50
22.1495948114018013
 51
89.981731963002602
  0
LINE
  5
29312
  8
0
 10
176.9541232531813932
 20
131.1045873044774055
 30
0.0
 11
177.1304398243813978
 21
130.6714488777772942
 31
0.0
  0
ARC
  5
29313
  8
0
 10
177.1122075334091903
 20
130.6640269987549914
 30
0.0
 40
0.0196850379722456
 50
359.9999994830130277
 51
22.1495956345879215
  0
LINE
  5
29314
  8
0
 10
177.0156099915814991
 20
131.1168505673772984
 30
0.0
 11
177.0156100094814065
 21
131.110209229877313
 31
0.0
  0
LINE
  5
29315
  8
0
 10
177.0156100094814065
 20
131.110209229877313
 30
0.0
 11
177.1122071459815004
 21
130.8729090504772898
 31
0.0
  0
ARC
  5
29316
  8
0
 10
177.1140517434230048
 20
130.8550517883170983
 30
0.0
 40
0.0179522798434977
 50
6.3795652041899098
 51
95.897552054267166
  0
ARC
  5
29317
  8
0
 10
176.9853018519764021
 20
131.1376637956749107
 30
0.0
 40
0.0208395841675989
 50
174.1977695393472914
 51
267.1180558949100146
  0
LINE
  5
29318
  8
0
 10
176.9645690337067947
 20
131.1397705739927915
 30
0.0
 11
176.9645674077183912
 21
131.2467718287805951
 31
0.0
  0
LINE
  5
29319
  8
0
 10
176.9237489539814021
 20
131.1168505701774052
 30
0.0
 11
176.926642562381403
 21
131.1997144088772984
 31
0.0
  0
LINE
  5
2931A
  8
0
 10
176.926642562381403
 20
131.1997144088772984
 30
0.0
 11
174.2980581304339864
 21
131.1997148027978994
 31
0.0
  0
LINE
  5
2931B
  8
0
 10
177.6811052674314055
 20
131.2467718071270042
 30
0.0
 11
175.1777812403815062
 21
131.2467723108773043
 31
0.0
  0
ARC
  5
2931C
  8
0
 10
175.1777812582593015
 20
131.3356144445534994
 30
0.0
 40
0.088842133676105
 50
240.5741415063224906
 51
269.9999884702223767
  0
ARC
  5
2931D
  8
0
 10
175.195999949732709
 20
131.3679133207294001
 30
0.0
 40
0.1259249884910552
 50
217.5737030182029059
 51
240.5741415063224906
  0
ARC
  5
2931E
  8
0
 10
175.3521560862803881
 20
131.48805559939521
 30
0.0
 40
0.3229501292841453
 50
212.6755276130901962
 51
217.5737030182029059
  0
LINE
  5
2931F
  8
0
 10
177.6811052674314055
 20
131.3137015666769969
 30
0.0
 11
170.5215460704314125
 21
131.3139474183774098
 31
0.0
  0
LINE
  5
29320
  8
0
 10
177.6811052674314055
 20
131.3444708985568923
 30
0.0
 11
170.5076475322813963
 21
131.3549681852773006
 31
0.0
  0
ARC
  5
29321
  8
0
 10
170.5270288747458949
 20
132.6330693343790017
 30
0.0
 40
1.319133310328829
 50
263.668329555370974
 51
269.7618569335260759
  0
ARC
  5
29322
  8
0
 10
170.4477347725126037
 20
131.9184540924273108
 30
0.0
 40
0.6001322681329757
 50
250.8051760726978046
 51
263.668329555370974
  0
ARC
  5
29323
  8
0
 10
170.349074750498886
 20
131.6350586697087124
 30
0.0
 40
0.3000543356527254
 50
207.5007812896143093
 51
250.8051760726978046
  0
ARC
  5
29324
  8
0
 10
170.6493526631005864
 20
131.7912809571124058
 30
0.0
 40
0.6385395263905095
 50
182.1885305773444088
 51
207.4930049768981917
  0
ARC
  5
29325
  8
0
 10
170.4601403137355931
 20
132.048726373685497
 30
0.0
 40
0.6953828871904718
 50
246.2284059529156082
 51
273.9173885716477912
  0
ARC
  5
29326
  8
0
 10
170.2429268086063985
 20
131.5555754008668998
 30
0.0
 40
0.15651408237576
 50
215.5737211165728979
 51
246.2284059529156082
  0
ARC
  5
29327
  8
0
 10
170.5727078474562859
 20
131.791446728906493
 30
0.0
 40
0.5619654567427772
 50
182.5038359486115951
 51
215.5737211165728979
  0
ARC
  5
29328
  8
0
 10
175.4009063476102881
 20
132.2134823443826974
 30
0.0
 40
5.4080979001103877
 50
177.652771593517997
 51
184.7367209919279105
  0
ARC
  5
29329
  8
0
 10
85.0338270694988267
 20
135.8921700858138877
 30
0.0
 40
85.0338271227970637
 50
357.6698990360978883
 51
358.1310532422352821
  0
ARC
  5
2932A
  8
0
 10
184.2507767648984043
 20
131.5443095061872043
 30
0.0
 40
14.3152209137610598
 50
170.1118991636394071
 51
173.6849405729479088
  0
ARC
  5
2932B
  8
0
 10
173.9623737291663872
 20
133.330723057955197
 30
0.0
 40
3.8728871371912832
 50
159.5097612693762983
 51
170.0099003833427105
  0
ARC
  5
2932C
  8
0
 10
171.3197118476929859
 20
134.3639174161124004
 30
0.0
 40
1.0366368095509351
 50
112.2227944867163956
 51
161.8742595714678885
  0
ARC
  5
2932D
  8
0
 10
171.983027696920999
 20
132.8252303703210089
 30
0.0
 40
2.7120925355561201
 50
101.7009428521688932
 51
112.900944125679203
  0
ARC
  5
2932E
  8
0
 10
171.4352151352105125
 20
135.4409511113991016
 30
0.0
 40
0.040074016007959
 50
348.4747314722475267
 51
93.1599896980370943
  0
ARC
  5
2932F
  8
0
 10
171.4254929153051137
 20
135.4733182657209909
 30
0.0
 40
0.0072157034264951
 50
26.4596259497594808
 51
67.3748801460963023
  0
ARC
  5
29330
  8
0
 10
171.5162578012318022
 20
135.518503210097208
 30
0.0
 40
0.0941743538922997
 50
206.4656559752756095
 51
208.6182945065847889
  0
LINE
  5
29331
  8
0
 10
171.4335887201814046
 20
135.4733963151772969
 30
0.0
 11
171.4239844887814002
 21
135.289954611177393
 31
0.0
  0
LINE
  5
29332
  8
0
 10
171.4744811261813879
 20
135.4329443197773912
 30
0.0
 11
171.4657502917814043
 21
135.2663680652773905
 31
0.0
  0
ARC
  5
29333
  8
0
 10
171.4256643737963941
 20
135.2504530576997013
 30
0.0
 40
0.0395372576288948
 50
26.4888474433545014
 51
92.435153843334362
  0
ARC
  5
29334
  8
0
 10
171.5265991176372893
 20
135.4654334780987028
 30
0.0
 40
0.207946965986712
 50
251.6261897246151875
 51
265.6204960347772044
  0
ARC
  5
29335
  8
0
 10
171.5763705817431912
 20
136.1153104826611866
 30
0.0
 40
0.8597270820522561
 50
265.6204960347772044
 51
267.7334094843550929
  0
ARC
  5
29336
  8
0
 10
171.5536679608183874
 20
135.9973380136227092
 30
0.0
 40
0.7411681137566465
 50
269.1265116026700071
 51
273.0926737630487082
  0
ARC
  5
29337
  8
0
 10
739.8536446574853471
 20
-14819.8725900672307034
 30
0.0
 40
14965.922221166349118
 50
92.1757041549107754
 51
92.1760588666009113
  0
LINE
  5
29338
  8
0
 10
171.6862403485617108
 20
135.2607671008537977
 30
0.0
 11
173.2373508046810002
 21
135.3133847434945096
 31
0.0
  0
LINE
  5
29339
  8
0
 10
173.2373508046810002
 20
135.3133847434945096
 30
0.0
 11
173.8582368449058038
 21
135.3300406112093981
 31
0.0
  0
LINE
  5
2933A
  8
0
 10
173.8582368449058038
 20
135.3300406112093981
 30
0.0
 11
173.8936058781885095
 21
135.3309189266709041
 31
0.0
  0
LINE
  5
2933B
  8
0
 10
173.8936058781885095
 20
135.3309189266709041
 30
0.0
 11
174.0394794003846073
 21
135.3345413884140953
 31
0.0
  0
LINE
  5
2933C
  8
0
 10
174.0394794003846073
 20
135.3345413884140953
 30
0.0
 11
174.5621523021756047
 21
135.3460567819743119
 31
0.0
  0
LINE
  5
2933D
  8
0
 10
174.5621523021756047
 20
135.3460567819743119
 30
0.0
 11
175.6064604339165953
 21
135.3637444156576919
 31
0.0
  0
LINE
  5
2933E
  8
0
 10
175.6064604339165953
 20
135.3637444156576919
 30
0.0
 11
177.6811052674314055
 21
135.3778228711383917
 31
0.0
  0
LINE
  5
2933F
  8
0
 10
171.5107197977586111
 20
135.2580936896758033
 30
0.0
 11
171.5212852339315077
 21
135.4224456615773136
 31
0.0
  0
LINE
  5
29340
  8
0
 10
171.5262262190638012
 20
135.2570470041736996
 30
0.0
 11
171.5221958117253109
 21
135.4223599467507029
 31
0.0
  0
ARC
  5
29341
  8
0
 10
171.6229679273048987
 20
135.4184692351379908
 30
0.0
 40
0.1017604151864094
 50
138.2722320029016885
 51
177.7605194133132898
  0
ARC
  5
29342
  8
0
 10
171.6198421071576092
 20
135.4207585223377919
 30
0.0
 40
0.0979045417022183
 50
100.5833179232745067
 51
138.054534986461789
  0
ARC
  5
29343
  8
0
 10
173.4384032561094102
 20
125.6876909175071972
 30
0.0
 40
9.9994079453616127
 50
98.008916426116258
 51
100.5833179232745067
  0
ARC
  5
29344
  8
0
 10
173.4896304371335134
 20
125.3236017130183058
 30
0.0
 40
10.3670833088291996
 50
95.7398310155921592
 51
98.008916426116258
  0
ARC
  5
29345
  8
0
 10
175.471806508544006
 20
105.603483724339398
 30
0.0
 40
30.18657057428317
 50
93.098833454803696
 51
95.7398310155921592
  0
ARC
  5
29346
  8
0
 10
177.2327412044608934
 20
73.0764922476716663
 30
0.0
 40
62.7611936039745331
 50
92.1302395927928757
 51
93.098833454803696
  0
ARC
  5
29347
  8
0
 10
177.424523125015611
 20
67.9206257167346337
 30
0.0
 40
67.9206257422905537
 50
89.8634445751047934
 51
92.1302395927928757
  0
ARC
  5
29348
  8
0
 10
177.6337531519845072
 20
155.7089710233636026
 30
0.0
 40
19.8679688977884688
 50
269.8634445751047792
 51
270.1365554248952208
  0
ARC
  5
29349
  8
0
 10
171.4790025018324968
 20
135.4280748067457125
 30
0.0
 40
0.0435697331212931
 50
352.4630339255591025
 51
6.7072156466096606
  0
ARC
  5
2934A
  8
0
 10
172.835784339271612
 20
133.9249147383831087
 30
0.0
 40
2.6146178224667
 50
163.0672737374841859
 51
181.1926456907818022
  0
ARC
  5
2934B
  8
0
 10
172.6716292693791956
 20
133.922888624273412
 30
0.0
 40
2.4504565376925989
 50
181.2251710849392907
 51
190.4936182286772919
  0
ARC
  5
2934C
  8
0
 10
171.5195731567114876
 20
133.7095003691231057
 30
0.0
 40
1.278804783043975
 50
190.4936182286772919
 51
218.0810055919230876
  0
ARC
  5
2934D
  8
0
 10
171.0338026031236893
 20
133.3288675835073889
 30
0.0
 40
0.6616708038964418
 50
218.0810055919230876
 51
250.8662055692377066
  0
ARC
  5
2934E
  8
0
 10
171.8566549479089929
 20
135.7005982446601138
 30
0.0
 40
3.1720875641915418
 50
250.8662055692377066
 51
265.0156824611046886
  0
ARC
  5
2934F
  8
0
 10
173.3237244291501042
 20
152.5223078610277128
 30
0.0
 40
20.0576496596676996
 50
265.0156824611046886
 51
268.040350463242703
  0
ARC
  5
29350
  8
0
 10
177.0824874112338136
 20
262.3772936408255987
 30
0.0
 40
129.9769209447115941
 50
268.040350463242703
 51
270.2638806774692739
  0
ARC
  5
29351
  8
0
 10
177.0226866501176062
 20
350.9708268145124066
 30
0.0
 40
218.3774898603124086
 50
269.1589669403659855
 51
270.1727497880178248
  0
ARC
  5
29352
  8
0
 10
174.379789350278287
 20
170.9351156811511885
 30
0.0
 40
38.3223811034860304
 50
266.2739202667548852
 51
269.1589669403659855
  0
ARC
  5
29353
  8
0
 10
172.1321978702090973
 20
136.4227268969436011
 30
0.0
 40
3.7368834628046579
 50
252.6142474392615043
 51
266.2739202667564768
  0
ARC
  5
29354
  8
0
 10
171.2303353413269065
 20
133.5423702716809089
 30
0.0
 40
0.718637232011534
 50
211.5440695182053048
 51
252.6142474392615043
  0
ARC
  5
29355
  8
0
 10
171.8138381441750084
 20
133.9005588841189933
 30
0.0
 40
1.4033083961566959
 50
182.9870848892064998
 51
211.5440695182053048
  0
ARC
  5
29356
  8
0
 10
174.2103863336207041
 20
134.0256149665192993
 30
0.0
 40
3.8031171902236478
 50
172.7036231915494966
 51
182.9870848892064998
  0
ARC
  5
29357
  8
0
 10
171.536956728109601
 20
134.3679173659272976
 30
0.0
 40
1.1078626960684539
 50
110.1973584717796939
 51
172.7036231915494966
  0
ARC
  5
29358
  8
0
 10
789.5453853149845145
 20
74.8024685763998463
 30
0.0
 40
622.2616119644717401
 50
174.6225238178232928
 51
174.6523527486340015
  0
ARC
  5
29359
  8
0
 10
180.134983386468889
 20
131.8469496781281123
 30
0.0
 40
10.1871795603397306
 50
174.6523527486340015
 51
178.1008474186232888
  0
ARC
  5
2935A
  8
0
 10
157.8580452677522885
 20
132.5856219832051863
 30
0.0
 40
12.1020018674160994
 50
355.6831088165905044
 51
358.1008474186234025
  0
ARC
  5
2935B
  8
0
 10
186.7650275752251048
 20
130.4035247214096955
 30
0.0
 40
16.8872232789116588
 50
175.6831088165922097
 51
176.9323521380206046
  0
ARC
  5
2935C
  8
0
 10
180.7899285069809139
 20
130.7237408793419888
 30
0.0
 40
10.9035498868277401
 50
176.9323521380206046
 51
177.5000590949582033
  0
ARC
  5
2935D
  8
0
 10
169.9762059396562108
 20
131.1958670284309108
 30
0.0
 40
0.0795257338742306
 50
177.5000590949582033
 51
225.2717702250897105
  0
ARC
  5
2935E
  8
0
 10
169.9750875845124938
 20
131.1949072501689955
 30
0.0
 40
0.0780569109091104
 50
225.3591924124330887
 51
270.1925798390976752
  0
LINE
  5
2935F
  8
0
 10
169.9753499451813923
 20
131.1168507801774012
 30
0.0
 11
172.782273331939308
 21
131.1168505472772949
 31
0.0
  0
LINE
  5
29360
  8
0
 10
172.6834991103814048
 20
131.3136140102772913
 30
0.0
 11
172.6869083706467904
 21
131.248561413390803
 31
0.0
  0
ARC
  5
29361
  8
0
 10
172.7262244940814071
 20
131.2506218829774127
 30
0.0
 40
0.0393700787000032
 50
182.9999983539348136
 51
269.9999982536207881
  0
LINE
  5
29362
  8
0
 10
172.7262244928814141
 20
131.2112518042773104
 30
0.0
 11
174.3316836085932948
 21
131.210787033440397
 31
0.0
  0
LINE
  5
29363
  8
0
 10
172.7598499776813981
 20
131.2112518032525088
 30
0.0
 11
172.7598499764814051
 21
131.1718817245773891
 31
0.0
  0
ARC
  5
29364
  8
0
 10
172.8385901339813984
 20
131.1718817221772895
 30
0.0
 40
0.0787401574999934
 50
179.9999982536241134
 51
210.13781024263929
  0
ARC
  5
29365
  8
0
 10
172.8385901339815121
 20
131.1718817221772895
 30
0.0
 40
0.0787401575000164
 50
210.1378102426407111
 51
239.4720578543413865
  0
ARC
  5
29366
  8
0
 10
172.8385901339813984
 20
131.1718817221772895
 30
0.0
 40
0.0787401574999829
 50
239.4720578543413865
 51
269.9999982681025017
  0
LINE
  5
29367
  8
0
 10
172.8385901316013076
 20
131.0931415646772962
 30
0.0
 11
174.2193179710733091
 21
131.0926768430402944
 31
0.0
  0
LINE
  5
29368
  8
0
 10
174.3744089922932119
 20
131.3131492886402896
 30
0.0
 11
174.3709997320277978
 21
131.2480966917536875
 31
0.0
  0
ARC
  5
29369
  8
0
 10
174.331683521009694
 20
131.2501572017168883
 30
0.0
 40
0.0393701682766527
 50
270.0001274611238955
 51
356.9999496370106158
  0
LINE
  5
2936A
  8
0
 10
174.298058132093189
 20
131.2107870345402887
 30
0.0
 11
174.2980581261932969
 21
131.1714170029403022
 31
0.0
  0
ARC
  5
2936B
  8
0
 10
174.2193179686933036
 20
131.1714170005404014
 30
0.0
 40
0.0787401574999934
 50
329.8621897573593174
 51
0.0000017463742827
  0
ARC
  5
2936C
  8
0
 10
174.2193179686931899
 20
131.1714170005404014
 30
0.0
 40
0.0787401575000164
 50
300.5279421456585851
 51
329.8621897573593174
  0
ARC
  5
2936D
  8
0
 10
174.2193179686933036
 20
131.1714170005402877
 30
0.0
 40
0.0787401574999829
 50
270.0000017318973846
 51
300.5279421456585851
  0
LINE
  5
2936E
  8
0
 10
177.6811052674314055
 20
130.4728992965773102
 30
0.0
 11
178.2009613483776036
 21
130.4729528733633117
 31
0.0
  0
ARC
  5
2936F
  8
0
 10
178.2009593186340908
 20
130.4926474945511927
 30
0.0
 40
0.0196946212925358
 50
270.0059049491084124
 51
353.0237966226181925
  0
LINE
  5
29370
  8
0
 10
178.2205081343815039
 20
130.4902554429772863
 30
0.0
 11
178.2243243869127127
 21
130.5214434066458864
 31
0.0
  0
LINE
  5
29371
  8
0
 10
178.2243243869127127
 20
130.5214434066458864
 30
0.0
 11
178.2246320277180018
 21
130.5875071069110902
 31
0.0
  0
ARC
  5
29372
  8
0
 10
178.1513212976772991
 20
130.616934392478214
 30
0.0
 40
0.0789963814041134
 50
338.1292325111775199
 51
359.999999999423494
  0
LINE
  5
29373
  8
0
 10
178.2303176790815087
 20
130.6169343924773898
 30
0.0
 11
178.2303176790815087
 21
131.0971587011156885
 31
0.0
  0
ARC
  5
29374
  8
0
 10
178.2500095433238982
 20
131.0971587011156885
 30
0.0
 40
0.0196918642424385
 50
90.0171368939485887
 51
180.0
  0
ARC
  5
29375
  8
0
 10
178.250003001453706
 20
130.6640269987549914
 30
0.0
 40
0.0196850379722456
 50
157.8504043654120039
 51
180.0000005169870008
  0
LINE
  5
29376
  8
0
 10
178.3466005432813972
 20
131.1168505673772984
 30
0.0
 11
178.3466005253814046
 21
131.110209229877313
 31
0.0
  0
LINE
  5
29377
  8
0
 10
178.3466005253814046
 20
131.110209229877313
 30
0.0
 11
178.2500033888815096
 21
130.8729090504772898
 31
0.0
  0
ARC
  5
29378
  8
0
 10
178.2481587914398915
 20
130.8550517883170983
 30
0.0
 40
0.0179522798434977
 50
84.102447945732834
 51
173.6204347958100982
  0
ARC
  5
29379
  8
0
 10
178.3769086828864943
 20
131.1376637956749107
 30
0.0
 40
0.0208395841675989
 50
272.8819441050899854
 51
5.8022304606526971
  0
LINE
  5
2937A
  8
0
 10
178.397641501155988
 20
131.1397705739927915
 30
0.0
 11
178.3976431271445051
 21
131.2467718287805951
 31
0.0
  0
LINE
  5
2937B
  8
0
 10
177.6811052674314055
 20
131.2467718071270042
 30
0.0
 11
180.1844292944815038
 21
131.2467723108773043
 31
0.0
  0
ARC
  5
2937C
  8
0
 10
180.1844292766035096
 20
131.3356144445534994
 30
0.0
 40
0.088842133676105
 50
270.0000115297775096
 51
299.425858493677481
  0
ARC
  5
2937D
  8
0
 10
180.1662105851301874
 20
131.3679133207294001
 30
0.0
 40
0.1259249884910552
 50
299.425858493677481
 51
322.4262969817971225
  0
ARC
  5
2937E
  8
0
 10
180.0100544485825083
 20
131.48805559939521
 30
0.0
 40
0.3229501292841453
 50
322.4262969817971225
 51
327.3244723869098038
  0
LINE
  5
2937F
  8
0
 10
177.6811052674314055
 20
131.3137015666769969
 30
0.0
 11
184.8406644644313985
 21
131.3139474183774098
 31
0.0
  0
LINE
  5
29380
  8
0
 10
177.6811052674314055
 20
131.3444708985568923
 30
0.0
 11
184.8545630025815001
 21
131.3549681852773006
 31
0.0
  0
ARC
  5
29381
  8
0
 10
184.8351816601170015
 20
132.6330693343790017
 30
0.0
 40
1.319133310328829
 50
270.2381430664739241
 51
276.331670444629026
  0
ARC
  5
29382
  8
0
 10
184.9144757623502926
 20
131.9184540924273108
 30
0.0
 40
0.6001322681329757
 50
276.331670444629026
 51
289.1948239273021954
  0
ARC
  5
29383
  8
0
 10
185.0131357843640103
 20
131.6350586697087124
 30
0.0
 40
0.3000543356527254
 50
289.1948239273021954
 51
332.4992187103856054
  0
ARC
  5
29384
  8
0
 10
184.71285787176231
 20
131.7912809571124058
 30
0.0
 40
0.6385395263905095
 50
332.5069950231016946
 51
357.8114694226555912
  0
ARC
  5
29385
  8
0
 10
184.9020702211273033
 20
132.048726373685497
 30
0.0
 40
0.6953828871904718
 50
266.0826114283520951
 51
293.7715940470844203
  0
ARC
  5
29386
  8
0
 10
185.1192837262564979
 20
131.5555754008668998
 30
0.0
 40
0.15651408237576
 50
293.7715940470844203
 51
324.4262788834270737
  0
ARC
  5
29387
  8
0
 10
184.7895026874066104
 20
131.791446728906493
 30
0.0
 40
0.5619654567427772
 50
324.4262788834270737
 51
357.4961640513866996
  0
ARC
  5
29388
  8
0
 10
179.9613041872526082
 20
132.2134823443826974
 30
0.0
 40
5.4080979001103877
 50
355.2632790080705263
 51
2.347228406481968
  0
ARC
  5
29389
  8
0
 10
270.3283834653641975
 20
135.8921700858138877
 30
0.0
 40
85.0338271227970637
 50
181.8689467577646894
 51
182.3301009639021117
  0
ARC
  5
2938A
  8
0
 10
171.1114337699644921
 20
131.5443095061872043
 30
0.0
 40
14.3152209137610598
 50
6.3150594270520664
 51
9.8881008363606355
  0
ARC
  5
2938B
  8
0
 10
181.3998368056965944
 20
133.330723057955197
 30
0.0
 40
3.8728871371912832
 50
9.9900996166573304
 51
20.4902387306237408
  0
ARC
  5
2938C
  8
0
 10
184.0424986871699105
 20
134.3639174161124004
 30
0.0
 40
1.0366368095509351
 50
18.1257404285321009
 51
67.7772055132836329
  0
ARC
  5
2938D
  8
0
 10
183.3791828379418973
 20
132.8252303703210089
 30
0.0
 40
2.7120925355561201
 50
67.0990558743207544
 51
78.2990571478311495
  0
ARC
  5
2938E
  8
0
 10
183.9269953996524123
 20
135.4409511113991016
 30
0.0
 40
0.040074016007959
 50
86.8400103019629057
 51
191.5252685277525018
  0
ARC
  5
2938F
  8
0
 10
183.9367176195578111
 20
135.4733182657209909
 30
0.0
 40
0.0072157034264951
 50
112.6251198539000029
 51
153.5403740502405014
  0
ARC
  5
29390
  8
0
 10
183.8459527336310089
 20
135.518503210097208
 30
0.0
 40
0.0941743538922997
 50
331.3817054934152111
 51
333.5343440247229978
  0
LINE
  5
29391
  8
0
 10
183.9286218146814065
 20
135.4733963151772969
 30
0.0
 11
183.9382260460814962
 21
135.289954611177393
 31
0.0
  0
LINE
  5
29392
  8
0
 10
183.8877294086815084
 20
135.4329443197773912
 30
0.0
 11
183.8964488763434986
 21
135.2665849321367944
 31
0.0
  0
ARC
  5
29393
  8
0
 10
183.9365461610665022
 20
135.2504530576997013
 30
0.0
 40
0.0395372576288948
 50
87.5648461566656522
 51
153.5111525566454986
  0
ARC
  5
29394
  8
0
 10
183.8356114172256071
 20
135.4654334780987028
 30
0.0
 40
0.207946965986712
 50
274.3795039652227956
 51
288.3738102753848125
  0
ARC
  5
29395
  8
0
 10
183.7858399531197051
 20
136.1153104826611866
 30
0.0
 40
0.8597270820522561
 50
272.2665905156449071
 51
274.3795039652227956
  0
ARC
  5
29396
  8
0
 10
183.8085425740445089
 20
135.9973380136227092
 30
0.0
 40
0.7411681137566465
 50
266.9073262369514055
 51
270.8734883973299929
  0
ARC
  5
29397
  8
0
 10
-384.4914341226223087
 20
-14819.8725900672307034
 30
0.0
 40
14965.922221166349118
 50
87.8239411333990887
 51
87.8242958450892104
  0
LINE
  5
29398
  8
0
 10
183.6759701863011003
 20
135.2607671008537977
 30
0.0
 11
182.1248597301818108
 21
135.3133847434945096
 31
0.0
  0
LINE
  5
29399
  8
0
 10
182.1248597301818108
 20
135.3133847434945096
 30
0.0
 11
181.5039736899570926
 21
135.3300406112093981
 31
0.0
  0
LINE
  5
2939A
  8
0
 10
181.5039736899570926
 20
135.3300406112093981
 30
0.0
 11
181.4686046566743869
 21
135.3309189266709041
 31
0.0
  0
LINE
  5
2939B
  8
0
 10
181.4686046566743869
 20
135.3309189266709041
 30
0.0
 11
181.3227311344782891
 21
135.3345413884140953
 31
0.0
  0
LINE
  5
2939C
  8
0
 10
181.3227311344782891
 20
135.3345413884140953
 30
0.0
 11
180.8000582326872916
 21
135.3460567819743119
 31
0.0
  0
LINE
  5
2939D
  8
0
 10
180.8000582326872916
 20
135.3460567819743119
 30
0.0
 11
179.755750100946301
 21
135.3637444156576919
 31
0.0
  0
LINE
  5
2939E
  8
0
 10
179.755750100946301
 20
135.3637444156576919
 30
0.0
 11
177.6811052674314055
 21
135.3778228711383917
 31
0.0
  0
LINE
  5
2939F
  8
0
 10
183.8514907371043137
 20
135.2580936896758033
 30
0.0
 11
183.8409253009315023
 21
135.4224456615773136
 31
0.0
  0
LINE
  5
293A0
  8
0
 10
183.8359843157990952
 20
135.2570470041736996
 30
0.0
 11
183.8400147231376138
 21
135.4223599467507029
 31
0.0
  0
ARC
  5
293A1
  8
0
 10
183.7392426075579976
 20
135.4184692351379908
 30
0.0
 40
0.1017604151864094
 50
2.2394805866866929
 51
41.7277679970982405
  0
ARC
  5
293A2
  8
0
 10
183.7423684277052871
 20
135.4207585223377919
 30
0.0
 40
0.0979045417022183
 50
41.945465013538147
 51
79.4166820767254364
  0
ARC
  5
293A3
  8
0
 10
181.9238072787534861
 20
125.6876909175071972
 30
0.0
 40
9.9994079453616127
 50
79.4166820767254364
 51
81.9910835738837562
  0
ARC
  5
293A4
  8
0
 10
181.8725800977294114
 20
125.3236017130183058
 30
0.0
 40
10.3670833088291996
 50
81.9910835738837562
 51
84.260168984407855
  0
ARC
  5
293A5
  8
0
 10
179.8904040263188904
 20
105.603483724339398
 30
0.0
 40
30.18657057428317
 50
84.260168984407855
 51
86.901166545196304
  0
ARC
  5
293A6
  8
0
 10
178.1294693304020029
 20
73.0764922476716663
 30
0.0
 40
62.7611936039745331
 50
86.901166545196304
 51
87.8697604072071385
  0
ARC
  5
293A7
  8
0
 10
177.9376874098473138
 20
67.9206257167346337
 30
0.0
 40
67.9206257422905537
 50
87.8697604072071385
 51
90.136555424895235
  0
ARC
  5
293A8
  8
0
 10
177.7284573828783039
 20
155.7089710233636026
 30
0.0
 40
19.8679688977884688
 50
269.8634445751047792
 51
270.1365554248952208
  0
ARC
  5
293A9
  8
0
 10
183.8832080330303995
 20
135.4280748067457125
 30
0.0
 40
0.0435697331212931
 50
173.2927843533902887
 51
187.5369660744408975
  0
ARC
  5
293AA
  8
0
 10
182.5264261955913128
 20
133.9249147383831087
 30
0.0
 40
2.6146178224667
 50
358.807354309216521
 51
16.9327262625158106
  0
ARC
  5
293AB
  8
0
 10
182.6905812654837007
 20
133.922888624273412
 30
0.0
 40
2.4504565376925989
 50
349.5063817713227081
 51
358.7748289150607093
  0
ARC
  5
293AC
  8
0
 10
183.8426373781514087
 20
133.7095003691231057
 30
0.0
 40
1.278804783043975
 50
321.9189944080769124
 51
349.5063817713227081
  0
ARC
  5
293AD
  8
0
 10
184.3284079317390933
 20
133.3288675835073889
 30
0.0
 40
0.6616708038964418
 50
289.1337944307621797
 51
321.9189944080769124
  0
ARC
  5
293AE
  8
0
 10
183.5055555869539035
 20
135.7005982446601138
 30
0.0
 40
3.1720875641915418
 50
274.9843175388951977
 51
289.1337944307621797
  0
ARC
  5
293AF
  8
0
 10
182.0384861057127068
 20
152.5223078610277128
 30
0.0
 40
20.0576496596676996
 50
271.9596495367571833
 51
274.9843175388951977
  0
ARC
  5
293B0
  8
0
 10
178.2797231236291111
 20
262.3772936408255987
 30
0.0
 40
129.9769209447115941
 50
269.7361193225307261
 51
271.9596495367571833
  0
ARC
  5
293B1
  8
0
 10
178.3395238847452049
 20
350.9708268145124066
 30
0.0
 40
218.3774898603124086
 50
269.8272502119821752
 51
270.8410330596340145
  0
ARC
  5
293B2
  8
0
 10
180.9824211845846094
 20
170.9351156811511885
 30
0.0
 40
38.3223811034860304
 50
270.8410330596340145
 51
273.7260797332435232
  0
ARC
  5
293B3
  8
0
 10
183.230012664653799
 20
136.4227268969436011
 30
0.0
 40
3.7368834628046579
 50
273.7260797332435232
 51
287.3857525607385242
  0
ARC
  5
293B4
  8
0
 10
184.1318751935359899
 20
133.5423702716809089
 30
0.0
 40
0.718637232011534
 50
287.3857525607385242
 51
328.4559304817947236
  0
ARC
  5
293B5
  8
0
 10
183.5483723906878879
 20
133.9005588841189933
 30
0.0
 40
1.4033083961566959
 50
328.4559304817947236
 51
357.0129151107918233
  0
ARC
  5
293B6
  8
0
 10
181.1518242012421922
 20
134.0256149665192993
 30
0.0
 40
3.8031171902236478
 50
357.0129151107918233
 51
7.2963768084504652
  0
ARC
  5
293B7
  8
0
 10
183.8252538067532953
 20
134.3679173659272976
 30
0.0
 40
1.1078626960684539
 50
7.2963768084504652
 51
69.8026415282202493
  0
ARC
  5
293B8
  8
0
 10
-434.183174780121476
 20
74.8024685763998463
 30
0.0
 40
622.2616119644717401
 50
5.3476472513659621
 51
5.3774761821766859
  0
ARC
  5
293B9
  8
0
 10
175.2272271483940074
 20
131.8469496781281123
 30
0.0
 40
10.1871795603397306
 50
1.899152581376653
 51
5.3476472513659621
  0
ARC
  5
293BA
  8
0
 10
197.5041652671106078
 20
132.5856219832051863
 30
0.0
 40
12.1020018674160994
 50
181.8991525813765975
 51
184.3168911834094104
  0
ARC
  5
293BB
  8
0
 10
168.5971829596377916
 20
130.4035247214096955
 30
0.0
 40
16.8872232789116588
 50
3.0676478619793448
 51
4.3168911834077992
  0
ARC
  5
293BC
  8
0
 10
174.5722820278818972
 20
130.7237408793419888
 30
0.0
 40
10.9035498868277401
 50
2.499940905040194
 51
3.0676478619793448
  0
ARC
  5
293BD
  8
0
 10
185.3860045952067139
 20
131.1958670284309108
 30
0.0
 40
0.0795257338742306
 50
314.7282297749101758
 51
2.499940905040194
  0
ARC
  5
293BE
  8
0
 10
185.3871229503504026
 20
131.1949072501689955
 30
0.0
 40
0.0780569109091104
 50
269.8074201609023248
 51
314.640807587566826
  0
LINE
  5
293BF
  8
0
 10
185.3868605896813904
 20
131.1168507801774012
 30
0.0
 11
182.5798566721543068
 21
131.1168505472772949
 31
0.0
  0
LINE
  5
293C0
  8
0
 10
182.6787210348815051
 20
131.3137973871772886
 30
0.0
 11
182.675311774616091
 21
131.2487447902908002
 31
0.0
  0
ARC
  5
293C1
  8
0
 10
182.6359956511813891
 20
131.25080525987741
 30
0.0
 40
0.0393700787000032
 50
270.0000017463790982
 51
357.0000016460650727
  0
LINE
  5
293C2
  8
0
 10
182.6359956523814958
 20
131.2114351811773076
 30
0.0
 11
181.0277446623580033
 21
131.2114351325161863
 31
0.0
  0
LINE
  5
293C3
  8
0
 10
182.6023701675815119
 20
131.2114351801525061
 30
0.0
 11
182.6023701687813912
 21
131.1720651014773864
 31
0.0
  0
ARC
  5
293C4
  8
0
 10
182.5236300112815115
 20
131.1720650990772867
 30
0.0
 40
0.0787401574999934
 50
329.8621897573593174
 51
0.0000017463742827
  0
ARC
  5
293C5
  8
0
 10
182.5236300112815115
 20
131.1720650990772867
 30
0.0
 40
0.0787401575000164
 50
300.5279421456585851
 51
329.8621897573593174
  0
ARC
  5
293C6
  8
0
 10
182.5236300112815115
 20
131.1720650990772867
 30
0.0
 40
0.0787401574999829
 50
270.0000017318973846
 51
300.5279421456585851
  0
LINE
  5
293C7
  8
0
 10
182.5236300136616023
 20
131.0933249415772934
 30
0.0
 11
181.1389677187576126
 21
131.0933249415772934
 31
0.0
  0
LINE
  5
293C8
  8
0
 10
180.9877726415670054
 20
131.3137973871772886
 30
0.0
 11
180.9911819018323911
 21
131.2487447902908002
 31
0.0
  0
ARC
  5
293C9
  8
0
 10
181.0304981128504949
 20
131.2508053002538873
 30
0.0
 40
0.0393701682766527
 50
183.0000503629894979
 51
269.9998725388759908
  0
LINE
  5
293CA
  8
0
 10
181.0641235017669999
 20
131.2114351330774014
 30
0.0
 11
181.0641235076670057
 21
131.1720651014773864
 31
0.0
  0
ARC
  5
293CB
  8
0
 10
181.142863665166999
 20
131.1720650990772867
 30
0.0
 40
0.0787401574999934
 50
179.9999982536241134
 51
210.13781024263929
  0
ARC
  5
293CC
  8
0
 10
181.142863665166999
 20
131.1720650990772867
 30
0.0
 40
0.0787401575000164
 50
210.1378102426407111
 51
239.4720578543413865
  0
ARC
  5
293CD
  8
0
 10
181.142863665166999
 20
131.1720650990772867
 30
0.0
 40
0.0787401574999829
 50
239.4720578543413865
 51
269.9999982681025017
  0
ARC
  5
293CE
  8
0
 10
178.451908124481406
 20
131.0696064294774033
 30
0.0
 40
0.0196850394000019
 50
180.0000000000048885
 51
269.9999999999968168
  0
LINE
  5
293CF
  8
0
 10
178.4322230850814037
 20
131.0696064294774033
 30
0.0
 11
178.4322230850814037
 21
131.0774804470273125
 31
0.0
  0
ARC
  5
293D0
  8
0
 10
178.4519081227313961
 20
131.0774804470273125
 30
0.0
 40
0.0196850376499988
 50
89.9999928689606747
 51
180.0000000000048885
  0
LINE
  5
293D1
  8
0
 10
178.4519081251814043
 20
131.0971654846773049
 30
0.0
 11
179.9046640315814898
 21
131.0971654406772871
 31
0.0
  0
ARC
  5
293D2
  8
0
 10
179.9046640316657033
 20
131.0774804035181944
 30
0.0
 40
0.0196850371590922
 50
47.3011343050155872
 51
90.0000002452013064
  0
ARC
  5
293D3
  8
0
 10
179.9046749785817099
 20
131.0774922670487115
 30
0.0
 40
0.0196688947205101
 50
0.0326673104976547
 51
47.3011343050155872
  0
LINE
  5
293D4
  8
0
 10
179.9243438701053037
 20
131.0775034813102025
 30
0.0
 11
179.9243483726017985
 21
131.069606473187207
 31
0.0
  0
ARC
  5
293D5
  8
0
 10
179.9046744631457102
 20
131.0695952560647015
 30
0.0
 40
0.0196739126537671
 50
269.9696157892947213
 51
0.0326673104976547
  0
LINE
  5
293D6
  8
0
 10
179.9046640299814044
 20
131.0499213461773138
 30
0.0
 11
178.451908124481406
 21
131.0499213900774009
 31
0.0
  0
LINE
  5
293D7
  8
0
 10
178.3854991232163059
 20
131.1174346783926126
 30
0.0
 11
178.385089081281393
 21
131.1168675662773921
 31
0.0
  0
LINE
  5
293D8
  8
0
 10
178.385089081281393
 20
131.1168675662773921
 30
0.0
 11
178.384679701800593
 21
131.0801226642765869
 31
0.0
  0
ARC
  5
293D9
  8
0
 10
178.4633211646163886
 20
131.0798876676381042
 30
0.0
 40
0.0786418139237875
 50
179.82878910149131
 51
270.617938220031192
  0
LINE
  5
293DA
  8
0
 10
178.4641693045815032
 20
131.0012504273774141
 30
0.0
 11
179.9671459910020133
 21
131.0013641633316865
 31
0.0
  0
ARC
  5
293DB
  8
0
 10
179.8803994438569873
 20
131.0825015538871128
 30
0.0
 40
0.0812511804299716
 50
269.970026256911126
 51
314.048458000476387
  0
ARC
  5
293DC
  8
0
 10
179.8817554278311945
 20
131.0810997658911106
 30
0.0
 40
0.079300872217401
 50
314.048458000476387
 51
359.1985453452272736
  0
LINE
  5
293DD
  8
0
 10
179.9610485419813983
 20
131.0799905396773113
 30
0.0
 11
179.9614738298321868
 21
131.117434630764393
 31
0.0
  0
ARC
  5
293DE
  8
0
 10
179.9622045823095959
 20
131.091150070162314
 30
0.0
 40
0.0899217803719541
 50
273.1501216819594902
 51
312.1941110964754102
  0
ARC
  5
293DF
  8
0
 10
179.9701563969667859
 20
131.0823786288889892
 30
0.0
 40
0.0780824586704175
 50
312.1941110964754102
 51
1.3904148344217271
  0
LINE
  5
293E0
  8
0
 10
180.0482158652814064
 20
131.0842732946773026
 30
0.0
 11
180.0788650681350873
 21
131.1168504748343935
 31
0.0
  0
LINE
  5
293E1
  8
0
 10
178.2500036535815013
 20
131.1168505644772893
 30
0.0
 11
178.3850888914334121
 21
131.1168505259778954
 31
0.0
  0
LINE
  5
293E2
  8
0
 10
178.3854991232163059
 20
131.1174346783926126
 30
0.0
 11
178.4222833244814126
 21
131.1174346772772878
 31
0.0
  0
LINE
  5
293E3
  8
0
 10
178.4222833244814126
 20
131.1174346772772878
 30
0.0
 11
178.4222833234881023
 21
131.1174590388926902
 31
0.0
  0
ARC
  5
293E4
  8
0
 10
178.422360805398597
 20
131.1368971069238967
 30
0.0
 40
0.0194382224556159
 50
269.7716150112912032
 51
301.6534831216636121
  0
LINE
  5
293E5
  8
0
 10
178.2317711242280041
 20
130.6714487468917127
 30
0.0
 11
178.388362096655186
 21
131.0561037859613975
 31
0.0
  0
LINE
  5
293E6
  8
0
 10
178.3885078348776858
 20
131.1203505654343076
 30
0.0
 11
180.0433091364915015
 21
131.1203529708627116
 31
0.0
  0
ARC
  5
293E7
  8
0
 10
180.0433246094814024
 20
131.1400241115773042
 30
0.0
 40
0.0196711467999989
 50
269.9549321082986921
 51
359.2863724009969815
  0
LINE
  5
293E8
  8
0
 10
180.062994230500891
 20
131.1397791108036017
 30
0.0
 11
180.0629941266813887
 21
131.2467717351468082
 31
0.0
  0
LINE
  5
293E9
  8
0
 10
181.0867273067769929
 20
131.1168498686618875
 30
0.0
 11
179.9620989905833142
 21
131.1168504783773869
 31
0.0
  0
ARC
  5
293EA
  8
0
 10
179.9621977468430885
 20
131.1177194911334141
 30
0.0
 40
0.0008746061796742
 50
213.8666981821887134
 51
263.5166130770169843
  0
LINE
  5
293EB
  8
0
 10
180.0992771631823928
 20
131.2467717340504123
 30
0.0
 11
180.1038142963813868
 21
131.116850474077296
 31
0.0
  0
LINE
  5
293EC
  8
0
 10
180.1009206064397858
 20
131.1997115730773089
 30
0.0
 11
181.064123501781495
 21
131.1997117174230993
 31
0.0
  0
LINE
  5
293ED
  8
0
 10
179.9614738298321868
 20
131.117434630764393
 30
0.0
 11
179.9281415670814113
 21
131.1174346317772859
 31
0.0
  0
LINE
  5
293EE
  8
0
 10
179.9281415670814113
 20
131.1174346317772859
 30
0.0
 11
179.9251966285814035
 21
131.1203481103773925
 31
0.0
  0
LINE
  5
293EF
  8
0
 10
190.6789959968573953
 20
146.7617510958152138
 30
0.0
 11
191.9320758647573939
 21
146.7617510956150966
 31
0.0
  0
ARC
  5
293F0
  8
0
 10
191.9320758647259026
 20
146.5649007018218128
 30
0.0
 40
0.1968503937933601
 50
0.5000000832994079
 51
89.9999999908546471
  0
LINE
  5
293F1
  8
0
 10
192.128918763056987
 20
146.5666185240573043
 30
0.0
 11
192.1323075842574042
 21
138.6908849540151891
 31
0.0
  0
ARC
  5
293F2
  8
0
 10
191.9355533975115122
 20
138.6908451037899113
 30
0.0
 40
0.1967541907814471
 50
276.6178537194443265
 51
0.0116045787947302
  0
ARC
  5
293F3
  8
0
 10
191.9345435830954045
 20
138.6995489195668938
 30
0.0
 40
0.2055163899480199
 50
270.2547048638023739
 51
276.6178537194443265
  0
LINE
  5
293F4
  8
0
 10
191.9354571905572868
 20
138.4940345603152139
 30
0.0
 11
190.6756271192924999
 21
138.4940345603152139
 31
0.0
  0
ARC
  5
293F5
  8
0
 10
190.6756146708574136
 20
138.6908849540151891
 30
0.0
 40
0.1968503937000161
 50
244.1127564091468969
 51
269.9999999999984084
  0
ARC
  5
293F6
  8
0
 10
190.6756146708574136
 20
138.6908849540151891
 30
0.0
 40
0.1968503936999967
 50
208.5451618756545997
 51
244.1127564091468969
  0
ARC
  5
293F7
  8
0
 10
190.6756146708574136
 20
138.6908849540151891
 30
0.0
 40
0.1968503936999947
 50
179.9999999999984084
 51
208.5451618756545997
  0
LINE
  5
293F8
  8
0
 10
190.4787642771572962
 20
138.6908849540151891
 30
0.0
 11
190.4787642771572962
 21
139.1343567159603083
 31
0.0
  0
LINE
  5
293F9
  8
0
 10
190.4787642771572962
 20
139.1343567159603083
 30
0.0
 11
190.4787642771572962
 21
142.7942338188007909
 31
0.0
  0
LINE
  5
293FA
  8
0
 10
190.4787642771572962
 20
142.7942338188007909
 30
0.0
 11
190.4787642771572962
 21
146.0240668860569997
 31
0.0
  0
LINE
  5
293FB
  8
0
 10
190.4787642771572962
 20
146.0240668860569997
 30
0.0
 11
190.482153099657296
 21
146.5666185238152082
 31
0.0
  0
ARC
  5
293FC
  8
0
 10
190.6789959965572905
 20
146.5649007021152102
 30
0.0
 40
0.1968503937000072
 50
136.5694811428022888
 51
179.5000000689186948
  0
ARC
  5
293FD
  8
0
 10
190.6789959960925955
 20
146.5649007025550929
 30
0.0
 40
0.1968503930600442
 50
89.9999998647316772
 51
136.5694811428022888
  0
ARC
  5
293FE
  8
0
 10
190.6757041508911925
 20
146.5648108674103867
 30
0.0
 40
0.1475465146374626
 50
90.0347471868411731
 51
179.9655932910258116
  0
LINE
  5
293FF
  8
0
 10
190.6756146708974029
 20
146.7123573549152127
 30
0.0
 11
191.935462687295086
 21
146.712357695717003
 31
0.0
  0
LINE
  5
29400
  8
0
 10
190.5281532628183072
 20
146.5648994810512988
 30
0.0
 11
190.5281580081573907
 21
138.6908849540552069
 31
0.0
  0
ARC
  5
29401
  8
0
 10
190.6756150907658878
 20
138.6908850429215079
 30
0.0
 40
0.1474570826085008
 50
180.0000345297690956
 51
270.0003150403600785
  0
LINE
  5
29402
  8
0
 10
190.6756159015573076
 20
138.5434279603151992
 30
0.0
 11
191.9354571905172975
 21
138.5434279603136076
 31
0.0
  0
ARC
  5
29403
  8
0
 10
191.9353671223178139
 20
146.5648106234787917
 30
0.0
 40
0.1475471031896426
 50
0.0345012957277783
 51
89.9628881072968767
  0
LINE
  5
29404
  8
0
 10
192.0829185987963967
 20
146.5648994810512988
 30
0.0
 11
192.0829138534573985
 21
138.6908849540552069
 31
0.0
  0
ARC
  5
29405
  8
0
 10
191.9354567708487878
 20
138.6908850429215079
 30
0.0
 40
0.1474570826084983
 50
270.0001630659463103
 51
359.9999654702309044
  0
ARC
  5
29406
  8
0
 10
190.6756269468930896
 20
146.5648884856908012
 30
0.0
 40
0.0627878094243935
 50
90.0112020784889637
 51
179.9888513210925964
  0
LINE
  5
29407
  8
0
 10
190.6756146710505959
 20
146.6276762939151865
 30
0.0
 11
191.9354571920123078
 21
146.6276783438395057
 31
0.0
  0
ARC
  5
29408
  8
0
 10
191.9354450061777015
 20
146.564888458024086
 30
0.0
 40
0.0627877769735031
 50
0.0111731101535087
 51
89.9888805571035419
  0
LINE
  5
29409
  8
0
 10
191.9982327819573982
 20
146.5649007002151905
 30
0.0
 11
191.9982348339817122
 21
138.6908849525740095
 31
0.0
  0
ARC
  5
2940A
  8
0
 10
191.9354592582484997
 20
138.690884936214303
 30
0.0
 40
0.062775575733156
 50
269.9981126250012267
 51
0.000014931688284
  0
LINE
  5
2940B
  8
0
 10
191.9354571903641045
 20
138.6281093605151966
 30
0.0
 11
190.6756144398692072
 21
138.6281508608792024
 31
0.0
  0
ARC
  5
2940C
  8
0
 10
190.6756165078151923
 20
138.6909283050698036
 30
0.0
 40
0.0627774442245964
 50
180.039563952198904
 51
269.9981126250012267
  0
LINE
  5
2940D
  8
0
 10
190.612839078557414
 20
138.6908849559150951
 30
0.0
 11
190.6128391386573071
 21
146.5648988257312908
 31
0.0
  0
LINE
  5
2940E
  8
0
 10
190.6528401972574045
 20
138.4953564372916901
 30
0.0
 11
190.6528401972574045
 21
138.3846459135151861
 31
0.0
  0
ARC
  5
2940F
  8
0
 10
190.672524635110392
 20
138.3846459135151861
 30
0.0
 40
0.0196844378530727
 50
179.9999999999984084
 51
269.9949695846541999
  0
LINE
  5
29410
  8
0
 10
190.6725229068696876
 20
138.3649614757379993
 30
0.0
 11
191.9385466198779966
 21
138.3648503222605939
 31
0.0
  0
ARC
  5
29411
  8
0
 10
191.9385483528907912
 20
138.3845891140711046
 30
0.0
 40
0.0197387918865824
 50
269.9949695846526083
 51
359.9950960517161889
  0
LINE
  5
29412
  8
0
 10
191.9582871447051104
 20
138.384587424627
 30
0.0
 11
191.9582966254012035
 21
138.4953561031259994
 31
0.0
  0
LINE
  5
29413
  8
0
 10
191.1695841945573875
 20
138.4940345603152139
 30
0.0
 11
191.1695841945573875
 21
138.4900975524151931
 31
0.0
  0
LINE
  5
29414
  8
0
 10
191.1695841945573875
 20
138.4900975524151931
 30
0.0
 11
191.2791128169573085
 21
138.4900975524151931
 31
0.0
  0
LINE
  5
29415
  8
0
 10
191.2791128169573085
 20
138.4900975524151931
 30
0.0
 11
191.2791128174573032
 21
138.4940345603152139
 31
0.0
  0
LINE
  5
29416
  8
0
 10
191.5788619232573069
 20
138.4940345603152139
 30
0.0
 11
191.5788619436573867
 21
138.4900975524151931
 31
0.0
  0
LINE
  5
29417
  8
0
 10
191.5788619436573867
 20
138.4900975524151931
 30
0.0
 11
191.6762867229572862
 21
138.4900975524151931
 31
0.0
  0
LINE
  5
29418
  8
0
 10
191.6762867229572862
 20
138.4900975524151931
 30
0.0
 11
191.6762867229572862
 21
138.4940345603152139
 31
0.0
  0
LINE
  5
29419
  8
0
 10
172.7598454248814051
 20
131.1997116461774056
 30
0.0
 11
169.9370096289814001
 21
131.1992464418773068
 31
0.0
  0
LINE
  5
2941A
  8
0
 10
169.9370096289814001
 20
131.1992464418773068
 30
0.0
 11
169.8968289811811019
 21
131.2010069011371911
 31
0.0
  0
LINE
  5
2941B
  8
0
 10
174.8464595981814966
 20
131.1168505472772949
 30
0.0
 11
174.8464595981814966
 21
130.9455931360774059
 31
0.0
  0
ARC
  5
2941C
  8
0
 10
174.8661446374813977
 20
130.9455931360774059
 30
0.0
 40
0.0196850394000006
 50
180.0000000000015916
 51
269.9999999999968168
  0
LINE
  5
2941D
  8
0
 10
174.8661446374813977
 20
130.9259080966772899
 30
0.0
 11
175.3874693520741062
 21
130.9259080966772899
 31
0.0
  0
ARC
  5
2941E
  8
0
 10
175.3852605191123928
 20
131.0110580201144899
 30
0.0
 40
0.0851311450969464
 50
270.2620009255031732
 51
312.6194360094382887
  0
ARC
  5
2941F
  8
0
 10
175.3757538253659902
 20
131.0213894357378877
 30
0.0
 40
0.0991709233990228
 50
312.6194360094382887
 51
343.7089626194583047
  0
ARC
  5
29420
  8
0
 10
175.0821838378267898
 20
131.1071854608750868
 30
0.0
 40
0.4050210427599845
 50
343.7089626194583047
 51
349.6139706336970221
  0
ARC
  5
29421
  8
0
 10
175.5017243768311914
 20
131.0302911022484125
 30
0.0
 40
0.0215079788279464
 50
140.8232040463607859
 51
169.6139706336969937
  0
LINE
  5
29422
  8
0
 10
175.535435976081402
 20
131.0440183328773003
 30
0.0
 11
174.9350487332474131
 21
131.044018332847088
 31
0.0
  0
ARC
  5
29423
  8
0
 10
174.9359718967048991
 20
131.0339424986458994
 30
0.0
 40
0.0101180019659947
 50
95.2327661976858195
 51
169.1013956647705072
  0
ARC
  5
29424
  8
0
 10
172.7137697082418981
 20
131.4618150527952025
 30
0.0
 40
2.2529015492098949
 50
347.7142818954874883
 51
349.1013956647706209
  0
ARC
  5
29425
  8
0
 10
174.777086194099212
 20
131.0216698084545044
 30
0.0
 40
0.143462098668709
 50
326.7977373643901728
 51
344.1250049231185812
  0
ARC
  5
29426
  8
0
 10
174.8568950368317871
 20
130.9683854291693024
 30
0.0
 40
0.0475124983901237
 50
300.4996055973952025
 51
327.8617610700408136
  0
ARC
  5
29427
  8
0
 10
174.8745163457510898
 20
130.9403176017152077
 30
0.0
 40
0.0144154901517659
 50
271.6511029854427193
 51
296.7697429196106214
  0
ARC
  5
29428
  8
0
 10
175.535435976081402
 20
131.0637033722773026
 30
0.0
 40
0.019685039400001
 50
269.9999997089482235
 51
359.9999999999968168
  0
LINE
  5
29429
  8
0
 10
175.5551210154814044
 20
131.0637033722773026
 30
0.0
 11
175.5551210154814044
 21
131.1168505472772949
 31
0.0
  0
LINE
  5
2942A
  8
0
 10
177.6811052674314055
 20
130.4728992965773102
 30
0.0
 11
176.4702994356811985
 21
129.242594621212902
 31
0.0
  0
ENDBLK
  5
2942E
  8
0
  0
ENDSEC
  0
SECTION
  2
ENTITIES
  0
ATTDEF
  5
3930
  8
DEFPOINTS
 10
6656.9399974463731269
 20
-11.0672975430164797
 30
0.0
 40
0.001
  1
P39848-LV
  3

  2
MODELNUMBER
 70
     0
1001
ACDBATTR
1070
     0
1070
     1
  0
ATTDEF
  5
3931
  8
DEFPOINTS
 10
6656.9399974463731269
 20
-11.0689642096831395
 30
0.0
 40
0.001
  1
KALLISTA
  3

  2
BRANDNAME
 70
     0
1001
ACDBATTR
1070
     0
1070
     1
  0
ATTDEF
  5
3932
  8
DEFPOINTS
 10
6656.9399974463731269
 20
-11.07063087634981
 30
0.0
 40
0.001
  1
VALVE TRIM
  3

  2
PRODUCT
 70
     0
1001
ACDBATTR
1070
     0
1070
     1
  0
ARC
  5
29D97
  8
0
 10
6656.1568716256178959
 20
-8.7087478165987378
 30
0.0
 40
1.5748031496000421
 50
89.999998370044807
 51
116.7214201257393995
  0
ARC
  5
29D98
  8
0
 10
6656.1568716256178959
 20
-8.7087478165986578
 30
0.0
 40
1.5748031495999519
 50
116.7214201257393995
 51
136.5390847700747941
  0
ARC
  5
29D99
  8
0
 10
6656.1568716256178959
 20
-8.7087478165987058
 30
0.0
 40
1.574803149600021
 50
136.5390847700747941
 51
179.9999999999996874
  0
ARC
  5
29D9A
  8
0
 10
6657.7316747751183357
 20
-8.7087478165987378
 30
0.0
 40
1.5748031496000421
 50
63.2785798742605792
 51
90.000001629955193
  0
ARC
  5
29D9B
  8
0
 10
6657.7316747751183357
 20
-8.7087478165986578
 30
0.0
 40
1.5748031495999519
 50
43.4609152299251917
 51
63.2785798742606289
  0
ARC
  5
29D9C
  8
0
 10
6657.7316747751183357
 20
-8.7087478165987058
 30
0.0
 40
1.574803149600021
 50
0.0000000000003053
 51
43.4609152299251917
  0
ARC
  5
29D9D
  8
0
 10
6656.1568716256178959
 20
-13.4331572798986496
 30
0.0
 40
1.5748031496000421
 50
243.2785798742606005
 51
270.000001629955193
  0
ARC
  5
29D9E
  8
0
 10
6656.1568716256178959
 20
-13.4331572798987295
 30
0.0
 40
1.5748031495999519
 50
223.4609152299252912
 51
243.2785798742606005
  0
ARC
  5
29D9F
  8
0
 10
6656.1568716256178959
 20
-13.4331572798986798
 30
0.0
 40
1.574803149600025
 50
179.9999995500465104
 51
223.4609152299250923
  0
ARC
  5
29DA0
  8
0
 10
6657.7316747751183357
 20
-13.4331572798986496
 30
0.0
 40
1.5748031496000421
 50
269.999998370044807
 51
296.7214201257394279
  0
ARC
  5
29DA1
  8
0
 10
6657.7316747751183357
 20
-13.4331572798987295
 30
0.0
 40
1.5748031495999519
 50
296.7214201257394279
 51
316.5390847700746804
  0
ARC
  5
29DA2
  8
0
 10
6657.7316747745162502
 20
-13.4331572795127396
 30
0.0
 40
1.5748031503036111
 50
316.5390847749932846
 51
0.0000005135086447
  0
ARC
  5
29DA3
  8
0
 10
6656.9442482574168025
 20
-9.1023872207068681
 30
0.0
 40
0.8563595353977808
 50
180.0041068410617981
 51
229.9351964650925026
  0
ARC
  5
29DA4
  8
0
 10
6656.9440683319726304
 20
-9.1023872336035492
 30
0.0
 40
0.8561796099532706
 50
111.1101158153489052
 51
180.0041068410617981
  0
ARC
  5
29DA5
  8
0
 10
6656.9442282262862136
 20
-9.1028013916727915
 30
0.0
 40
0.856623561637199
 50
49.9060289108699209
 51
111.1101158153489052
  0
ARC
  5
29DA6
  8
0
 10
6656.944576899409185
 20
-9.1023872405870776
 30
0.0
 40
0.8560821800076331
 50
359.9958931676382008
 51
49.9060289108699209
  0
ARC
  5
29DA7
  8
0
 10
6656.9443023190433451
 20
-9.1023872209057757
 30
0.0
 40
0.8563567603742021
 50
310.0608420498564897
 51
359.9958931676382008
  0
ARC
  5
29DA8
  8
0
 10
6656.9442653330816029
 20
-9.1024483353388153
 30
0.0
 40
0.8070789245572902
 50
165.6901186055964956
 51
226.9275299125932008
  0
ARC
  5
29DA9
  8
0
 10
6656.9442745401765933
 20
-9.1024506838889394
 30
0.0
 40
0.807088426466554
 50
79.8849886042670789
 51
165.6901186055964956
  0
ARC
  5
29DAA
  8
0
 10
6656.9442756744074359
 20
-9.1024443260102732
 30
0.0
 40
0.8070819682084774
 50
40.0328780042857133
 51
79.8849886042670789
  0
ARC
  5
29DAB
  8
0
 10
6656.9442687688815568
 20
-9.1024501271896341
 30
0.0
 40
0.8070909870752476
 50
357.9044690700605997
 51
40.0328780042857133
  0
ARC
  5
29DAC
  8
0
 10
6656.9442858551101381
 20
-9.1024507523786689
 30
0.0
 40
0.8070738894129098
 50
313.0723780437361938
 51
357.9044690700607134
  0
ARC
  5
29DAD
  8
0
 10
6656.9293953711248832
 20
-10.4280243456931103
 30
0.0
 40
0.5373270215761186
 50
176.4620097627239943
 51
256.2224665578564213
  0
ARC
  5
29DAE
  8
0
 10
6656.9399642485432196
 20
-10.3849226324501096
 30
0.0
 40
0.5817056071141726
 50
256.2224665578564213
 51
309.8481515285499768
  0
ARC
  5
29DAF
  8
0
 10
6656.9638531645587136
 20
-10.4288976966596003
 30
0.0
 40
0.532727835359879
 50
310.9061595022382107
 51
3.7270657681950659
  0
ARC
  5
29DB0
  8
0
 10
6657.038721531873307
 20
-10.2976783878374398
 30
0.0
 40
0.6529029781056782
 50
188.5605291326571944
 51
226.4905755449715059
  0
ARC
  5
29DB1
  8
0
 10
6656.9438632844030508
 20
-10.3601440114271597
 30
0.0
 40
0.5429046198162478
 50
229.2134749953328878
 51
288.7159757381668896
  0
ARC
  5
29DB2
  8
0
 10
6656.9457393133043297
 20
-10.3656814154471792
 30
0.0
 40
0.537058054352846
 50
288.7159757381668896
 51
333.493261164805574
  0
ARC
  5
29DB3
  8
0
 10
6655.5402261759682006
 20
-9.8710273821018646
 30
0.0
 40
2.0240301792067781
 50
338.7269402259262279
 51
345.0180673625877148
  0
LINE
  5
29DB4
  8
0
 10
6656.3793125705187776
 20
-9.6788204083403802
 30
0.0
 11
6656.3793125705187776
 21
-9.1024486039986954
 31
0.0
  0
ARC
  5
29DB5
  8
0
 10
6656.9442732004190475
 20
-9.1024486039986954
 30
0.0
 40
0.564960629899999
 50
141.9956119728838075
 51
180.0
  0
ARC
  5
29DB6
  8
0
 10
6656.9442732004190475
 20
-9.1024486039986954
 30
0.0
 40
0.5649606299000006
 50
94.8064727510688385
 51
141.9956119728838075
  0
ARC
  5
29DB7
  8
0
 10
6656.9442732004190475
 20
-9.1024486039986954
 30
0.0
 40
0.5649606298999988
 50
30.9097033814391899
 51
94.8064727510688385
  0
ARC
  5
29DB8
  8
0
 10
6656.9442732004190475
 20
-9.1024486039986972
 30
0.0
 40
0.564960629900005
 50
0.0000000000001018
 51
30.9097033814391011
  0
LINE
  5
29DB9
  8
0
 10
6657.5092338303165889
 20
-9.1024486039986954
 30
0.0
 11
6657.5092338303165889
 21
-9.6788204673007492
 31
0.0
  0
CIRCLE
  5
29DBA
  8
0
 10
6656.9442732004190475
 20
-9.1024486039986954
 30
0.0
 40
0.1771653543000003
  0
CIRCLE
  5
29DBB
  8
0
 10
6656.9442732004190475
 20
-9.1024486039986954
 30
0.0
 40
0.1574803150000004
  0
LINE
  5
29DBC
  8
0
 10
6656.9113142283176785
 20
-9.0453619897986961
 30
0.0
 11
6656.977232172517688
 21
-9.0453619897986961
 31
0.0
  0
LINE
  5
29DBD
  8
0
 10
6656.977232172517688
 20
-9.0453619897986961
 30
0.0
 11
6657.0101911445190126
 21
-9.1024486039986954
 31
0.0
  0
LINE
  5
29DBE
  8
0
 10
6657.0101911445190126
 20
-9.1024486039986954
 30
0.0
 11
6656.977232172517688
 21
-9.1595352181986964
 31
0.0
  0
LINE
  5
29DBF
  8
0
 10
6656.977232172517688
 20
-9.1595352181986964
 30
0.0
 11
6656.9113142283176785
 21
-9.1595352181986964
 31
0.0
  0
LINE
  5
29DC0
  8
0
 10
6656.9113142283176785
 20
-9.1595352181986964
 30
0.0
 11
6656.8783552563190824
 21
-9.1024486039986954
 31
0.0
  0
LINE
  5
29DC1
  8
0
 10
6656.8783552563190824
 20
-9.1024486039986954
 30
0.0
 11
6656.9113142283176785
 21
-9.0453619897986961
 31
0.0
  0
ARC
  5
29DC2
  8
0
 10
-405652.6306600926909596
 20
-9.8580309032594968
 30
0.0
 40
412309.0237528830184601
 50
359.9999253997197002
 51
0.0001049981308343
  0
ARC
  5
29DC3
  8
0
 10
6656.9442715948371188
 20
-9.1024475939274936
 30
0.0
 40
0.5511794968193275
 50
115.6519082493065014
 51
180.0001049981306096
  0
ARC
  5
29DC4
  8
0
 10
6656.9442731095132331
 20
-9.1024507479664276
 30
0.0
 40
0.5511829957060934
 50
59.4923088767537607
 51
115.6519082493065014
  0
ARC
  5
29DC5
  8
0
 10
6656.9442749691397694
 20
-9.1024475919154142
 30
0.0
 40
0.551179332528527
 50
0.0628254043332315
 51
59.4923088767536967
  0
LINE
  5
29DC6
  8
0
 10
6657.4954539703194314
 20
-9.101843218298697
 30
0.0
 11
6657.4954542926516297
 21
-10.3942684145791997
 31
0.0
  0
ARC
  5
29DC7
  8
0
 10
6656.9442482574168025
 20
-13.0393950947068706
 30
0.0
 40
0.8563595353977808
 50
180.0041068410617981
 51
229.9351964650925026
  0
ARC
  5
29DC8
  8
0
 10
6656.9440683319726304
 20
-13.0393951076035499
 30
0.0
 40
0.8561796099532706
 50
111.1101158153489052
 51
180.0041068410617981
  0
ARC
  5
29DC9
  8
0
 10
6656.9442282262862136
 20
-13.0398092656727904
 30
0.0
 40
0.856623561637199
 50
49.9060289108699209
 51
75.3742928802157195
  0
ARC
  5
29DCA
  8
0
 10
6656.9442282262862136
 20
-13.0398092656727904
 30
0.0
 40
0.856623561637199
 50
104.6194752960898029
 51
111.1101158153489052
  0
ARC
  5
29DCB
  8
0
 10
6656.944576899409185
 20
-13.0393951145870801
 30
0.0
 40
0.8560821800076331
 50
359.9958931676382008
 51
49.9060289108699209
  0
ARC
  5
29DCC
  8
0
 10
6656.9443023190433451
 20
-13.0393950949057693
 30
0.0
 40
0.8563567603742021
 50
310.0608420498564897
 51
359.9958931676382008
  0
ARC
  5
29DCD
  8
0
 10
6656.9442653330816029
 20
-13.0394562093388107
 30
0.0
 40
0.8070789245572902
 50
165.6901186055964956
 51
226.9275299125932008
  0
ARC
  5
29DCE
  8
0
 10
6656.9442745401765933
 20
-13.0394585578889401
 30
0.0
 40
0.807088426466554
 50
79.8849886042670789
 51
165.6901186055964956
  0
ARC
  5
29DCF
  8
0
 10
6656.9442756744074359
 20
-13.0394522000102704
 30
0.0
 40
0.8070819682084774
 50
40.0328780042857133
 51
79.8849886042670789
  0
ARC
  5
29DD0
  8
0
 10
6656.9442687688815568
 20
-13.0394580011896295
 30
0.0
 40
0.8070909870752476
 50
357.9044690700605997
 51
40.0328780042857133
  0
ARC
  5
29DD1
  8
0
 10
6656.9442858551101381
 20
-13.0394586263786696
 30
0.0
 40
0.8070738894129098
 50
313.0723780437361938
 51
357.9044690700607134
  0
ARC
  5
29DD2
  8
0
 10
6656.9293953711112408
 20
-14.3650322197159106
 30
0.0
 40
0.5373270215503504
 50
176.4620097908274943
 51
256.22246655882401
  0
ARC
  5
29DD3
  8
0
 10
6656.9399642485432196
 20
-14.3219305064501103
 30
0.0
 40
0.5817056071141726
 50
256.2224665578564213
 51
309.8481515285499768
  0
ARC
  5
29DD4
  8
0
 10
6656.9638531645587136
 20
-14.3659055706595993
 30
0.0
 40
0.532727835359879
 50
310.9061595022382107
 51
3.7270657681950659
  0
ARC
  5
29DD5
  8
0
 10
6657.0387215322352858
 20
-14.2346862615648906
 30
0.0
 40
0.6529029785522874
 50
188.560529176453997
 51
226.4905755384293116
  0
ARC
  5
29DD6
  8
0
 10
6656.9438632844030508
 20
-14.2971518854271604
 30
0.0
 40
0.5429046198162478
 50
229.2134749953328878
 51
288.7159757381668896
  0
ARC
  5
29DD7
  8
0
 10
6656.9457393133043297
 20
-14.30268928944718
 30
0.0
 40
0.537058054352846
 50
288.7159757381668896
 51
333.4932611648052898
  0
ARC
  5
29DD8
  8
0
 10
6655.5402261759682006
 20
-13.80803525610186
 30
0.0
 40
2.0240301792067781
 50
338.7269402259262279
 51
345.0180673625877148
  0
LINE
  5
29DD9
  8
0
 10
6656.3793125705187776
 20
-13.6158282823403791
 30
0.0
 11
6656.3793125705187776
 21
-13.0394564779986908
 31
0.0
  0
ARC
  5
29DDA
  8
0
 10
6656.9442732004190475
 20
-13.0394564779986908
 30
0.0
 40
0.564960629899999
 50
141.9956119728838075
 51
180.0
  0
ARC
  5
29DDB
  8
0
 10
6656.9442732004190475
 20
-13.0394564779986908
 30
0.0
 40
0.5649606299000006
 50
94.8064727510688385
 51
141.9956119728838075
  0
ARC
  5
29DDC
  8
0
 10
6656.9442732004190475
 20
-13.0394564779986908
 30
0.0
 40
0.5649606298999988
 50
30.9097033814391899
 51
94.8064727510688385
  0
ARC
  5
29DDD
  8
0
 10
6656.9442732004190475
 20
-13.0394564779986908
 30
0.0
 40
0.564960629900005
 50
0.0000000000001018
 51
30.9097033814391011
  0
LINE
  5
29DDE
  8
0
 10
6657.5092338303165889
 20
-13.0394564779986908
 30
0.0
 11
6657.5092338303165889
 21
-13.6158283413007499
 31
0.0
  0
CIRCLE
  5
29DDF
  8
0
 10
6656.9442732004190475
 20
-13.0394564779986908
 30
0.0
 40
0.1771653543000003
  0
CIRCLE
  5
29DE0
  8
0
 10
6656.9442732004190475
 20
-13.0394564779986908
 30
0.0
 40
0.1574803150000004
  0
LINE
  5
29DE1
  8
0
 10
6656.9113142283176785
 20
-12.9823698637986897
 30
0.0
 11
6656.977232172517688
 21
-12.9823698637986897
 31
0.0
  0
LINE
  5
29DE2
  8
0
 10
6656.977232172517688
 20
-12.9823698637986897
 30
0.0
 11
6657.0101911445190126
 21
-13.0394564779986908
 31
0.0
  0
LINE
  5
29DE3
  8
0
 10
6657.0101911445190126
 20
-13.0394564779986908
 30
0.0
 11
6656.977232172517688
 21
-13.0965430921986901
 31
0.0
  0
LINE
  5
29DE4
  8
0
 10
6656.977232172517688
 20
-13.0965430921986901
 30
0.0
 11
6656.9113142283176785
 21
-13.0965430921986901
 31
0.0
  0
LINE
  5
29DE5
  8
0
 10
6656.9113142283176785
 20
-13.0965430921986901
 30
0.0
 11
6656.8783552563190824
 21
-13.0394564779986908
 31
0.0
  0
LINE
  5
29DE6
  8
0
 10
6656.8783552563190824
 20
-13.0394564779986908
 30
0.0
 11
6656.9113142283176785
 21
-12.9823698637986897
 31
0.0
  0
ARC
  5
29DE7
  8
0
 10
-405652.6306600926909596
 20
-13.7950387772594905
 30
0.0
 40
412309.0237528830184601
 50
359.9999253997197002
 51
0.0001049981308343
  0
ARC
  5
29DE8
  8
0
 10
6656.9442715948371188
 20
-13.0394554679274908
 30
0.0
 40
0.5511794968193275
 50
115.6519082493065014
 51
180.0001049981306096
  0
ARC
  5
29DE9
  8
0
 10
6656.9442731095132331
 20
-13.0394586219664195
 30
0.0
 40
0.5511829957060934
 50
59.4923088767537607
 51
115.6519082493065014
  0
ARC
  5
29DEA
  8
0
 10
6656.9442749691397694
 20
-13.0394554659154096
 30
0.0
 40
0.551179332528527
 50
0.0628254043332315
 51
59.4923088767536967
  0
LINE
  5
29DEB
  8
0
 10
6657.4954539703194314
 20
-13.0388510922986907
 30
0.0
 11
6657.4954542926516297
 21
-14.3312762885792004
 31
0.0
  0
LINE
  5
29DEC
  8
0
 10
6656.7281953405636159
 20
-12.1905894223035496
 30
0.0
 11
6656.7275720936404468
 21
-12.2620064514537894
 31
0.0
  0
ARC
  5
29DED
  8
0
 10
6656.7478796302866613
 20
-12.1907612044685596
 30
0.0
 40
0.0196850392672805
 50
103.2900170964156956
 51
179.5000000842524059
  0
ARC
  5
29DEE
  8
0
 10
6656.9442721156356129
 20
-13.0222069294417704
 30
0.0
 40
0.8740105052803595
 50
100.586136571058006
 51
103.2900170964155961
  0
ARC
  5
29DEF
  8
0
 10
6656.9442732001080003
 20
-13.02221273202648
 30
0.0
 40
0.8740164083360882
 50
79.4138633953331237
 51
100.586136571058006
  0
ARC
  5
29DF0
  8
0
 10
6656.9442742489773082
 20
-13.0222071199352794
 30
0.0
 40
0.8740106990722436
 50
76.7099836583955437
 51
79.4138633953331237
  0
ARC
  5
29DF1
  8
0
 10
6657.1406667671481046
 20
-12.1907612070537308
 30
0.0
 40
0.0196850426383542
 50
0.5000073691258669
 51
76.7099836583955437
  0
LINE
  5
29DF2
  8
0
 10
6657.1603510602726601
 20
-12.1905894223035496
 30
0.0
 11
6657.1609754225182769
 21
-12.2621342531986901
 31
0.0
  0
LINE
  5
29DF3
  8
0
 10
6654.5820684760192307
 20
-8.7087478165986951
 30
0.0
 11
6654.5820684760192307
 21
-13.4331572675314899
 31
0.0
  0
LINE
  5
29DF4
  8
0
 10
6659.3064779247188198
 20
-8.7087478165986951
 30
0.0
 11
6659.3064779248188643
 21
-13.4331572653986893
 31
0.0
  0
LINE
  5
29DF5
  8
0
 10
6656.1568716704177859
 20
-7.133944666998695
 30
0.0
 11
6657.7316747303184457
 21
-7.133944666998695
 31
0.0
  0
LINE
  5
29DF6
  8
0
 10
6656.1568716704177859
 20
-15.0079604294986897
 30
0.0
 11
6657.7316747303184457
 21
-15.0079604294986897
 31
0.0
  0
LINE
  5
29DF7
  8
0
 10
6656.4127773761601929
 20
-13.8510077766986903
 30
0.0
 11
6657.4757688556037465
 21
-13.8510077766989497
 31
0.0
  0
ARC
  5
29DF8
  8
0
 10
6657.4758686652739925
 20
-13.9222952528784507
 30
0.0
 40
0.0712875460512857
 50
83.7690796967098237
 51
90.0802198284992528
  0
ARC
  5
29DF9
  8
0
 10
6657.4787872128654271
 20
-13.8955639033303502
 30
0.0
 40
0.0443973439563407
 50
73.8514991464900419
 51
83.7690755384511192
  0
ARC
  5
29DFA
  8
0
 10
6657.4881217355723493
 20
-13.8633261383166495
 30
0.0
 40
0.010835359401795
 50
52.1928728836732816
 51
73.8514991464901129
  0
ARC
  5
29DFB
  8
0
 10
6657.4936663882663197
 20
-13.8561798508574796
 30
0.0
 40
0.0017903277302662
 50
3.053503281112679
 51
52.1928728836727771
  0
ARC
  5
29DFC
  8
0
 10
6656.4126777292403858
 20
-13.9222951751929696
 30
0.0
 40
0.0712874681384491
 50
89.919910891127401
 51
96.2309220280613715
  0
ARC
  5
29DFD
  8
0
 10
6656.4097591879717584
 20
-13.8955639033303502
 30
0.0
 40
0.0443973439563407
 50
96.2309244615488666
 51
106.1485008535099013
  0
ARC
  5
29DFE
  8
0
 10
6656.4004246652639267
 20
-13.8633261383166495
 30
0.0
 40
0.010835359401795
 50
106.1485008535099013
 51
127.8071271163266971
  0
ARC
  5
29DFF
  8
0
 10
6656.3948800125708658
 20
-13.8561798508574796
 30
0.0
 40
0.0017903277302662
 50
127.8071271163271945
 51
176.946496718887289
  0
LINE
  5
29E00
  8
0
 10
6656.4127773761601929
 20
-9.9139999026986967
 30
0.0
 11
6657.4757688556037465
 21
-9.9139999026989472
 31
0.0
  0
ARC
  5
29E01
  8
0
 10
6657.4758686652739925
 20
-9.9852873788784571
 30
0.0
 40
0.0712875460512857
 50
83.7690796967098237
 51
90.0802198284992528
  0
ARC
  5
29E02
  8
0
 10
6657.4787872128654271
 20
-9.9585560293303512
 30
0.0
 40
0.0443973439563407
 50
73.8514991464900419
 51
83.7690755384511192
  0
ARC
  5
29E03
  8
0
 10
6657.4881217355723493
 20
-9.9263182643166559
 30
0.0
 40
0.010835359401795
 50
52.1928728836732816
 51
73.8514991464901129
  0
ARC
  5
29E04
  8
0
 10
6657.4936663882663197
 20
-9.9191719768574842
 30
0.0
 40
0.0017903277302662
 50
3.053503281112679
 51
52.1928728836727771
  0
ARC
  5
29E05
  8
0
 10
6656.4126777292403858
 20
-9.9852873011929724
 30
0.0
 40
0.0712874681384491
 50
89.919910891127401
 51
96.2309220280613715
  0
ARC
  5
29E06
  8
0
 10
6656.4097591879717584
 20
-9.9585560293303512
 30
0.0
 40
0.0443973439563407
 50
96.2309244615488666
 51
106.1485008535099013
  0
ARC
  5
29E07
  8
0
 10
6656.4004246652639267
 20
-9.9263182643166559
 30
0.0
 40
0.010835359401795
 50
106.1485008535099013
 51
127.8071271163266971
  0
ARC
  5
29E08
  8
0
 10
6656.3948800125708658
 20
-9.9191719768574842
 30
0.0
 40
0.0017903277302662
 50
127.8071271163271945
 51
176.946496718887289
  0
ENDSEC
  0
EOF
