  0
SECTION
  2
HEADER
  9
$ACADVER
  1
AC1009
  9
$INSBASE
 10
5238.0631753266807209
 20
474.713008516266882
 30
0.0
  9
$EXTMIN
 10
5230.890790066036061
 20
474.6956435091325943
 30
-0.0000000349181948
  9
$EXTMAX
 10
5244.8968105537969677
 20
477.7573489299110747
 30
0.0000000814935746
  9
$LIMMIN
 10
0.0
 20
0.0
  9
$LIMMAX
 10
11.6929133858000007
 20
8.2677165353999982
  9
$ORTHOMODE
 70
     0
  9
$REGENMODE
 70
     1
  9
$FILLMODE
 70
     1
  9
$QTEXTMODE
 70
     0
  9
$MIRRTEXT
 70
     0
  9
$DRAGMODE
 70
     2
  9
$LTSCALE
 40
0.6431102362
  9
$OSMODE
 70
  4095
  9
$ATTMODE
 70
     1
  9
$TEXTSIZE
 40
0.2
  9
$TRACEWID
 40
0.05
  9
$TEXTSTYLE
  7
STANDARD
  9
$CLAYER
  8
0
  9
$CELTYPE
  6
BYLAYER
  9
$CECOLOR
 62
   256
  9
$DIMSCALE
 40
1.0
  9
$DIMASZ
 40
0.1875
  9
$DIMEXO
 40
0.0625
  9
$DIMDLI
 40
0.4443307087
  9
$DIMRND
 40
0.0
  9
$DIMDLE
 40
0.0
  9
$DIMEXE
 40
0.125
  9
$DIMTP
 40
0.01
  9
$DIMTM
 40
0.01
  9
$DIMTXT
 40
2.0
  9
$DIMCEN
 40
0.1052362205
  9
$DIMTSZ
 40
0.0
  9
$DIMTOL
 70
     1
  9
$DIMLIM
 70
     0
  9
$DIMTIH
 70
     1
  9
$DIMTOH
 70
     1
  9
$DIMSE1
 70
     0
  9
$DIMSE2
 70
     0
  9
$DIMTAD
 70
     0
  9
$DIMZIN
 70
     0
  9
$DIMBLK
  1

  9
$DIMASO
 70
     1
  9
$DIMSHO
 70
     1
  9
$DIMPOST
  1
\X
  9
$DIMAPOST
  1

  9
$DIMALT
 70
     1
  9
$DIMALTD
 70
     2
  9
$DIMALTF
 40
25.3999999999999986
  9
$DIMLFAC
 40
1.0
  9
$DIMTOFL
 70
     0
  9
$DIMTVP
 40
0.0
  9
$DIMTIX
 70
     0
  9
$DIMSOXD
 70
     0
  9
$DIMSAH
 70
     0
  9
$DIMBLK1
  1

  9
$DIMBLK2
  1

  9
$DIMSTYLE
  2
STANDARD
  9
$DIMCLRD
 70
     0
  9
$DIMCLRE
 70
     0
  9
$DIMCLRT
 70
     0
  9
$DIMTFAC
 40
1.0
  9
$DIMGAP
 40
0.09
  9
$LUNITS
 70
     2
  9
$LUPREC
 70
     4
  9
$SKETCHINC
 40
0.1
  9
$FILLETRAD
 40
0.0
  9
$AUNITS
 70
     0
  9
$AUPREC
 70
     0
  9
$MENU
  1
.
  9
$ELEVATION
 40
0.0
  9
$PELEVATION
 40
0.0
  9
$THICKNESS
 40
0.0
  9
$LIMCHECK
 70
     0
  9
$BLIPMODE
 70
     0
  9
$CHAMFERA
 40
0.0
  9
$CHAMFERB
 40
0.0
  9
$SKPOLY
 70
     0
  9
$TDCREATE
 40
2458060.468368056230247
  9
$TDUPDATE
 40
2460111.5193287041038275
  9
$TDINDWG
 40
0.6651806713
  9
$TDUSRTIMER
 40
0.6651806713
  9
$USRTIMER
 70
     1
  9
$ANGBASE
 50
0.0
  9
$ANGDIR
 70
     0
  9
$PDMODE
 70
     0
  9
$PDSIZE
 40
0.3125
  9
$PLINEWID
 40
0.0
  9
$COORDS
 70
     1
  9
$SPLFRAME
 70
     0
  9
$SPLINETYPE
 70
     6
  9
$SPLINESEGS
 70
     8
  9
$ATTDIA
 70
     1
  9
$ATTREQ
 70
     1
  9
$HANDLING
 70
     1
  9
$HANDSEED
  5
18DE3
  9
$SURFTAB1
 70
     6
  9
$SURFTAB2
 70
     6
  9
$SURFTYPE
 70
     6
  9
$SURFU
 70
     6
  9
$SURFV
 70
     6
  9
$UCSNAME
  2

  9
$UCSORG
 10
0.0
 20
0.0
 30
0.0
  9
$UCSXDIR
 10
1.0
 20
0.0
 30
0.0
  9
$UCSYDIR
 10
0.0
 20
1.0
 30
0.0
  9
$PUCSNAME
  2

  9
$PUCSORG
 10
0.0
 20
0.0
 30
0.0
  9
$PUCSXDIR
 10
1.0
 20
0.0
 30
0.0
  9
$PUCSYDIR
 10
0.0
 20
1.0
 30
0.0
  9
$USERI1
 70
     0
  9
$USERI2
 70
     0
  9
$USERI3
 70
     0
  9
$USERI4
 70
     0
  9
$USERI5
 70
     0
  9
$USERR1
 40
0.0
  9
$USERR2
 40
0.0
  9
$USERR3
 40
0.0
  9
$USERR4
 40
0.0
  9
$USERR5
 40
0.0
  9
$WORLDVIEW
 70
     1
  9
$SHADEDGE
 70
     3
  9
$SHADEDIF
 70
    70
  9
$TILEMODE
 70
     1
  9
$MAXACTVP
 70
    64
  9
$PLIMCHECK
 70
     0
  9
$PEXTMIN
 10
1.0000000000000000E+20
 20
1.0000000000000000E+20
 30
1.0000000000000000E+20
  9
$PEXTMAX
 10
-1.0000000000000000E+20
 20
-1.0000000000000000E+20
 30
-1.0000000000000000E+20
  9
$PLIMMIN
 10
0.0
 20
0.0
  9
$PLIMMAX
 10
12.0
 20
9.0
  9
$UNITMODE
 70
     0
  9
$VISRETAIN
 70
     1
  9
$PLINEGEN
 70
     0
  9
$PSLTSCALE
 70
     1
  0
ENDSEC
  0
SECTION
  2
TABLES
  0
TABLE
  2
VPORT
 70
     1
  0
VPORT
  2
*ACTIVE
 70
     0
 10
0.0
 20
0.0
 11
1.0
 21
1.0
 12
1434.3497329271040144
 22
350.2312340227720142
 13
0.0
 23
0.0
 14
1.0
 24
1.0
 15
0.0
 25
0.0
 16
0.0
 26
0.0
 36
17.1152628219792007
 17
3803.5440673828129547
 27
125.9952621967499056
 37
0.0
 40
5.5640583631832508
 41
2.5251322751322749
 42
50.0
 43
0.0
 44
0.0
 50
0.0
 51
0.0
 71
     0
 72
   100
 73
     1
 74
     1
 75
     0
 76
     0
 77
     0
 78
     0
  0
ENDTAB
  0
TABLE
  2
LTYPE
 70
     2
  0
LTYPE
  2
CONTINUOUS
 70
     0
  3
Solid line
 72
    65
 73
     0
 40
0.0
  0
LTYPE
  2
PHANTOM2
 70
     0
  3
___ _ _ ___ _ _ ___ _ _ ___ _ _
 72
    65
 73
     6
 40
1.25
 49
0.625
 49
-0.125
 49
0.125
 49
-0.125
 49
0.125
 49
-0.125
  0
ENDTAB
  0
TABLE
  2
LAYER
 70
     2
  0
LAYER
  2
0
 70
     0
 62
   255
  6
CONTINUOUS
  0
LAYER
  2
DEFPOINTS
 70
     0
 62
     7
  6
CONTINUOUS
  0
ENDTAB
  0
TABLE
  2
STYLE
 70
     1
  0
STYLE
  2
STANDARD
 70
     0
 40
0.0
 41
0.8
 50
0.0
 71
     0
 42
0.2
  3
txt
  4

  0
ENDTAB
  0
TABLE
  2
VIEW
 70
     0
  0
ENDTAB
  0
TABLE
  2
UCS
 70
     0
  0
ENDTAB
  0
TABLE
  2
APPID
 70
    10
  0
APPID
  2
ACAD
 70
     0
  0
APPID
  2
ACAD_MLEADERVER
 70
     0
  0
APPID
  2
ACAD_EXEMPT_FROM_CAD_STANDARDS
 70
     0
  0
APPID
  2
ACAD_NAV_VCDISPLAY
 70
     0
  0
APPID
  2
ACAECLAYERSTANDARD
 70
     0
  0
APPID
  2
ACCMTRANSPARENCY
 70
     0
  0
APPID
  2
ACAD_DSTYLE_DIMJAG
 70
     0
  0
APPID
  2
ACAD_DSTYLE_DIMTALN
 70
     0
  0
APPID
  2
ACDBATTR
 70
     0
  0
APPID
  2
ACADANNOTATIVE
 70
     0
  0
ENDTAB
  0
TABLE
  2
DIMSTYLE
 70
     2
  0
DIMSTYLE
  2
STANDARD
 70
     0
  3

  4

  5

  6

  7

 40
1.0
 41
0.1875
 42
0.0625
 43
0.38
 44
0.125
 45
0.0
 46
0.0
 47
0.01
 48
0.01
140
0.15625
141
0.09
142
0.0
143
25.3999999999999986
144
1.0
145
0.0
146
1.0
147
0.09
 71
     1
 72
     0
 73
     1
 74
     1
 75
     0
 76
     0
 77
     0
 78
     4
170
     0
171
     2
172
     0
173
     0
174
     0
175
     0
176
     0
177
     0
178
     0
  0
DIMSTYLE
  2
ANNOTATIVE
 70
     0
  3

  4

  5

  6

  7

 40
0.0
 41
0.18
 42
0.0625
 43
0.38
 44
0.18
 45
0.0
 46
0.0
 47
0.0
 48
0.0
140
0.18
141
0.09
142
0.0
143
25.3999999999999986
144
1.0
145
0.0
146
1.0
147
0.09
 71
     0
 72
     0
 73
     1
 74
     1
 75
     0
 76
     0
 77
     0
 78
     0
170
     0
171
     2
172
     0
173
     0
174
     0
175
     0
176
     0
177
     0
178
     0
  0
ENDTAB
  0
ENDSEC
  0
SECTION
  2
BLOCKS
  0
BLOCK
  8
0
  2
$MODEL_SPACE
 70
     0
 10
0.0
 20
0.0
 30
0.0
  3
$MODEL_SPACE
  1

  0
ENDBLK
  5
21
  8
0
  0
BLOCK
 67
     1
  8
0
  2
$PAPER_SPACE
 70
     0
 10
0.0
 20
0.0
 30
0.0
  3
$PAPER_SPACE
  1

  0
ENDBLK
  5
1D
 67
     1
  8
0
  0
BLOCK
  8
0
  2
_FILLED
 70
     0
 10
0.0
 20
0.0
 30
0.0
  3
_FILLED
  1

  0
SOLID
  5
13053
  8
0
  6
BYBLOCK
 62
     0
 10
0.0
 20
0.0
 30
0.0
 11
-1.0
 21
0.1666666667
 31
0.0
 12
-1.0
 22
-0.1666666667
 32
0.0
 13
-1.0
 23
-0.1666666667
 33
0.0
  0
ENDBLK
  5
13054
  8
0
  6
BYBLOCK
 62
     0
  0
ENDSEC
  0
SECTION
  2
ENTITIES
  0
ATTDEF
  5
3930
  8
DEFPOINTS
 10
5238.0618689734947111
 20
474.711381517699806
 30
0.0
 40
0.001
  1
P40875-BL
  3

  2
MODELNUMBER
 70
     0
1001
ACDBATTR
1070
     0
1070
     1
  0
ATTDEF
  5
3931
  8
DEFPOINTS
 10
5238.0618689734947111
 20
474.709714851033084
 30
0.0
 40
0.001
  1
ONE
  3

  2
TRADENAME
 70
     0
1001
ACDBATTR
1070
     0
1070
     1
  0
ATTDEF
  5
3932
  8
DEFPOINTS
 10
5238.0618689734947111
 20
474.7080481843664188
 30
0.0
 40
0.001
  1
BATHROOM SINK FAUCET
  3

  2
PRODUCT
 70
     0
1001
ACDBATTR
1070
     0
1070
     1
  0
ARC
  5
18B08
  8
0
 10
5242.6351711034449181
 20
477.5898927704691914
 30
0.0
 40
0.0140434657584074
 50
4.4685117017865243
 51
86.4917517488358243
  0
ARC
  5
18B09
  8
0
 10
5242.6502060130296741
 20
476.6156042362208041
 30
0.0
 40
0.1850311280106319
 50
94.3305050882525791
 51
179.8748126379400958
  0
ARC
  5
18B0A
  8
0
 10
5242.6334871538811058
 20
476.8155534701504052
 30
0.0
 40
0.0156887596928109
 50
280.0849411795866786
 51
358.7009468704910091
  0
LINE
  5
18B0B
  8
0
 10
5242.6491718813131229
 20
476.8095675493976273
 30
0.0
 11
5242.6491718813131229
 21
477.593133758259512
 31
0.0
  0
LINE
  5
18B0C
  8
0
 10
5244.849171881312941
 20
476.8108421422595029
 30
0.0
 11
5244.849171881312941
 21
477.593133758259512
 31
0.0
  0
ARC
  5
18B0D
  8
0
 10
5244.8377155443431548
 20
477.5925305237352063
 30
0.0
 40
0.0114722076626978
 50
3.014131214738033
 51
82.7069212616903258
  0
ARC
  5
18B0E
  8
0
 10
5244.8378035108917175
 20
476.8114069554645766
 30
0.0
 40
0.0113823925427832
 50
276.9046940461699933
 51
357.15572028384139
  0
LINE
  5
18B0F
  8
0
 10
5242.6591753266811793
 20
477.6039099187668739
 30
0.0
 11
5244.8391718813127227
 21
477.6039099187668739
 31
0.0
  0
ARC
  5
18B10
  8
0
 10
5242.6590440795207542
 20
477.5940006052051103
 30
0.0
 40
0.0099101826968066
 50
89.2411715877221923
 51
185.018093592089599
  0
LINE
  5
18B11
  8
0
 10
5242.6591787573142938
 20
476.8001071137668987
 30
0.0
 11
5244.8391718813118132
 21
476.8001071137668987
 31
0.0
  0
ARC
  5
18B12
  8
0
 10
5242.6592964618030237
 20
476.8102542742975061
 30
0.0
 40
0.010147843178771
 50
183.880285789959288
 51
269.3354132982320834
  0
ARC
  5
18B13
  8
0
 10
5243.064831846614652
 20
473.438158738789582
 30
0.0
 40
4.1683688655337319
 50
92.0306544498767209
 51
95.5982593769183353
  0
ARC
  5
18B14
  8
0
 10
5242.6591718813133411
 20
477.576693698698989
 30
0.0
 40
0.01
 50
95.5982593769183353
 51
180.0
  0
ARC
  5
18B15
  8
0
 10
5243.0877100841125866
 20
474.4333809080591209
 30
0.0
 40
3.1707428044003829
 50
90.6653604879157626
 51
97.7922456770162682
  0
ARC
  5
18B16
  8
0
 10
5242.6591718813133411
 20
477.5649380421874071
 30
0.0
 40
0.01
 50
97.7922456770162682
 51
180.0000000000065086
  0
ARC
  5
18B17
  8
0
 10
5243.3757526308691013
 20
473.654815515202813
 30
0.0
 40
3.9530035386008469
 50
92.5482976938994852
 51
100.4708202269401056
  0
ARC
  5
18B18
  8
0
 10
5242.6591718813133411
 20
477.5321585403663107
 30
0.0
 40
0.01
 50
100.4708202269401056
 51
180.0
  0
ARC
  5
18B19
  8
0
 10
5243.5024654640610606
 20
473.7973192746483164
 30
0.0
 40
3.8075709298349518
 50
91.3001674359148154
 51
102.7617792333158064
  0
ARC
  5
18B1A
  8
0
 10
5242.6591718813133411
 20
477.5205844730481886
 30
0.0
 40
0.01
 50
180.0
 51
282.7617792333159059
  0
ARC
  5
18B1B
  8
0
 10
5243.7147826645013993
 20
473.5039302302645865
 30
0.0
 40
4.1067513191855509
 50
95.2081692286253229
 51
104.9318655894605996
  0
ARC
  5
18B1C
  8
0
 10
5243.3564272265193722
 20
477.435383124322982
 30
0.0
 40
0.159
 50
91.5357416139068789
 51
95.2081692286253229
  0
ARC
  5
18B1D
  8
0
 10
5242.6591718813133411
 20
477.4623462323625063
 30
0.0
 40
0.01
 50
104.9318655894605996
 51
180.0
  0
ARC
  5
18B1E
  8
0
 10
5243.8384395713201229
 20
473.5520116274722113
 30
0.0
 40
4.0549277323491726
 50
97.1312224433939662
 51
106.864416564871803
  0
ARC
  5
18B1F
  8
0
 10
5242.6591718813133411
 20
477.4421228321198214
 30
0.0
 40
0.01
 50
180.0000000000065086
 51
286.864416564871874
  0
ARC
  5
18B20
  8
0
 10
5243.3547904762299368
 20
477.4178021609213829
 30
0.0
 40
0.159
 50
92.0549024436822947
 51
97.1312224433939662
  0
ARC
  5
18B21
  8
0
 10
5244.9342723830131945
 20
468.8542439857142767
 30
0.0
 40
8.8459171538472212
 50
100.3706274332845965
 51
104.8863012879476031
  0
ARC
  5
18B22
  8
0
 10
5242.6591718813133411
 20
477.4129346766417825
 30
0.0
 40
0.01
 50
180.0
 51
284.8863012879467078
  0
ARC
  5
18B23
  8
0
 10
5243.3704978984324043
 20
477.3992506562311178
 30
0.0
 40
0.159
 50
92.8459910762739327
 51
100.3706274332845965
  0
ARC
  5
18B24
  8
0
 10
5244.9724556731353005
 20
469.1564329691541957
 30
0.0
 40
8.5560996296121097
 50
101.0282101866370965
 51
105.7049127069873009
  0
ARC
  5
18B25
  8
0
 10
5242.6591718813133411
 20
477.383494229273083
 30
0.0
 40
0.01
 50
105.7049127069864056
 51
180.0
  0
ARC
  5
18B26
  8
0
 10
5244.6020141892022366
 20
471.705208344557775
 30
0.0
 40
5.967062777008648
 50
102.3292077646252949
 51
108.9685845068868986
  0
ARC
  5
18B27
  8
0
 10
5242.6591718813133411
 20
477.3576983451659999
 30
0.0
 40
0.01
 50
179.9999999999934914
 51
288.968584506885918
  0
ARC
  5
18B28
  8
0
 10
5243.3618276705319659
 20
477.3793189022206889
 30
0.0
 40
0.159
 50
93.6938053804058484
 51
102.3292077646252949
  0
ARC
  5
18B29
  8
0
 10
5244.7640961869483363
 20
470.7971476172480152
 30
0.0
 40
6.8467532956804718
 50
102.0552299889560004
 51
107.8776603929204043
  0
ARC
  5
18B2A
  8
0
 10
5242.6591718813142506
 20
477.322816887550573
 30
0.0
 40
0.01
 50
180.0
 51
287.8776603929204043
  0
ARC
  5
18B2B
  8
0
 10
5243.3673289853477399
 20
477.3374140895271012
 30
0.0
 40
0.159
 50
94.4416899851487841
 51
102.0552299889560004
  0
ARC
  5
18B2C
  8
0
 10
5245.0989953831085586
 20
469.6600977284437022
 30
0.0
 40
8.0237909624013817
 50
102.5988934987881009
 51
107.725264130863394
  0
ARC
  5
18B2D
  8
0
 10
5242.6591718813142506
 20
477.2934526179499812
 30
0.0
 40
0.01
 50
107.725264130864403
 51
180.0
  0
ARC
  5
18B2E
  8
0
 10
5243.3834926176323279
 20
477.3355121891690942
 30
0.0
 40
0.159
 50
94.6026854447587766
 51
102.5988934987881009
  0
ARC
  5
18B2F
  8
0
 10
5246.0939283257293937
 20
467.9629285559717005
 30
0.0
 40
9.8930638976236196
 50
106.2534553803681945
 51
110.2940195650196955
  0
ARC
  5
18B30
  8
0
 10
5242.6591718813142506
 20
477.2512611688771926
 30
0.0
 40
0.01
 50
180.0
 51
290.2940195650207897
  0
ARC
  5
18B31
  8
0
 10
5243.3694912403789203
 20
477.3079508957521284
 30
0.0
 40
0.159
 50
95.0946394567312865
 51
106.2534553803681945
  0
ARC
  5
18B32
  8
0
 10
5247.1459587470690167
 20
463.7581542643508214
 30
0.0
 40
14.1770274071043705
 50
105.6023093353416016
 51
108.4368852963150971
  0
ARC
  5
18B33
  8
0
 10
5242.6591718813142506
 20
477.2169985784519213
 30
0.0
 40
0.01
 50
180.0
 51
288.4368852963150971
  0
ARC
  5
18B34
  8
0
 10
5243.3756891440361869
 20
477.2596415715617013
 30
0.0
 40
0.159
 50
95.287903521316963
 51
105.6023093353416016
  0
ARC
  5
18B35
  8
0
 10
5253.0801319905431228
 20
448.9784201328872086
 30
0.0
 40
30.018831961528349
 50
108.9674366637816973
 51
110.3058748543375032
  0
ARC
  5
18B36
  8
0
 10
5242.6591718813142506
 20
477.1410609780838854
 30
0.0
 40
0.01
 50
180.0
 51
290.3058748543409138
  0
ARC
  5
18B37
  8
0
 10
5243.374769060991639
 20
477.2169663981683243
 30
0.0
 40
0.159
 50
96.0192407815147959
 51
108.9674366637816973
  0
ARC
  5
18B38
  8
0
 10
5236.9367961741900217
 20
495.3513022291351149
 30
0.0
 40
19.1270756228693095
 50
287.4175588811276043
 51
289.520219402802411
  0
ARC
  5
18B39
  8
0
 10
5242.6591718813142506
 20
477.1107705308256186
 30
0.0
 40
0.01
 50
180.0000000000065086
 51
287.4175588811841067
  0
ARC
  5
18B3A
  8
0
 10
5243.3810356865269569
 20
477.1737201556395007
 30
0.0
 40
0.159
 50
95.5041719608280175
 51
109.5202194028022973
  0
ARC
  5
18B3B
  8
0
 10
5236.2507977899176694
 20
497.4168271487092738
 30
0.0
 40
21.3107690359777493
 50
287.491815203989006
 51
289.4029760005655021
  0
ARC
  5
18B3C
  8
0
 10
5242.6591718813142506
 20
477.0819326618856735
 30
0.0
 40
0.01
 50
107.4918152039333989
 51
180.0
  0
ARC
  5
18B3D
  8
0
 10
5243.3832724101230269
 20
477.1664249736816146
 30
0.0
 40
0.159
 50
95.2981360848609
 51
109.4029760005655021
  0
ARC
  5
18B3E
  8
0
 10
5228.6604714367786073
 20
517.6565573465696843
 30
0.0
 40
42.9432698669328303
 50
289.0296355753894773
 51
289.987666438946917
  0
ARC
  5
18B3F
  8
0
 10
5242.6591718813142506
 20
477.0695884115646095
 30
0.0
 40
0.01
 50
180.0000000000065086
 51
289.0296355753906141
  0
ARC
  5
18B40
  8
0
 10
5243.3935969112617386
 20
477.1505000040560276
 30
0.0
 40
0.159
 50
96.398397071207782
 51
109.987666438947997
  0
ARC
  5
18B41
  8
0
 10
5222.0396536098205615
 20
536.2401987312587153
 30
0.0
 40
62.7005761691371717
 50
289.2025924089533078
 51
289.8433461614097837
  0
ARC
  5
18B42
  8
0
 10
5242.6591718813142506
 20
477.0376328521516029
 30
0.0
 40
0.01
 50
180.0
 51
289.2025924089576279
  0
ARC
  5
18B43
  8
0
 10
5243.3773135334331528
 20
477.1129580959317877
 30
0.0
 40
0.159
 50
96.6766670882380481
 51
109.8433461614097979
  0
ARC
  5
18B44
  8
0
 10
5259.5699293969719292
 20
426.08296905204719
 30
0.0
 40
53.6618326553195217
 50
107.6128309130643004
 51
108.3654594606137067
  0
ARC
  5
18B45
  8
0
 10
5242.6591718813142506
 20
477.0210873999722025
 30
0.0
 40
0.01
 50
179.9999999999934914
 51
288.3654594605620787
  0
ARC
  5
18B46
  8
0
 10
5243.380863470379154
 20
477.0777457116972187
 30
0.0
 40
0.159
 50
96.0085733303604769
 51
107.6128309130643004
  0
ARC
  5
18B47
  8
0
 10
5278.801383751281719
 20
366.7919325434162943
 30
0.0
 40
115.985095395021105
 50
107.8053132742521996
 51
108.1579535835712989
  0
ARC
  5
18B48
  8
0
 10
5242.6591718813133411
 20
476.9915844168702961
 30
0.0
 40
0.01
 50
108.1579535835187045
 51
179.9999999999934914
  0
ARC
  5
18B49
  8
0
 10
5243.3836634966100974
 20
477.0700784582725191
 30
0.0
 40
0.159
 50
96.0477262123769151
 51
107.8053132742512048
  0
ARC
  5
18B4A
  8
0
 10
5240.1122231772151281
 20
485.6750529497325033
 30
0.0
 40
9.0770045164868343
 50
286.3141055218736142
 51
290.819864645690302
  0
ARC
  5
18B4B
  8
0
 10
5242.6591718813142506
 20
476.9731207964297255
 30
0.0
 40
0.01
 50
180.0
 51
286.3141055218745237
  0
ARC
  5
18B4C
  8
0
 10
5243.3949859452313831
 20
477.0421364067855734
 30
0.0
 40
0.159
 50
96.6778540641028314
 51
110.819864645690302
  0
ARC
  5
18B4D
  8
0
 10
5240.2601170572706906
 20
485.4003309065905114
 30
0.0
 40
8.7978399206131517
 50
285.8426899638192822
 51
290.3697787850913983
  0
ARC
  5
18B4E
  8
0
 10
5242.6591718813142506
 20
476.9462983527399729
 30
0.0
 40
0.01
 50
180.0
 51
285.8426899638220107
  0
ARC
  5
18B4F
  8
0
 10
5243.3777925829217565
 20
477.0036005500620035
 30
0.0
 40
0.159
 50
96.6956766872595637
 51
110.3697787850912988
  0
ARC
  5
18B50
  8
0
 10
5237.9504269297876817
 20
494.134918130267522
 30
0.0
 40
17.8355636792113792
 50
285.3168593836688274
 51
287.5609676649153812
  0
ARC
  5
18B51
  8
0
 10
5242.6591718813133411
 20
476.942523257443213
 30
0.0
 40
0.01
 50
179.9999999999934914
 51
285.3168593837215781
  0
ARC
  5
18B52
  8
0
 10
5243.3797550756271448
 20
476.9789652890523826
 30
0.0
 40
0.159
 50
94.7480757602207149
 51
107.5609676649153954
  0
ARC
  5
18B53
  8
0
 10
5241.3395001559047159
 20
483.2136976647959727
 30
0.0
 40
6.4091390104364683
 50
283.540797280340314
 51
288.1252551156014192
  0
ARC
  5
18B54
  8
0
 10
5243.3828178075791584
 20
476.971478265032772
 30
0.0
 40
0.159
 50
94.8464554961720552
 51
108.125255115601405
  0
ARC
  5
18B55
  8
0
 10
5278.1071429276316849
 20
358.3881279566173816
 30
0.0
 40
123.6828455334745058
 50
106.3224500728523054
 51
106.6533523925672995
  0
ARC
  5
18B56
  8
0
 10
5242.6591718813142506
 20
476.8928172514604853
 30
0.0
 40
0.01
 50
180.0
 51
286.6533523926191265
  0
ARC
  5
18B57
  8
0
 10
5243.3916597545903642
 20
476.9333751976598137
 30
0.0
 40
0.159
 50
96.4260791469915972
 51
106.3224500728523054
  0
ARC
  5
18B58
  8
0
 10
5241.4961259447527482
 20
482.3906006953715178
 30
0.0
 40
5.6471920648368457
 50
281.9065786443164825
 51
288.8835178679191813
  0
ARC
  5
18B59
  8
0
 10
5242.6591718813133411
 20
476.8746911125999191
 30
0.0
 40
0.01
 50
180.0
 51
281.9065786443172783
  0
ARC
  5
18B5A
  8
0
 10
5243.3752724086343733
 20
476.896906595673272
 30
0.0
 40
0.159
 50
96.2079009337484337
 51
108.883517867919096
  0
ARC
  5
18B5B
  8
0
 10
5240.4058973768360374
 20
487.3748481407828876
 30
0.0
 40
10.7507665560798795
 50
282.1098773492511214
 51
285.8209192496996138
  0
ARC
  5
18B5C
  8
0
 10
5242.6591718813133411
 20
476.8730949433552837
 30
0.0
 40
0.01
 50
180.0
 51
282.109877349302792
  0
ARC
  5
18B5D
  8
0
 10
5243.3802438786669882
 20
476.8783597186863972
 30
0.0
 40
0.159
 50
95.8100273906427446
 51
105.8209192496988038
  0
ARC
  5
18B5E
  8
0
 10
5242.0736874998574422
 20
480.9859245463541129
 30
0.0
 40
4.1973822072029581
 50
278.0374941438515748
 51
287.5786385953114745
  0
ARC
  5
18B5F
  8
0
 10
5242.6591718813133411
 20
476.8396759059237979
 30
0.0
 40
0.01
 50
180.0
 51
278.0374941439035865
  0
ARC
  5
18B60
  8
0
 10
5243.3893780707758197
 20
476.832970867726317
 30
0.0
 40
0.159
 50
95.7501644622248165
 51
107.578638595311503
  0
ARC
  5
18B61
  8
0
 10
5242.289230224881976
 20
480.3480791824417793
 30
0.0
 40
3.5493324971781481
 50
275.9996853485877182
 51
286.9575563408112089
  0
ARC
  5
18B62
  8
0
 10
5242.6591718813133411
 20
476.8281334873465767
 30
0.0
 40
0.01
 50
180.0
 51
275.9996853485877182
  0
ARC
  5
18B63
  8
0
 10
5243.3708143906924306
 20
476.8009809878748797
 30
0.0
 40
0.159
 50
95.362955783805134
 51
106.9575563408111947
  0
ARC
  5
18B64
  8
0
 10
5242.5055850638564152
 20
480.2682131017713232
 30
0.0
 40
3.468997137456999
 50
272.4344629060116176
 51
283.9940657801453767
  0
ARC
  5
18B65
  8
0
 10
5243.3829124077446977
 20
476.7478920992116969
 30
0.0
 40
0.159
 50
94.6390421542414231
 51
103.9940657801454051
  0
ARC
  5
18B66
  8
0
 10
5242.6362191665220962
 20
479.9290554107070079
 30
0.0
 40
3.1285396861402979
 50
270.3665417632950039
 51
282.7754649348681824
  0
ARC
  5
18B67
  8
0
 10
5243.3631957798388612
 20
476.7229016103353274
 30
0.0
 40
0.159
 50
94.1507183244838757
 51
102.7754649348681966
  0
ARC
  5
18B68
  8
0
 10
5242.8239180577102161
 20
480.0700695620932947
 30
0.0
 40
3.2707036075596871
 50
271.2197785681340179
 51
279.230119749953019
  0
ARC
  5
18B69
  8
0
 10
5243.3740428321079889
 20
476.6847734792813753
 30
0.0
 40
0.159
 50
94.0051161046306305
 51
99.2301197499529337
  0
ARC
  5
18B6A
  8
0
 10
5255.903079857755074
 20
440.1438941255260033
 30
0.0
 40
39.3188179299133225
 50
108.634608953124598
 51
109.6893051693792955
  0
ARC
  5
18B6B
  8
0
 10
5242.6591718813142506
 20
477.1544611106268121
 30
0.0
 40
0.01
 50
109.6893051693814982
 51
180.0
  0
ARC
  5
18B6C
  8
0
 10
5243.3902750464585552
 20
477.2507810342708012
 30
0.0
 40
0.159
 50
95.6423262214221239
 51
108.634608953124598
  0
ARC
  5
18B6D
  8
0
 10
5242.9298168461664318
 20
479.8899583200654888
 30
0.0
 40
3.089929067325043
 50
270.4067469917112021
 51
277.3775945714882027
  0
ARC
  5
18B6E
  8
0
 10
5243.3470046645315961
 20
476.6679256683507901
 30
0.0
 40
0.159
 50
92.3245280013652376
 51
97.377594571488217
  0
ARC
  5
18B6F
  8
0
 10
5243.1413071653423685
 20
479.8765961217217182
 30
0.0
 40
3.076628109099012
 50
270.5448376562205794
 51
273.9601631442661187
  0
ARC
  5
18B70
  8
0
 10
5243.3647689169047226
 20
476.6486936904236131
 30
0.0
 40
0.159
 50
91.3253863778863888
 51
93.9601631442660761
  0
ARC
  5
18B71
  8
0
 10
5244.0206939639547272
 20
452.6587115794708893
 30
0.0
 40
24.9445744968710912
 50
89.1315701415162209
 51
91.5357416139068789
  0
ARC
  5
18B72
  8
0
 10
5244.7106665407645778
 20
439.6288235848516024
 30
0.0
 40
37.972295303702829
 50
90.5076827918924067
 51
92.0549024436822947
  0
ARC
  5
18B73
  8
0
 10
5246.2859103123655586
 20
418.7541530829738008
 30
0.0
 40
58.8765195228833207
 50
91.7276186206080837
 51
92.8459910762739327
  0
ARC
  5
18B74
  8
0
 10
5245.390867374498157
 20
445.9498600351381015
 30
0.0
 40
31.6538866770130909
 50
90.9989741538783363
 51
93.6938053804058484
  0
ARC
  5
18B75
  8
0
 10
5244.8391718813127227
 20
477.5889370777834984
 30
0.0
 40
0.01
 50
0.0
 51
90.9989741538783363
  0
ARC
  5
18B76
  8
0
 10
5246.2842645068112688
 20
439.7856791688280964
 30
0.0
 40
37.8238550825676825
 50
92.1901463181648353
 51
94.4416899851487841
  0
ARC
  5
18B77
  8
0
 10
5244.8391718813127227
 20
477.5719113640226965
 30
0.0
 40
0.01
 50
0.0
 51
92.1901463181127667
  0
ARC
  5
18B78
  8
0
 10
5246.1921425070477198
 20
442.447732400167979
 30
0.0
 40
35.1596527483010703
 50
92.205958115754882
 51
94.6026854447587766
  0
ARC
  5
18B79
  8
0
 10
5244.8391718813127227
 20
477.5713364124563896
 30
0.0
 40
0.01
 50
0.0
 51
92.205958115754882
  0
ARC
  5
18B7A
  8
0
 10
5246.4827953498115676
 20
442.3871633028521728
 30
0.0
 40
35.2182936121970585
 50
92.6757027019400539
 51
95.0946394567312865
  0
ARC
  5
18B7B
  8
0
 10
5244.8391718813127227
 20
477.5570714769784786
 30
0.0
 40
0.01
 50
0.0
 51
92.6757027019400539
  0
ARC
  5
18B7C
  8
0
 10
5247.6961374071579485
 20
430.5794746680834919
 30
0.0
 40
47.0386784900547497
 50
93.4828305571428757
 51
95.287903521316963
  0
ARC
  5
18B7D
  8
0
 10
5244.8391718813127227
 20
477.5212934281727826
 30
0.0
 40
0.01
 50
0.0000000000065138
 51
93.4828305571950864
  0
ARC
  5
18B7E
  8
0
 10
5248.6523053563787471
 20
423.9896105126895236
 30
0.0
 40
53.6794750381709491
 50
94.0627485070924365
 51
95.6423262214221239
  0
ARC
  5
18B7F
  8
0
 10
5248.6118301781580158
 20
427.5501058568490862
 30
0.0
 40
50.1012050491942773
 50
94.3193666188862636
 51
96.0192407815147959
  0
ARC
  5
18B80
  8
0
 10
5244.8391718813127227
 20
477.4990385046613142
 30
0.0
 40
0.01
 50
0.0
 51
94.3193666188865052
  0
ARC
  5
18B81
  8
0
 10
5251.2264688798240968
 20
395.7579196375619972
 30
0.0
 40
81.9519299878043626
 50
94.4706877389886159
 51
95.5041719608280175
  0
ARC
  5
18B82
  8
0
 10
5244.8391718813127227
 20
477.4505284046900897
 30
0.0
 40
0.01
 50
0.0
 51
94.4706877390930231
  0
ARC
  5
18B83
  8
0
 10
3611.9651799225048308
 20
18069.5417998309094401
 30
0.0
 40
17667.698717402490729
 50
275.2981360878965233
 51
275.3029286265320934
  0
ARC
  5
18B84
  8
0
 10
5244.8391718813127227
 20
477.4712241023098045
 30
0.0
 40
0.01
 50
275.3029286568337284
 51
0.0
  0
ARC
  5
18B85
  8
0
 10
5250.878513495327752
 20
410.40410835308478
 30
0.0
 40
67.3237584280272046
 50
95.1474574073657493
 51
96.398397071207782
  0
ARC
  5
18B86
  8
0
 10
5244.8391718813127227
 20
477.4463966983972796
 30
0.0
 40
0.01
 50
0.0
 51
95.1474574073660335
  0
ARC
  5
18B87
  8
0
 10
5250.7018553834050181
 20
414.5422121941206797
 30
0.0
 40
63.1569932697939507
 50
95.327117726809206
 51
96.676667088289804
  0
ARC
  5
18B88
  8
0
 10
5244.8391718813127227
 20
477.4164652804968796
 30
0.0
 40
0.01
 50
359.9999999999935199
 51
95.3271177267048415
  0
ARC
  5
18B89
  8
0
 10
5253.4678597368047122
 20
381.2443306652099864
 30
0.0
 40
96.5218088691440244
 50
95.129407665373023
 51
96.0085733303608038
  0
ARC
  5
18B8A
  8
0
 10
5244.8391718813127227
 20
477.3696394922126842
 30
0.0
 40
0.01
 50
0.0
 51
95.1294076654776859
  0
ARC
  5
18B8B
  8
0
 10
5253.5061106345183362
 20
381.5270634723966054
 30
0.0
 40
96.2367375287899307
 50
95.1675124898797264
 51
96.0477262123769151
  0
ARC
  5
18B8C
  8
0
 10
5244.8391718813127227
 20
477.3626997883454237
 30
0.0
 40
0.01
 50
0.0
 51
95.1675124897753335
  0
ARC
  5
18B8D
  8
0
 10
5258.374310562602659
 20
349.1024757194898029
 30
0.0
 40
128.972574373095398
 50
96.0245166013468037
 51
96.6778540641028314
  0
ARC
  5
18B8E
  8
0
 10
5244.8391718813127227
 20
477.3527997339513718
 30
0.0
 40
0.01
 50
0.0
 51
96.0245166013468037
  0
ARC
  5
18B8F
  8
0
 10
5261.8614211165386223
 20
319.5574434117978058
 30
0.0
 40
158.6864011689328038
 50
96.1575623735298137
 51
96.6956766872599616
  0
ARC
  5
18B90
  8
0
 10
5244.8391718813127227
 20
477.3382748677914265
 30
0.0
 40
0.01
 50
276.1575623737392107
 51
0.0
  0
ARC
  5
18B91
  8
0
 10
5240.1474625731825654
 20
515.8942219000755358
 30
0.0
 40
38.8902626296980003
 50
274.7480757602206722
 51
276.9272324930885247
  0
ARC
  5
18B92
  8
0
 10
5244.8391718813127227
 20
477.2779261633336887
 30
0.0
 40
0.01
 50
0.0
 51
96.927232492983137
  0
ARC
  5
18B93
  8
0
 10
5239.7766896497550988
 20
519.5021312574801868
 30
0.0
 40
42.5242590631809279
 50
274.8464554961719841
 51
276.8356216171605979
  0
ARC
  5
18B94
  8
0
 10
5244.8391718813127227
 20
477.270218351373785
 30
0.0
 40
0.01
 50
359.9999999999935199
 51
96.8356216170555371
  0
ARC
  5
18B95
  8
0
 10
5159.9266411345533925
 20
1217.9956291380419771
 30
0.0
 40
745.5887278198324566
 50
276.4260791470965728
 51
276.539319262281424
  0
ARC
  5
18B96
  8
0
 10
5244.8391718813127227
 20
477.2478143935550179
 30
0.0
 40
0.01
 50
359.9999999999935199
 51
96.5393192603938957
  0
ARC
  5
18B97
  8
0
 10
5218.4915376884746365
 20
705.6617595443160553
 30
0.0
 40
229.9552285871027948
 50
276.2079009338002038
 51
276.5789538402818835
  0
ARC
  5
18B98
  8
0
 10
5244.8391718813127227
 20
477.2108708799057126
 30
0.0
 40
0.01
 50
359.9999999999902229
 51
96.5789538396521863
  0
ARC
  5
18B99
  8
0
 10
5232.5601535197556586
 20
583.2150579946173821
 30
0.0
 40
106.7267696590213006
 50
275.8100273906430857
 51
276.6071867544675911
  0
ARC
  5
18B9A
  8
0
 10
5244.8391718813127227
 20
477.2070647368767027
 30
0.0
 40
0.01
 50
276.6071867543628855
 51
359.9999999999935199
  0
ARC
  5
18B9B
  8
0
 10
5231.5466250997296811
 20
594.4400679464064297
 30
0.0
 40
118.0428615809720014
 50
275.7501644622248023
 51
276.4651156507807741
  0
ARC
  5
18B9C
  8
0
 10
5244.8391718813127227
 20
477.1379523324259821
 30
0.0
 40
0.01
 50
0.0
 51
96.4651156508854797
  0
ARC
  5
18B9D
  8
0
 10
5235.334725544244975
 20
562.404621425013147
 30
0.0
 40
85.8210091884085386
 50
275.3629557838050914
 51
276.3591408185408795
  0
ARC
  5
18B9E
  8
0
 10
5244.8391718813127227
 20
477.121593818349595
 30
0.0
 40
0.01
 50
276.3591408184884131
 51
0.0
  0
ARC
  5
18B9F
  8
0
 10
5238.1625625260985544
 20
541.0823213991712919
 30
0.0
 40
64.3868817140048719
 50
274.6390421542416789
 51
275.9529234634982799
  0
ARC
  5
18BA0
  8
0
 10
5244.8391718813127227
 20
477.0525955935985962
 30
0.0
 40
0.01
 50
275.952923463550519
 51
0.0
  0
ARC
  5
18BA1
  8
0
 10
5239.2622243429468654
 20
533.2329193959220675
 30
0.0
 40
56.4996275588594798
 50
274.1507183244838757
 51
275.6657642743886072
  0
ARC
  5
18BA2
  8
0
 10
5244.8391718813127227
 20
477.0192584415511874
 30
0.0
 40
0.01
 50
275.6657642745457224
 51
0.0
  0
ARC
  5
18BA3
  8
0
 10
5237.9536380136178195
 20
554.1008335127273767
 30
0.0
 40
77.4465870379085572
 50
274.005116104682827
 51
275.1013838588939961
  0
ARC
  5
18BA4
  8
0
 10
5244.8391718813127227
 20
476.970979140788927
 30
0.0
 40
0.01
 50
275.1013838591554759
 51
0.0
  0
ARC
  5
18BA5
  8
0
 10
5241.9747427631082246
 20
510.4733572618507083
 30
0.0
 40
33.674272202802193
 50
272.324528001365195
 51
274.8810912522317835
  0
ARC
  5
18BA6
  8
0
 10
5244.8391718813127227
 20
476.9311708576947808
 30
0.0
 40
0.01
 50
274.8810912522841932
 51
0.0
  0
ARC
  5
18BA7
  8
0
 10
5242.573754297929554
 20
510.837754088364477
 30
0.0
 40
34.0392098218822667
 50
271.3253863778863888
 51
273.8171598848102803
  0
ARC
  5
18BA8
  8
0
 10
5244.8391718813127227
 20
476.8840355250820835
 30
0.0
 40
0.01
 50
273.8171598849148722
 51
0.0
  0
ARC
  5
18BA9
  8
0
 10
5242.5914474866449382
 20
516.0792076298331494
 30
0.0
 40
39.2895704139542019
 50
271.3227563583873234
 51
273.2804714883072279
  0
ARC
  5
18BAA
  8
0
 10
5244.8391718813127227
 20
476.8640015619006931
 30
0.0
 40
0.01
 50
273.2804714883072279
 51
0.0
  0
ARC
  5
18BAB
  8
0
 10
5245.4184717322777942
 20
422.5423581927370833
 30
0.0
 40
54.2841920518341965
 50
90.6113373285468668
 51
91.7884426118376666
  0
ARC
  5
18BAC
  8
0
 10
5244.8391718813127227
 20
476.833459694218277
 30
0.0
 40
0.01
 50
270.6113373284946988
 51
0.0
  0
ARC
  5
18BAD
  8
0
 10
5243.3658175641530761
 20
537.1275455964585035
 30
0.0
 40
60.3332564955686479
 50
270.7957013150439138
 51
271.3995494338321919
  0
ARC
  5
18BAE
  8
0
 10
5244.8391718813127227
 20
476.8222846212643731
 30
0.0
 40
0.01
 50
271.3995494337800096
 51
0.0
  0
LINE
  5
18BAF
  8
0
 10
5240.9381753266807209
 20
474.713008516266882
 30
0.0
 11
5243.1881753266807209
 21
474.713008516266882
 31
0.0
  0
LINE
  5
18BB0
  8
0
 10
5240.958175326682067
 20
475.1130085162669161
 30
0.0
 11
5243.1681753266811938
 21
475.1130085162669161
 31
0.0
  0
LINE
  5
18BB1
  8
0
 10
5240.9381753266807209
 20
475.0930085162668775
 30
0.0
 11
5240.9381753266807209
 21
474.713008516266882
 31
0.0
  0
LINE
  5
18BB2
  8
0
 10
5241.6611753266806772
 20
476.2430085162669116
 30
0.0
 11
5241.6611753266806772
 21
475.1530085162668797
 31
0.0
  0
LINE
  5
18BB3
  8
0
 10
5241.7011753266815504
 20
476.2830085162668752
 30
0.0
 11
5242.4251753266808009
 21
476.2830085162668752
 31
0.0
  0
LINE
  5
18BB4
  8
0
 10
5241.6751753266808009
 20
476.2910085162669134
 30
0.0
 11
5242.4511753266815504
 21
476.2910085162669134
 31
0.0
  0
ARC
  5
18BB5
  8
0
 10
5240.958175326682067
 20
475.0930085162668775
 30
0.0
 40
0.02
 50
90.0
 51
179.9999999999870113
  0
ARC
  5
18BB6
  8
0
 10
5241.6211753266807136
 20
475.1530085162668797
 30
0.0
 40
0.04
 50
270.0
 51
0.0
  0
ARC
  5
18BB7
  8
0
 10
5241.7011753266815504
 20
476.2430085162669116
 30
0.0
 40
0.04
 50
90.0
 51
180.0000000000032117
  0
ARC
  5
18BB8
  8
0
 10
5241.6751753266808009
 20
476.3050085162669234
 30
0.0
 40
0.014
 50
179.9999999999934914
 51
270.0
  0
LINE
  5
18BB9
  8
0
 10
5241.7131753266812666
 20
476.2910085162669134
 30
0.0
 11
5241.7131753266812666
 21
476.2830085162668752
 31
0.0
  0
LINE
  5
18BBA
  8
0
 10
5243.1881753266807209
 20
475.0930085162668775
 30
0.0
 11
5243.1881753266807209
 21
474.713008516266882
 31
0.0
  0
LINE
  5
18BBB
  8
0
 10
5242.4651753266807646
 20
476.2430085162669116
 30
0.0
 11
5242.4651753266807646
 21
475.1530085162668797
 31
0.0
  0
ARC
  5
18BBC
  8
0
 10
5243.1681753266811938
 20
475.0930085162668775
 30
0.0
 40
0.02
 50
0.0000000000130276
 51
90.0
  0
ARC
  5
18BBD
  8
0
 10
5242.5051753266798187
 20
475.1530085162668797
 30
0.0
 40
0.04
 50
180.0
 51
270.0
  0
ARC
  5
18BBE
  8
0
 10
5242.4251753266808009
 20
476.2430085162669116
 30
0.0
 40
0.04
 50
359.9999999999968168
 51
90.0
  0
ARC
  5
18BBF
  8
0
 10
5242.4511753266815504
 20
476.3050085162669234
 30
0.0
 40
0.014
 50
270.0
 51
0.0000000000065138
  0
LINE
  5
18BC0
  8
0
 10
5242.4131753266819942
 20
476.2910085162669134
 30
0.0
 11
5242.4131753266819942
 21
476.2830085162668752
 31
0.0
  0
LINE
  5
18BC1
  8
0
 10
5241.6611753266806772
 20
476.3050085162669234
 30
0.0
 11
5241.6611753266806772
 21
476.616008516266902
 31
0.0
  0
LINE
  5
18BC2
  8
0
 10
5242.4651753266807646
 20
476.3050085162669234
 30
0.0
 11
5242.4651753266807646
 21
476.616008516266902
 31
0.0
  0
ARC
  5
18BC3
  8
0
 10
5242.6491559839505499
 20
476.6160164530147085
 30
0.0
 40
0.9879806573012349
 50
90.7612087989019045
 51
180.0004602743414068
  0
LINE
  5
18BC4
  8
0
 10
5236.9381753266807209
 20
474.713008516266882
 30
0.0
 11
5239.1881753266807209
 21
474.713008516266882
 31
0.0
  0
LINE
  5
18BC5
  8
0
 10
5236.9481753266809392
 20
475.1130085162669161
 30
0.0
 11
5239.1781753266814121
 21
475.1130085162669161
 31
0.0
  0
ARC
  5
18BC6
  8
0
 10
5239.1781753266814121
 20
475.1030085162669252
 30
0.0
 40
0.01
 50
0.0
 51
90.0
  0
ARC
  5
18BC7
  8
0
 10
5236.9481753266809392
 20
475.1030085162669252
 30
0.0
 40
0.01
 50
90.0
 51
180.0
  0
LINE
  5
18BC8
  8
0
 10
5236.9381753266807209
 20
475.1030085162669252
 30
0.0
 11
5236.9381753266807209
 21
474.713008516266882
 31
0.0
  0
LINE
  5
18BC9
  8
0
 10
5239.1881753266807209
 20
475.1030085162669252
 30
0.0
 11
5239.1881753266807209
 21
474.713008516266882
 31
0.0
  0
ARC
  5
18BCB
  8
0
 10
5233.4911795499174332
 20
477.5898927704691914
 30
0.0
 40
0.0140434657584074
 50
93.5082482511641757
 51
175.5314882982135032
  0
ARC
  5
18BCC
  8
0
 10
5233.4761446403326772
 20
476.6156042362208041
 30
0.0
 40
0.1850311280106319
 50
0.1251873620598301
 51
85.6694949117474067
  0
ARC
  5
18BCD
  8
0
 10
5233.492863499482155
 20
476.8155534701504052
 30
0.0
 40
0.0156887596928109
 50
181.2990531295089056
 51
259.9150588204133214
  0
LINE
  5
18BCE
  8
0
 10
5233.4771787720492284
 20
476.8095675493976273
 30
0.0
 11
5233.4771787720492284
 21
477.593133758259512
 31
0.0
  0
LINE
  5
18BCF
  8
0
 10
5231.2771787720503198
 20
476.8108421422595029
 30
0.0
 11
5231.2771787720503198
 21
477.593133758259512
 31
0.0
  0
ARC
  5
18BD0
  8
0
 10
5231.2886351090191965
 20
477.5925305237352063
 30
0.0
 40
0.0114722076626978
 50
97.2930787383096742
 51
176.985868785265211
  0
ARC
  5
18BD1
  8
0
 10
5231.2885471424706338
 20
476.8114069554645766
 30
0.0
 40
0.0113823925427832
 50
182.84427971615861
 51
263.095305953829893
  0
LINE
  5
18BD2
  8
0
 10
5233.467175326681172
 20
477.6039099187668739
 30
0.0
 11
5231.2871787720487191
 21
477.6039099187668739
 31
0.0
  0
ARC
  5
18BD3
  8
0
 10
5233.4673065738406876
 20
477.5940006052051103
 30
0.0
 40
0.0099101826968066
 50
354.981906407910401
 51
90.7588284122777935
  0
LINE
  5
18BD4
  8
0
 10
5233.4671718960480575
 20
476.8001071137668987
 30
0.0
 11
5231.2871787720496286
 21
476.8001071137668987
 31
0.0
  0
ARC
  5
18BD5
  8
0
 10
5233.4670541915593276
 20
476.8102542742975061
 30
0.0
 40
0.010147843178771
 50
270.6645867017679166
 51
356.1197142100406268
  0
ARC
  5
18BD6
  8
0
 10
5233.0615188067467898
 20
473.438158738789582
 30
0.0
 40
4.1683688655337319
 50
84.4017406230816789
 51
87.9693455501232933
  0
ARC
  5
18BD7
  8
0
 10
5233.4671787720481007
 20
477.576693698698989
 30
0.0
 40
0.01
 50
0.0
 51
84.4017406230816789
  0
ARC
  5
18BD8
  8
0
 10
5233.0386405692497647
 20
474.4333809080591209
 30
0.0
 40
3.1707428044003829
 50
82.2077543229837175
 51
89.3346395120842516
  0
ARC
  5
18BD9
  8
0
 10
5233.4671787720481007
 20
477.5649380421874071
 30
0.0
 40
0.01
 50
359.9999999999935199
 51
82.2077543229837175
  0
ARC
  5
18BDA
  8
0
 10
5232.75059802249325
 20
473.654815515202813
 30
0.0
 40
3.9530035386008469
 50
79.5291797730598802
 51
87.4517023061005006
  0
ARC
  5
18BDB
  8
0
 10
5233.4671787720481007
 20
477.5321585403663107
 30
0.0
 40
0.01
 50
0.0
 51
79.5291797730598802
  0
ARC
  5
18BDC
  8
0
 10
5232.6238851893003812
 20
473.7973192746483164
 30
0.0
 40
3.8075709298349518
 50
77.2382207666841509
 51
88.6998325640851988
  0
ARC
  5
18BDD
  8
0
 10
5233.4671787720481007
 20
477.5205844730481886
 30
0.0
 40
0.01
 50
257.2382207666840941
 51
0.0
  0
ARC
  5
18BDE
  8
0
 10
5232.4115679888618615
 20
473.5039302302645865
 30
0.0
 40
4.1067513191855509
 50
75.068134410539372
 51
84.7918307713746771
  0
ARC
  5
18BDF
  8
0
 10
5232.7699234268429791
 20
477.435383124322982
 30
0.0
 40
0.159
 50
84.7918307713746771
 51
88.4642583860931069
  0
ARC
  5
18BE0
  8
0
 10
5233.4671787720481007
 20
477.4623462323625063
 30
0.0
 40
0.01
 50
0.0
 51
75.068134410539372
  0
ARC
  5
18BE1
  8
0
 10
5232.2879110820422284
 20
473.5520116274722113
 30
0.0
 40
4.0549277323491726
 50
73.1355834351281118
 51
82.8687775566060338
  0
ARC
  5
18BE2
  8
0
 10
5233.4671787720481007
 20
477.4421228321198214
 30
0.0
 40
0.01
 50
253.1355834351280976
 51
359.9999999999935199
  0
ARC
  5
18BE3
  8
0
 10
5232.7715601771324145
 20
477.4178021609213829
 30
0.0
 40
0.159
 50
82.8687775566060338
 51
87.9450975563177337
  0
ARC
  5
18BE4
  8
0
 10
5231.1920782703500663
 20
468.8542439857142767
 30
0.0
 40
8.8459171538472212
 50
75.1136987120524395
 51
79.6293725667153467
  0
ARC
  5
18BE5
  8
0
 10
5233.4671787720481007
 20
477.4129346766417825
 30
0.0
 40
0.01
 50
255.1136987120532922
 51
0.0
  0
ARC
  5
18BE6
  8
0
 10
5232.755852754929947
 20
477.3992506562311178
 30
0.0
 40
0.159
 50
79.6293725667153467
 51
87.1540089237260531
  0
ARC
  5
18BE7
  8
0
 10
5231.1538949802270508
 20
469.1564329691541957
 30
0.0
 40
8.5560996296121097
 50
74.2950872930127133
 51
78.9717898133628751
  0
ARC
  5
18BE8
  8
0
 10
5233.4671787720481007
 20
477.383494229273083
 30
0.0
 40
0.01
 50
0.0
 51
74.2950872930135802
  0
ARC
  5
18BE9
  8
0
 10
5231.5243364641601147
 20
471.705208344557775
 30
0.0
 40
5.967062777008648
 50
71.0314154931141388
 51
77.6707922353746341
  0
ARC
  5
18BEA
  8
0
 10
5233.4671787720481007
 20
477.3576983451659999
 30
0.0
 40
0.01
 50
251.0314154931141104
 51
0.0000000000065138
  0
ARC
  5
18BEB
  8
0
 10
5232.7645229828303854
 20
477.3793189022206889
 30
0.0
 40
0.159
 50
77.6707922353746341
 51
86.3061946195941374
  0
ARC
  5
18BEC
  8
0
 10
5231.362254466414015
 20
470.7971476172480152
 30
0.0
 40
6.8467532956804718
 50
72.1223396070795815
 51
77.944770011043957
  0
ARC
  5
18BED
  8
0
 10
5233.4671787720481007
 20
477.322816887550573
 30
0.0
 40
0.01
 50
252.1223396070795104
 51
0.0
  0
ARC
  5
18BEE
  8
0
 10
5232.7590216680146114
 20
477.3374140895271012
 30
0.0
 40
0.159
 50
77.944770011043957
 51
85.5583100148512017
  0
ARC
  5
18BEF
  8
0
 10
5231.0273552702528832
 20
469.6600977284437022
 30
0.0
 40
8.0237909624013817
 50
72.2747358691366344
 51
77.4011065012119133
  0
ARC
  5
18BF0
  8
0
 10
5233.4671787720481007
 20
477.2934526179499812
 30
0.0
 40
0.01
 50
0.0
 51
72.2747358691356396
  0
ARC
  5
18BF1
  8
0
 10
5232.7428580357300234
 20
477.3355121891690942
 30
0.0
 40
0.159
 50
77.4011065012119133
 51
85.3973145552412092
  0
ARC
  5
18BF2
  8
0
 10
5230.0324223276338671
 20
467.9629285559717005
 30
0.0
 40
9.8930638976236196
 50
69.7059804349803045
 51
73.7465446196317345
  0
ARC
  5
18BF3
  8
0
 10
5233.4671787720481007
 20
477.2512611688771926
 30
0.0
 40
0.01
 50
249.7059804349792103
 51
0.0
  0
ARC
  5
18BF4
  8
0
 10
5232.756859412983431
 20
477.3079508957521284
 30
0.0
 40
0.159
 50
73.7465446196317345
 51
84.9053605432687135
  0
ARC
  5
18BF5
  8
0
 10
5228.9803919062942441
 20
463.7581542643508214
 30
0.0
 40
14.1770274071043705
 50
71.5631147036848319
 51
74.3976906646584126
  0
ARC
  5
18BF6
  8
0
 10
5233.4671787720481007
 20
477.2169985784519213
 30
0.0
 40
0.01
 50
251.5631147036847892
 51
0.0
  0
ARC
  5
18BF7
  8
0
 10
5232.7506615093261644
 20
477.2596415715617013
 30
0.0
 40
0.159
 50
74.3976906646584126
 51
84.7120964786830228
  0
ARC
  5
18BF8
  8
0
 10
5223.0462186628192285
 20
448.9784201328872086
 30
0.0
 40
30.018831961528349
 50
69.6941251456625253
 51
71.03256333621826
  0
ARC
  5
18BF9
  8
0
 10
5233.4671787720481007
 20
477.1410609780838854
 30
0.0
 40
0.01
 50
249.6941251456590862
 51
0.0
  0
ARC
  5
18BFA
  8
0
 10
5232.7515815923698028
 20
477.2169663981683243
 30
0.0
 40
0.159
 50
71.03256333621826
 51
83.9807592184852041
  0
ARC
  5
18BFB
  8
0
 10
5239.1895544791723296
 20
495.3513022291351149
 30
0.0
 40
19.1270756228693095
 50
250.479780597197589
 51
252.5824411188723957
  0
ARC
  5
18BFC
  8
0
 10
5233.4671787720481007
 20
477.1107705308256186
 30
0.0
 40
0.01
 50
252.5824411188158933
 51
359.9999999999935199
  0
ARC
  5
18BFD
  8
0
 10
5232.7453149668363039
 20
477.1737201556395007
 30
0.0
 40
0.159
 50
70.4797805971976317
 51
84.4958280391719967
  0
ARC
  5
18BFE
  8
0
 10
5239.8755528634437724
 20
497.4168271487092738
 30
0.0
 40
21.3107690359777493
 50
250.5970239994333895
 51
252.508184796010994
  0
ARC
  5
18BFF
  8
0
 10
5233.4671787720481007
 20
477.0819326618856735
 30
0.0
 40
0.01
 50
0.0
 51
72.50818479606653
  0
ARC
  5
18C00
  8
0
 10
5232.7430782432393244
 20
477.1664249736816146
 30
0.0
 40
0.159
 50
70.5970239994345121
 51
84.7018639151391142
  0
ARC
  5
18C01
  8
0
 10
5247.465879216583744
 20
517.6565573465696843
 30
0.0
 40
42.9432698669328303
 50
250.0123335610531115
 51
250.9703644246104091
  0
ARC
  5
18C02
  8
0
 10
5233.4671787720481007
 20
477.0695884115646095
 30
0.0
 40
0.01
 50
250.9703644246093859
 51
359.9999999999935199
  0
ARC
  5
18C03
  8
0
 10
5232.7327537420997032
 20
477.1505000040560276
 30
0.0
 40
0.159
 50
70.0123335610519746
 51
83.6016029287922038
  0
ARC
  5
18C04
  8
0
 10
5254.0866970435408803
 20
536.2401987312587153
 30
0.0
 40
62.7005761691371717
 50
250.1566538385901879
 51
250.7974075910466922
  0
ARC
  5
18C05
  8
0
 10
5233.4671787720481007
 20
477.0376328521516029
 30
0.0
 40
0.01
 50
250.7974075910424006
 51
0.0
  0
ARC
  5
18C06
  8
0
 10
5232.749037119930108
 20
477.1129580959317877
 30
0.0
 40
0.159
 50
70.1566538385901879
 51
83.3233329117619661
  0
ARC
  5
18C07
  8
0
 10
5216.5564212563913316
 20
426.08296905204719
 30
0.0
 40
53.6618326553195217
 50
71.6345405393863359
 51
72.3871690869356996
  0
ARC
  5
18C08
  8
0
 10
5233.4671787720481007
 20
477.0210873999722025
 30
0.0
 40
0.01
 50
251.6345405394378929
 51
0.0000000000065138
  0
ARC
  5
18C09
  8
0
 10
5232.7454871829841068
 20
477.0777457116972187
 30
0.0
 40
0.159
 50
72.3871690869356996
 51
83.9914266696395089
  0
ARC
  5
18C0A
  8
0
 10
5197.3249669020797228
 20
366.7919325434162943
 30
0.0
 40
115.985095395021105
 50
71.8420464164287011
 51
72.1946867257478431
  0
ARC
  5
18C0B
  8
0
 10
5233.4671787720481007
 20
476.9915844168702961
 30
0.0
 40
0.01
 50
0.0000000000065138
 51
71.8420464164812529
  0
ARC
  5
18C0C
  8
0
 10
5232.7426871567513444
 20
477.0700784582725191
 30
0.0
 40
0.159
 50
72.1946867257488236
 51
83.9522737876230849
  0
ARC
  5
18C0D
  8
0
 10
5236.0141274761472232
 20
485.6750529497325033
 30
0.0
 40
9.0770045164868343
 50
249.180135354309698
 51
253.6858944781263006
  0
ARC
  5
18C0E
  8
0
 10
5233.4671787720481007
 20
476.9731207964297255
 30
0.0
 40
0.01
 50
253.6858944781255047
 51
0.0
  0
ARC
  5
18C0F
  8
0
 10
5232.7313647081300587
 20
477.0421364067855734
 30
0.0
 40
0.159
 50
69.1801353543096837
 51
83.3221459358971543
  0
ARC
  5
18C10
  8
0
 10
5235.8662335960907512
 20
485.4003309065905114
 30
0.0
 40
8.7978399206131517
 50
249.6302212149086017
 51
254.1573100361806041
  0
ARC
  5
18C11
  8
0
 10
5233.4671787720481007
 20
476.9462983527399729
 30
0.0
 40
0.01
 50
254.1573100361779893
 51
0.0
  0
ARC
  5
18C12
  8
0
 10
5232.7485580704396853
 20
477.0036005500620035
 30
0.0
 40
0.159
 50
69.6302212149086728
 51
83.3043233127404363
  0
ARC
  5
18C13
  8
0
 10
5238.1759237235737601
 20
494.134918130267522
 30
0.0
 40
17.8355636792113792
 50
252.4390323350845904
 51
254.683140616331201
  0
ARC
  5
18C14
  8
0
 10
5233.4671787720481007
 20
476.942523257443213
 30
0.0
 40
0.01
 50
254.6831406162783935
 51
0.0000000000065138
  0
ARC
  5
18C15
  8
0
 10
5232.746595577736116
 20
476.9789652890523826
 30
0.0
 40
0.159
 50
72.4390323350845904
 51
85.2519242397793136
  0
ARC
  5
18C16
  8
0
 10
5234.7868504974558164
 20
483.2136976647959727
 30
0.0
 40
6.4091390104364683
 50
251.8747448843986092
 51
256.4592027196595723
  0
ARC
  5
18C17
  8
0
 10
5232.7435328457831929
 20
476.971478265032772
 30
0.0
 40
0.159
 50
71.874744884398595
 51
85.1535445038279448
  0
ARC
  5
18C18
  8
0
 10
5198.0192077257297569
 20
358.3881279566173816
 30
0.0
 40
123.6828455334745058
 50
73.3466476074326863
 51
73.6775499271476519
  0
ARC
  5
18C19
  8
0
 10
5233.4671787720481007
 20
476.8928172514604853
 30
0.0
 40
0.01
 50
253.3466476073809019
 51
0.0
  0
ARC
  5
18C1A
  8
0
 10
5232.7346908987719871
 20
476.9333751976598137
 30
0.0
 40
0.159
 50
73.6775499271476519
 51
83.5739208530084028
  0
ARC
  5
18C1B
  8
0
 10
5234.6302247086086936
 20
482.3906006953715178
 30
0.0
 40
5.6471920648368457
 50
251.116482132080904
 51
258.0934213556834038
  0
ARC
  5
18C1C
  8
0
 10
5233.4671787720481007
 20
476.8746911125999191
 30
0.0
 40
0.01
 50
258.0934213556827217
 51
0.0
  0
ARC
  5
18C1D
  8
0
 10
5232.751078244727978
 20
476.896906595673272
 30
0.0
 40
0.159
 50
71.1164821320808329
 51
83.7920990662515663
  0
ARC
  5
18C1E
  8
0
 10
5235.7204532765272234
 20
487.3748481407828876
 30
0.0
 40
10.7507665560798795
 50
254.1790807503003009
 51
257.8901226507488218
  0
ARC
  5
18C1F
  8
0
 10
5233.4671787720481007
 20
476.8730949433552837
 30
0.0
 40
0.01
 50
257.890122650697208
 51
0.0
  0
ARC
  5
18C20
  8
0
 10
5232.7461067746953631
 20
476.8783597186863972
 30
0.0
 40
0.159
 50
74.1790807503012246
 51
84.1899726093572696
  0
ARC
  5
18C21
  8
0
 10
5234.0526631535049091
 20
480.9859245463541129
 30
0.0
 40
4.1973822072029581
 50
252.421361404688497
 51
261.9625058561484252
  0
ARC
  5
18C22
  8
0
 10
5233.4671787720481007
 20
476.8396759059237979
 30
0.0
 40
0.01
 50
261.9625058560964135
 51
0.0
  0
ARC
  5
18C23
  8
0
 10
5232.7369725825856221
 20
476.832970867726317
 30
0.0
 40
0.159
 50
72.4213614046885112
 51
84.2498355377751977
  0
ARC
  5
18C24
  8
0
 10
5233.8371204284803753
 20
480.3480791824417793
 30
0.0
 40
3.5493324971781481
 50
253.0424436591887911
 51
264.0003146514122818
  0
ARC
  5
18C25
  8
0
 10
5233.4671787720481007
 20
476.8281334873465767
 30
0.0
 40
0.01
 50
264.0003146514122818
 51
0.0
  0
ARC
  5
18C26
  8
0
 10
5232.7555362626708302
 20
476.8009809878748797
 30
0.0
 40
0.159
 50
73.0424436591888053
 51
84.637044216194866
  0
ARC
  5
18C27
  8
0
 10
5233.6207655895059361
 20
480.2682131017713232
 30
0.0
 40
3.468997137456999
 50
256.0059342198546233
 51
267.5655370939883824
  0
ARC
  5
18C28
  8
0
 10
5232.7434382456167441
 20
476.7478920992116969
 30
0.0
 40
0.159
 50
76.0059342198545664
 51
85.3609578457585769
  0
ARC
  5
18C29
  8
0
 10
5233.4901314868402551
 20
479.9290554107070079
 30
0.0
 40
3.1285396861402979
 50
257.2245350651318176
 51
269.6334582367049961
  0
ARC
  5
18C2A
  8
0
 10
5232.7631548735243996
 20
476.7229016103353274
 30
0.0
 40
0.159
 50
77.2245350651318034
 51
85.8492816755161243
  0
ARC
  5
18C2B
  8
0
 10
5233.3024325956521352
 20
480.0700695620932947
 30
0.0
 40
3.2707036075596871
 50
260.7698802500470947
 51
268.7802214318660958
  0
ARC
  5
18C2C
  8
0
 10
5232.7523078212543624
 20
476.6847734792813753
 30
0.0
 40
0.159
 50
80.7698802500470663
 51
85.9948838953693553
  0
ARC
  5
18C2D
  8
0
 10
5220.2232707956081867
 20
440.1438941255260033
 30
0.0
 40
39.3188179299133225
 50
70.310694830620676
 51
71.3653910468753878
  0
ARC
  5
18C2E
  8
0
 10
5233.4671787720481007
 20
477.1544611106268121
 30
0.0
 40
0.01
 50
0.0
 51
70.3106948306184734
  0
ARC
  5
18C2F
  8
0
 10
5232.7360756069037961
 20
477.2507810342708012
 30
0.0
 40
0.159
 50
71.3653910468753878
 51
84.3576737785778903
  0
ARC
  5
18C30
  8
0
 10
5233.1965338071959195
 20
479.8899583200654888
 30
0.0
 40
3.089929067325043
 50
262.6224054285117973
 51
269.5932530082889116
  0
ARC
  5
18C31
  8
0
 10
5232.7793459888298457
 20
476.6679256683507901
 30
0.0
 40
0.159
 50
82.622405428511783
 51
87.6754719986347766
  0
ARC
  5
18C32
  8
0
 10
5232.9850434880199828
 20
479.8765961217217182
 30
0.0
 40
3.076628109099012
 50
266.0398368557338813
 51
269.4551623437793069
  0
ARC
  5
18C33
  8
0
 10
5232.7615817364567192
 20
476.6486936904236131
 30
0.0
 40
0.159
 50
86.0398368557339381
 51
88.6746136221136112
  0
ARC
  5
18C34
  8
0
 10
5232.1056566894076241
 20
452.6587115794708893
 30
0.0
 40
24.9445744968710912
 50
88.4642583860931069
 51
90.8684298584837649
  0
ARC
  5
18C35
  8
0
 10
5231.415684112596864
 20
439.6288235848516024
 30
0.0
 40
37.972295303702829
 50
87.9450975563177337
 51
89.4923172081076359
  0
ARC
  5
18C36
  8
0
 10
5229.8404403409958832
 20
418.7541530829738008
 30
0.0
 40
58.8765195228833207
 50
87.1540089237260531
 51
88.2723813793919305
  0
ARC
  5
18C37
  8
0
 10
5230.7354832788641943
 20
445.9498600351381015
 30
0.0
 40
31.6538866770130909
 50
86.3061946195941374
 51
89.0010258461216495
  0
ARC
  5
18C38
  8
0
 10
5231.2871787720487191
 20
477.5889370777834984
 30
0.0
 40
0.01
 50
89.0010258461216495
 51
180.0
  0
ARC
  5
18C39
  8
0
 10
5229.842086146551992
 20
439.7856791688280964
 30
0.0
 40
37.8238550825676825
 50
85.5583100148512017
 51
87.8098536818351647
  0
ARC
  5
18C3A
  8
0
 10
5231.2871787720487191
 20
477.5719113640226965
 30
0.0
 40
0.01
 50
87.8098536818872333
 51
180.0
  0
ARC
  5
18C3B
  8
0
 10
5229.934208146313722
 20
442.447732400167979
 30
0.0
 40
35.1596527483010703
 50
85.3973145552412092
 51
87.794041884245118
  0
ARC
  5
18C3C
  8
0
 10
5231.2871787720487191
 20
477.5713364124563896
 30
0.0
 40
0.01
 50
87.794041884245118
 51
180.0
  0
ARC
  5
18C3D
  8
0
 10
5229.6435553035498742
 20
442.3871633028521728
 30
0.0
 40
35.2182936121970585
 50
84.9053605432687135
 51
87.3242972980599461
  0
ARC
  5
18C3E
  8
0
 10
5231.2871787720487191
 20
477.5570714769784786
 30
0.0
 40
0.01
 50
87.3242972980599461
 51
180.0
  0
ARC
  5
18C3F
  8
0
 10
5228.4302132462044028
 20
430.5794746680834919
 30
0.0
 40
47.0386784900547497
 50
84.7120964786830228
 51
86.5171694428571243
  0
ARC
  5
18C40
  8
0
 10
5231.2871787720487191
 20
477.5212934281727826
 30
0.0
 40
0.01
 50
86.5171694428049136
 51
179.9999999999934914
  0
ARC
  5
18C41
  8
0
 10
5227.4740452969826947
 20
423.9896105126895236
 30
0.0
 40
53.6794750381709491
 50
84.3576737785778903
 51
85.9372514929076061
  0
ARC
  5
18C42
  8
0
 10
5227.5145204752043355
 20
427.5501058568490862
 30
0.0
 40
50.1012050491942773
 50
83.9807592184852041
 51
85.6806333811137364
  0
ARC
  5
18C43
  8
0
 10
5231.2871787720487191
 20
477.4990385046613142
 30
0.0
 40
0.01
 50
85.6806333811134948
 51
180.0
  0
ARC
  5
18C44
  8
0
 10
5224.8998817735382545
 20
395.7579196375619972
 30
0.0
 40
81.9519299878043626
 50
84.4958280391719967
 51
85.5293122610113841
  0
ARC
  5
18C45
  8
0
 10
5231.2871787720487191
 20
477.4505284046900897
 30
0.0
 40
0.01
 50
85.5293122609069769
 51
180.0
  0
ARC
  5
18C46
  8
0
 10
6864.16117073085843
 20
18069.5417998309094401
 30
0.0
 40
17667.698717402490729
 50
264.6970713734677929
 51
264.7018639121034767
  0
ARC
  5
18C47
  8
0
 10
5231.2871787720487191
 20
477.4712241023098045
 30
0.0
 40
0.01
 50
180.0
 51
264.6970713431662716
  0
ARC
  5
18C48
  8
0
 10
5225.2478371580336898
 20
410.40410835308478
 30
0.0
 40
67.3237584280272046
 50
83.6016029287922038
 51
84.8525425926342649
  0
ARC
  5
18C49
  8
0
 10
5231.2871787720487191
 20
477.4463966983972796
 30
0.0
 40
0.01
 50
84.8525425926339665
 51
180.0
  0
ARC
  5
18C4A
  8
0
 10
5225.4244952699573332
 20
414.5422121941206797
 30
0.0
 40
63.1569932697939507
 50
83.323332911710196
 51
84.672882273190794
  0
ARC
  5
18C4B
  8
0
 10
5231.2871787720487191
 20
477.4164652804968796
 30
0.0
 40
0.01
 50
84.6728822732951585
 51
180.0000000000065086
  0
ARC
  5
18C4C
  8
0
 10
5222.6584909165567296
 20
381.2443306652099864
 30
0.0
 40
96.5218088691440244
 50
83.9914266696391962
 51
84.870592334626977
  0
ARC
  5
18C4D
  8
0
 10
5231.2871787720487191
 20
477.3696394922126842
 30
0.0
 40
0.01
 50
84.8705923345222999
 51
180.0
  0
ARC
  5
18C4E
  8
0
 10
5222.6202400188440151
 20
381.5270634723966054
 30
0.0
 40
96.2367375287899307
 50
83.9522737876230849
 51
84.8324875101202736
  0
ARC
  5
18C4F
  8
0
 10
5231.2871787720487191
 20
477.3626997883454237
 30
0.0
 40
0.01
 50
84.8324875102246523
 51
180.0
  0
ARC
  5
18C50
  8
0
 10
5217.7520400907587828
 20
349.1024757194898029
 30
0.0
 40
128.972574373095398
 50
83.3221459358971543
 51
83.9754833986531963
  0
ARC
  5
18C51
  8
0
 10
5231.2871787720487191
 20
477.3527997339513718
 30
0.0
 40
0.01
 50
83.9754833986531963
 51
180.0
  0
ARC
  5
18C52
  8
0
 10
5214.2649295368228195
 20
319.5574434117978058
 30
0.0
 40
158.6864011689328038
 50
83.3043233127400526
 51
83.8424376264701721
  0
ARC
  5
18C53
  8
0
 10
5231.2871787720487191
 20
477.3382748677914265
 30
0.0
 40
0.01
 50
180.0
 51
263.8424376262607893
  0
ARC
  5
18C54
  8
0
 10
5235.9788880801788764
 20
515.8942219000755358
 30
0.0
 40
38.8902626296980003
 50
263.0727675069114753
 51
265.2519242397793278
  0
ARC
  5
18C55
  8
0
 10
5231.2871787720487191
 20
477.2779261633336887
 30
0.0
 40
0.01
 50
83.072767507016863
 51
180.0
  0
ARC
  5
18C56
  8
0
 10
5236.3496610036072525
 20
519.5021312574801868
 30
0.0
 40
42.5242590631809279
 50
263.1643783828394021
 51
265.1535445038279022
  0
ARC
  5
18C57
  8
0
 10
5231.2871787720487191
 20
477.270218351373785
 30
0.0
 40
0.01
 50
83.1643783829444487
 51
180.0000000000065086
  0
ARC
  5
18C58
  8
0
 10
5316.1997095188089588
 20
1217.9956291380419771
 30
0.0
 40
745.5887278198324566
 50
263.460680737718576
 51
263.5739208529034272
  0
ARC
  5
18C59
  8
0
 10
5231.2871787720487191
 20
477.2478143935550179
 30
0.0
 40
0.01
 50
83.4606807396061186
 51
180.0000000000065086
  0
ARC
  5
18C5A
  8
0
 10
5257.6348129648868053
 20
705.6617595443160553
 30
0.0
 40
229.9552285871027948
 50
263.4210461597180029
 51
263.7920990661997962
  0
ARC
  5
18C5B
  8
0
 10
5231.2871787720487191
 20
477.2108708799057126
 30
0.0
 40
0.01
 50
83.4210461603478279
 51
180.0000000000098055
  0
ARC
  5
18C5C
  8
0
 10
5243.5661971336057832
 20
583.2150579946173821
 30
0.0
 40
106.7267696590213006
 50
263.3928132455324089
 51
264.1899726093569143
  0
ARC
  5
18C5D
  8
0
 10
5231.2871787720487191
 20
477.2070647368767027
 30
0.0
 40
0.01
 50
180.0000000000065086
 51
263.3928132456371145
  0
ARC
  5
18C5E
  8
0
 10
5244.5797255536317607
 20
594.4400679464064297
 30
0.0
 40
118.0428615809720014
 50
263.5348843492192259
 51
264.2498355377751977
  0
ARC
  5
18C5F
  8
0
 10
5231.2871787720487191
 20
477.1379523324259821
 30
0.0
 40
0.01
 50
83.5348843491145345
 51
180.0
  0
ARC
  5
18C60
  8
0
 10
5240.7916251091173763
 20
562.404621425013147
 30
0.0
 40
85.8210091884085386
 50
263.6408591814590068
 51
264.6370442161947949
  0
ARC
  5
18C61
  8
0
 10
5231.2871787720487191
 20
477.121593818349595
 30
0.0
 40
0.01
 50
180.0
 51
263.6408591815115869
  0
ARC
  5
18C62
  8
0
 10
5237.9637881272628874
 20
541.0823213991712919
 30
0.0
 40
64.3868817140048719
 50
264.0470765365017201
 51
265.3609578457583211
  0
ARC
  5
18C63
  8
0
 10
5231.2871787720487191
 20
477.0525955935985962
 30
0.0
 40
0.01
 50
180.0
 51
264.047076536449481
  0
ARC
  5
18C64
  8
0
 10
5236.8641263104145764
 20
533.2329193959220675
 30
0.0
 40
56.4996275588594798
 50
264.3342357256113928
 51
265.8492816755161243
  0
ARC
  5
18C65
  8
0
 10
5231.2871787720487191
 20
477.0192584415511874
 30
0.0
 40
0.01
 50
180.0
 51
264.3342357254542776
  0
ARC
  5
18C66
  8
0
 10
5238.1727126397436223
 20
554.1008335127273767
 30
0.0
 40
77.4465870379085572
 50
264.8986161411060039
 51
265.994883895317173
  0
ARC
  5
18C67
  8
0
 10
5231.2871787720487191
 20
476.970979140788927
 30
0.0
 40
0.01
 50
180.0
 51
264.8986161408445241
  0
ARC
  5
18C68
  8
0
 10
5234.1516078902541267
 20
510.4733572618507083
 30
0.0
 40
33.674272202802193
 50
265.1189087477682165
 51
267.675471998634805
  0
ARC
  5
18C69
  8
0
 10
5231.2871787720487191
 20
476.9311708576947808
 30
0.0
 40
0.01
 50
180.0
 51
265.1189087477156932
  0
ARC
  5
18C6A
  8
0
 10
5233.5525963554318878
 20
510.837754088364477
 30
0.0
 40
34.0392098218822667
 50
266.1828401151897197
 51
268.6746136221136112
  0
ARC
  5
18C6B
  8
0
 10
5231.2871787720487191
 20
476.8840355250820835
 30
0.0
 40
0.01
 50
180.0
 51
266.1828401150851278
  0
ARC
  5
18C6C
  8
0
 10
5233.5349031667174131
 20
516.0792076298331494
 30
0.0
 40
39.2895704139542019
 50
266.7195285116927721
 51
268.6772436416126766
  0
ARC
  5
18C6D
  8
0
 10
5231.2871787720487191
 20
476.8640015619006931
 30
0.0
 40
0.01
 50
180.0
 51
266.7195285116927721
  0
ARC
  5
18C6E
  8
0
 10
5230.7078789210845571
 20
422.5423581927370833
 30
0.0
 40
54.2841920518341965
 50
88.2115573881623476
 51
89.3886626714531189
  0
ARC
  5
18C6F
  8
0
 10
5231.2871787720487191
 20
476.833459694218277
 30
0.0
 40
0.01
 50
180.0
 51
269.3886626715053012
  0
ARC
  5
18C70
  8
0
 10
5232.7605330892092752
 20
537.1275455964585035
 30
0.0
 40
60.3332564955686479
 50
268.6004505661678081
 51
269.2042986849560862
  0
ARC
  5
18C71
  8
0
 10
5231.2871787720487191
 20
476.8222846212643731
 30
0.0
 40
0.01
 50
180.0
 51
268.6004505662201041
  0
LINE
  5
18C72
  8
0
 10
5235.1881753266807209
 20
474.713008516266882
 30
0.0
 11
5232.9381753266807209
 21
474.713008516266882
 31
0.0
  0
LINE
  5
18C73
  8
0
 10
5235.1681753266802843
 20
475.1130085162669161
 30
0.0
 11
5232.958175326682067
 21
475.1130085162669161
 31
0.0
  0
LINE
  5
18C74
  8
0
 10
5235.1881753266807209
 20
475.0930085162668775
 30
0.0
 11
5235.1881753266807209
 21
474.713008516266882
 31
0.0
  0
LINE
  5
18C75
  8
0
 10
5234.4651753266807646
 20
476.2430085162669116
 30
0.0
 11
5234.4651753266807646
 21
475.1530085162668797
 31
0.0
  0
LINE
  5
18C76
  8
0
 10
5234.4251753266808009
 20
476.2830085162668752
 30
0.0
 11
5233.7011753266806409
 21
476.2830085162668752
 31
0.0
  0
LINE
  5
18C77
  8
0
 10
5234.4511753266815504
 20
476.2910085162669134
 30
0.0
 11
5233.6751753266808009
 21
476.2910085162669134
 31
0.0
  0
ARC
  5
18C78
  8
0
 10
5235.1681753266802843
 20
475.0930085162668775
 30
0.0
 40
0.02
 50
0.0000000000130276
 51
90.0
  0
ARC
  5
18C79
  8
0
 10
5234.5051753266807282
 20
475.1530085162668797
 30
0.0
 40
0.04
 50
180.0
 51
270.0
  0
ARC
  5
18C7A
  8
0
 10
5234.4251753266808009
 20
476.2430085162669116
 30
0.0
 40
0.04
 50
359.9999999999968168
 51
90.0
  0
ARC
  5
18C7B
  8
0
 10
5234.4511753266815504
 20
476.3050085162669234
 30
0.0
 40
0.014
 50
270.0
 51
0.0000000000065138
  0
LINE
  5
18C7C
  8
0
 10
5234.4131753266819942
 20
476.2910085162669134
 30
0.0
 11
5234.4131753266819942
 21
476.2830085162668752
 31
0.0
  0
LINE
  5
18C7D
  8
0
 10
5232.9381753266807209
 20
475.0930085162668775
 30
0.0
 11
5232.9381753266807209
 21
474.713008516266882
 31
0.0
  0
LINE
  5
18C7E
  8
0
 10
5233.6611753266806772
 20
476.2430085162669116
 30
0.0
 11
5233.6611753266806772
 21
475.1530085162668797
 31
0.0
  0
ARC
  5
18C7F
  8
0
 10
5232.958175326682067
 20
475.0930085162668775
 30
0.0
 40
0.02
 50
90.0
 51
179.9999999999870113
  0
ARC
  5
18C80
  8
0
 10
5233.6211753266807136
 20
475.1530085162668797
 30
0.0
 40
0.04
 50
270.0
 51
0.0
  0
ARC
  5
18C81
  8
0
 10
5233.7011753266806409
 20
476.2430085162669116
 30
0.0
 40
0.04
 50
90.0
 51
180.0000000000032117
  0
ARC
  5
18C82
  8
0
 10
5233.6751753266808009
 20
476.3050085162669234
 30
0.0
 40
0.014
 50
179.9999999999934914
 51
270.0
  0
LINE
  5
18C83
  8
0
 10
5233.7131753266812666
 20
476.2910085162669134
 30
0.0
 11
5233.7131753266812666
 21
476.2830085162668752
 31
0.0
  0
LINE
  5
18C84
  8
0
 10
5234.4651753266807646
 20
476.3050085162669234
 30
0.0
 11
5234.4651753266807646
 21
476.616008516266902
 31
0.0
  0
LINE
  5
18C85
  8
0
 10
5233.6611753266806772
 20
476.3050085162669234
 30
0.0
 11
5233.6611753266806772
 21
476.616008516266902
 31
0.0
  0
ARC
  5
18C86
  8
0
 10
5233.4771946694108919
 20
476.6160164530147085
 30
0.0
 40
0.9879806573012349
 50
359.9995397256586216
 51
89.2387912010980671
  0
LINE
  5
18C87
  8
0
 10
5237.6231753266820306
 20
477.2930085162669229
 30
0.0
 11
5237.6231753266820306
 21
475.1130085162669161
 31
0.0
  0
LINE
  5
18C88
  8
0
 10
5238.5031753266812302
 20
477.2930085162669229
 30
0.0
 11
5238.5031753266812302
 21
475.1130085162669161
 31
0.0
  0
ARC
  5
18C89
  8
0
 10
5238.0631753266807209
 20
477.2930085162669229
 30
0.0
 40
0.44
 50
0.0
 51
180.0
  0
ARC
  5
18C8A
  8
0
 10
5238.0601048039752641
 20
468.3996848979634251
 30
0.0
 40
7.7163383453220922
 50
89.9772005854800341
 51
91.438020099089016
  0
ARC
  5
18C8B
  8
0
 10
5237.97843240662678
 20
471.6531172159706102
 30
0.0
 40
4.4618810590234839
 50
91.438020099089016
 51
93.0584700489818744
  0
ARC
  5
18C8C
  8
0
 10
5237.8232404962445798
 20
474.5576394349586735
 30
0.0
 40
1.5532157552040069
 50
93.0584700489818744
 51
95.9242702853538844
  0
ARC
  5
18C8D
  8
0
 10
5237.690650461830046
 20
475.8353929262456177
 30
0.0
 40
0.268601376597656
 50
95.9242702853538844
 51
102.9663393988916056
  0
ARC
  5
18C8E
  8
0
 10
5237.6338683818303252
 20
476.0820040439559193
 30
0.0
 40
0.0155376534218088
 50
102.9663393988916056
 51
133.4880054194642014
  0
ARC
  5
18C8F
  8
0
 10
5237.6358433917630464
 20
476.0937402922776869
 30
0.0
 40
0.0128523094905906
 50
189.7132460306011126
 51
238.506793648625802
  0
ARC
  5
18C90
  8
0
 10
5237.6448959539293355
 20
476.1085166635926953
 30
0.0
 40
0.03018118801716
 50
238.506793648625802
 51
258.3787945760690832
  0
ARC
  5
18C91
  8
0
 10
5237.7179835336937685
 20
476.4639037728784956
 30
0.0
 40
0.3930059277503054
 50
258.3787945760690832
 51
263.9095953556378049
  0
ARC
  5
18C92
  8
0
 10
5237.7870931433817532
 20
477.1116052300704951
 30
0.0
 40
1.0443839407351181
 50
263.9095953556378049
 51
266.6246342347967015
  0
ARC
  5
18C93
  8
0
 10
5238.2915193548842581
 20
485.6641748530136056
 30
0.0
 40
9.6118160506580654
 50
266.6246342347967015
 51
266.855832982064328
  0
ARC
  5
18C94
  8
0
 10
5238.0167962193027051
 20
481.4220331280698133
 30
0.0
 40
5.3611535865387738
 50
267.30079263327832
 51
269.2960841431134895
  0
ARC
  5
18C95
  8
0
 10
5238.0654505031416193
 20
484.3182703824268742
 30
0.0
 40
8.2577803453873422
 50
269.2054037207919919
 51
269.9842139164297237
  0
ARC
  5
18C96
  8
0
 10
5238.061743006262077
 20
468.4210955912304257
 30
0.0
 40
7.6844175153236263
 50
89.9893204767660251
 51
91.3923376389320055
  0
ARC
  5
18C97
  8
0
 10
5237.9765705417348727
 20
471.9253189704954252
 30
0.0
 40
4.1791592023741924
 50
91.3923376389320055
 51
93.4697604424396218
  0
ARC
  5
18C98
  8
0
 10
5237.7821438795963331
 20
475.1319397430315234
 30
0.0
 40
0.9666495127685427
 50
93.4697604424396218
 51
97.2198475009093954
  0
ARC
  5
18C99
  8
0
 10
5237.6830590422559908
 20
475.9140979359769972
 30
0.0
 40
0.1782402004296664
 50
97.2198475009093954
 51
103.3141394371665029
  0
ARC
  5
18C9A
  8
0
 10
5237.6500777668115916
 20
476.053464917921076
 30
0.0
 40
0.0350238599301528
 50
103.3141394371665029
 51
115.544296074844894
  0
ARC
  5
18C9B
  8
0
 10
5237.6367300845804493
 20
476.081393328252318
 30
0.0
 40
0.004069753181305
 50
115.5442960748463008
 51
145.1787108025768021
  0
ARC
  5
18C9C
  8
0
 10
5237.6344835274130673
 20
476.0829559644470237
 30
0.0
 40
0.0013331766746633
 50
145.1787108025793884
 51
237.0491534735359096
  0
ARC
  5
18C9D
  8
0
 10
5237.6483898798396694
 20
476.1044101411661131
 30
0.0
 40
0.0269001150234805
 50
237.0491534735359096
 51
245.7499299257079031
  0
ARC
  5
18C9E
  8
0
 10
5237.6474384125249344
 20
476.1022979689444128
 30
0.0
 40
0.0245835309978491
 50
245.7499299257079031
 51
259.3066288677105149
  0
ARC
  5
18C9F
  8
0
 10
5238.0627451854343235
 20
469.1060189786988985
 30
0.0
 40
6.9968111735898457
 50
89.9964776413960692
 51
90.9733154584661179
  0
ARC
  5
18CA0
  8
0
 10
5238.0329843292711303
 20
470.8577711063535958
 30
0.0
 40
5.2448062576999446
 50
90.9733154584661179
 51
92.0510702432202095
  0
ARC
  5
18CA1
  8
0
 10
5237.9444720942237836
 20
473.2635616650944144
 30
0.0
 40
2.8373901311782581
 50
92.0035840640820908
 51
93.4901630299179658
  0
ARC
  5
18CA2
  8
0
 10
5237.8309671545030142
 20
475.0929839581338001
 30
0.0
 40
1.004452915442819
 50
93.3803938355727752
 51
97.1708359487857649
  0
ARC
  5
18CA3
  8
0
 10
5237.7195588725116977
 20
475.978495947405122
 30
0.0
 40
0.1119601768508883
 50
97.1708359487857649
 51
103.4641296769445944
  0
ARC
  5
18CA4
  8
0
 10
5237.7065139258793351
 20
476.0329823120090964
 30
0.0
 40
0.0559339815452863
 50
103.4641296769445944
 51
110.8174896206241016
  0
ARC
  5
18CA5
  8
0
 10
5237.6887015819056614
 20
476.079830554906323
 30
0.0
 40
0.0058137514942595
 50
110.8174896206241016
 51
134.2173413353727938
  0
ARC
  5
18CA6
  8
0
 10
5237.6856566206588468
 20
476.082959861719587
 30
0.0
 40
0.0014474773244935
 50
134.2173413353704916
 51
247.4627641022395892
  0
ARC
  5
18CA7
  8
0
 10
5237.6948661629949129
 20
476.0977773967517805
 30
0.0
 40
0.0188761531518077
 50
238.8497393530315946
 51
255.5867941763254123
  0
ARC
  5
18CA8
  8
0
 10
5237.7578539765208916
 20
476.392448743293528
 30
0.0
 40
0.3201894177265998
 50
257.7959040990921835
 51
266.0033622429053821
  0
ARC
  5
18CA9
  8
0
 10
5237.8903812405769713
 20
477.8993928342019899
 30
0.0
 40
1.8329071593113559
 50
265.1538825035996751
 51
267.47570895761271
  0
ARC
  5
18CAA
  8
0
 10
5238.0230310983588424
 20
480.8564863965793279
 30
0.0
 40
4.7929741061723901
 50
267.4484290684516168
 51
269.2128839162980967
  0
ARC
  5
18CAB
  8
0
 10
5238.0623914128018441
 20
483.0559246599372045
 30
0.0
 40
6.9927515089101444
 50
269.1379765689396208
 51
270.006423073494318
  0
LINE
  5
18CAC
  8
0
 10
5237.9931753266937449
 20
476.1024842743768772
 30
0.0
 11
5237.9931753733244477
 21
476.0912284910046992
 31
0.0
  0
LINE
  5
18CAD
  8
0
 10
5237.9931753733244477
 20
476.0912284910046992
 30
0.0
 11
5237.8593694444380162
 21
476.0941188759948091
 31
0.0
  0
LINE
  5
18CAE
  8
0
 10
5237.8593694444380162
 20
476.0941188759948091
 30
0.0
 11
5237.8593696232810544
 21
476.0997030607645115
 31
0.0
  0
LINE
  5
18CAF
  8
0
 10
5237.8593694444380162
 20
476.0941188759948091
 30
0.0
 11
5237.8876031061172398
 21
476.0956022152997775
 31
0.0
  0
LINE
  5
18CB0
  8
0
 10
5237.8876031061172398
 20
476.0956022152997775
 30
0.0
 11
5237.8876031061172398
 21
476.1005620597259167
 31
0.0
  0
LINE
  5
18CB1
  8
0
 10
5237.8876031061172398
 20
476.0956022152997775
 30
0.0
 11
5237.9931812262293533
 21
476.0933132195654025
 31
0.0
  0
ARC
  5
18CB2
  8
0
 10
5238.0662458493870872
 20
468.3996848979634251
 30
0.0
 40
7.7163383453220922
 50
88.561979900910984
 51
90.0227994145199943
  0
ARC
  5
18CB3
  8
0
 10
5238.1479182467346618
 20
471.6531172159706102
 30
0.0
 40
4.4618810590234839
 50
86.9415299510181541
 51
88.561979900910984
  0
ARC
  5
18CB4
  8
0
 10
5238.3031101571159525
 20
474.5576394349586735
 30
0.0
 40
1.5532157552040069
 50
84.0757297146461298
 51
86.9415299510181541
  0
ARC
  5
18CB5
  8
0
 10
5238.4357001915332148
 20
475.8353929262456177
 30
0.0
 40
0.268601376597656
 50
77.033660601108366
 51
84.0757297146461298
  0
ARC
  5
18CB6
  8
0
 10
5238.4924822715329356
 20
476.0820040439559193
 30
0.0
 40
0.0155376534218088
 50
46.5119945805358199
 51
77.033660601108366
  0
ARC
  5
18CB7
  8
0
 10
5238.4905072615993049
 20
476.0937402922776869
 30
0.0
 40
0.0128523094905906
 50
301.4932063513742264
 51
350.2867539693988874
  0
ARC
  5
18CB8
  8
0
 10
5238.4814546994339253
 20
476.1085166635926953
 30
0.0
 40
0.03018118801716
 50
281.6212054239309168
 51
301.4932063513742264
  0
ARC
  5
18CB9
  8
0
 10
5238.4083671196676733
 20
476.4639037728784956
 30
0.0
 40
0.3930059277503054
 50
276.0904046443623088
 51
281.6212054239309168
  0
ARC
  5
18CBA
  8
0
 10
5238.3392575099787791
 20
477.1116052300704951
 30
0.0
 40
1.0443839407351181
 50
273.3753657652031848
 51
276.0904046443623088
  0
ARC
  5
18CBB
  8
0
 10
5237.8348312984780932
 20
485.6641748530136056
 30
0.0
 40
9.6118160506580654
 50
273.144167017935672
 51
273.3753657652031848
  0
ARC
  5
18CBC
  8
0
 10
5238.1095544340587367
 20
481.4220331280698133
 30
0.0
 40
5.3611535865387738
 50
270.7039158568865105
 51
272.69920736672168
  0
ARC
  5
18CBD
  8
0
 10
5238.0609001502198225
 20
484.3182703824268742
 30
0.0
 40
8.2577803453873422
 50
270.0157860835702195
 51
270.7945962792081218
  0
ARC
  5
18CBE
  8
0
 10
5238.0646076471002743
 20
468.4210955912304257
 30
0.0
 40
7.6844175153236263
 50
88.6076623610679945
 51
90.0106795232339891
  0
ARC
  5
18CBF
  8
0
 10
5238.1497801116265691
 20
471.9253189704954252
 30
0.0
 40
4.1791592023741924
 50
86.5302395575603782
 51
88.6076623610679945
  0
ARC
  5
18CC0
  8
0
 10
5238.3442067737660182
 20
475.1319397430315234
 30
0.0
 40
0.9666495127685427
 50
82.7801524990906188
 51
86.5302395575603782
  0
ARC
  5
18CC1
  8
0
 10
5238.4432916111063605
 20
475.9140979359769972
 30
0.0
 40
0.1782402004296664
 50
76.6858605628335113
 51
82.7801524990906188
  0
ARC
  5
18CC2
  8
0
 10
5238.4762728865498502
 20
476.053464917921076
 30
0.0
 40
0.0350238599301528
 50
64.455703925155035
 51
76.6858605628335113
  0
ARC
  5
18CC3
  8
0
 10
5238.4896205687828115
 20
476.081393328252318
 30
0.0
 40
0.004069753181305
 50
34.8212891974232122
 51
64.4557039251536281
  0
ARC
  5
18CC4
  8
0
 10
5238.4918671259492839
 20
476.0829559644470237
 30
0.0
 40
0.0013331766746633
 50
302.9508465264640904
 51
34.8212891974205405
  0
ARC
  5
18CC5
  8
0
 10
5238.4779607735208629
 20
476.1044101411661131
 30
0.0
 40
0.0269001150234805
 50
294.2500700742921254
 51
302.9508465264640904
  0
ARC
  5
18CC6
  8
0
 10
5238.4789122408383264
 20
476.1022979689444128
 30
0.0
 40
0.0245835309978491
 50
280.6933711322895988
 51
294.2500700742921254
  0
ARC
  5
18CC7
  8
0
 10
5238.0636054679280278
 20
469.1060189786988985
 30
0.0
 40
6.9968111735898457
 50
89.0266845415338679
 51
90.003522358603945
  0
ARC
  5
18CC8
  8
0
 10
5238.0933663240921305
 20
470.8577711063535958
 30
0.0
 40
5.2448062576999446
 50
87.9489297567798047
 51
89.0266845415338679
  0
ARC
  5
18CC9
  8
0
 10
5238.1818785591376582
 20
473.2635616650944144
 30
0.0
 40
2.8373901311782581
 50
86.50983697008202
 51
87.9964159359179092
  0
ARC
  5
18CCA
  8
0
 10
5238.2953834988602466
 20
475.0929839581338001
 30
0.0
 40
1.004452915442819
 50
82.8291640512142351
 51
86.6196061644272106
  0
ARC
  5
18CCB
  8
0
 10
5238.4067917808497441
 20
475.978495947405122
 30
0.0
 40
0.1119601768508883
 50
76.535870323055363
 51
82.8291640512142351
  0
ARC
  5
18CCC
  8
0
 10
5238.4198367274839256
 20
476.0329823120090964
 30
0.0
 40
0.0559339815452863
 50
69.1825103793758416
 51
76.535870323055363
  0
ARC
  5
18CCD
  8
0
 10
5238.4376490714557804
 20
476.079830554906323
 30
0.0
 40
0.0058137514942595
 50
45.782658664627192
 51
69.1825103793758416
  0
ARC
  5
18CCE
  8
0
 10
5238.440694032702595
 20
476.082959861719587
 30
0.0
 40
0.0014474773244935
 50
292.5372358977604108
 51
45.7826586646294729
  0
ARC
  5
18CCF
  8
0
 10
5238.4314844903683479
 20
476.0977773967517805
 30
0.0
 40
0.0188761531518077
 50
284.4132058236746161
 51
301.1502606469683201
  0
ARC
  5
18CD0
  8
0
 10
5238.3684966768405502
 20
476.392448743293528
 30
0.0
 40
0.3201894177265998
 50
273.9966377570945042
 51
282.2040959009077028
  0
ARC
  5
18CD1
  8
0
 10
5238.235969412783561
 20
477.8993928342019899
 30
0.0
 40
1.8329071593113559
 50
272.52429104238729
 51
274.8461174964003249
  0
ARC
  5
18CD2
  8
0
 10
5238.1033195550044184
 20
480.8564863965793279
 30
0.0
 40
4.7929741061723901
 50
270.7871160837019033
 51
272.5515709315483832
  0
ARC
  5
18CD3
  8
0
 10
5238.0639592405614167
 20
483.0559246599372045
 30
0.0
 40
6.9927515089101444
 50
269.993576926505682
 51
270.8620234310603792
  0
LINE
  5
18CD4
  8
0
 10
5238.1331753266676969
 20
476.1024842743768772
 30
0.0
 11
5238.1331752800388131
 21
476.0912284910046992
 31
0.0
  0
LINE
  5
18CD5
  8
0
 10
5238.1331752800388131
 20
476.0912284910046992
 30
0.0
 11
5238.2669812089252446
 21
476.0941188759948091
 31
0.0
  0
LINE
  5
18CD6
  8
0
 10
5238.2669812089252446
 20
476.0941188759948091
 30
0.0
 11
5238.2669810300812969
 21
476.0997030607645115
 31
0.0
  0
LINE
  5
18CD7
  8
0
 10
5238.2669812089252446
 20
476.0941188759948091
 30
0.0
 11
5238.238747547246021
 21
476.0956022152997775
 31
0.0
  0
LINE
  5
18CD8
  8
0
 10
5238.238747547246021
 20
476.0956022152997775
 30
0.0
 11
5238.238747547246021
 21
476.1005620597259167
 31
0.0
  0
LINE
  5
18CD9
  8
0
 10
5238.238747547246021
 20
476.0956022152997775
 30
0.0
 11
5238.1331694271339074
 21
476.0933132195654025
 31
0.0
  0
ENDSEC
  0
EOF
