  0
SECTION
  2
HEADER
  9
$ACADVER
  1
AC1009
  9
$INSBASE
 10
5254.458595116878314
 20
477.9458003450242245
 30
0.0
  9
$EXTMIN
 10
5247.5264930247385564
 20
472.1777675972923021
 30
-0.0000000349181948
  9
$EXTMAX
 10
5261.5759817841435506
 20
479.0857600005103905
 30
0.0000000814935746
  9
$LIMMIN
 10
0.0
 20
0.0
  9
$LIMMAX
 10
11.6929133858000007
 20
8.2677165353999982
  9
$ORTHOMODE
 70
     0
  9
$REGENMODE
 70
     1
  9
$FILLMODE
 70
     1
  9
$QTEXTMODE
 70
     0
  9
$MIRRTEXT
 70
     0
  9
$DRAGMODE
 70
     2
  9
$LTSCALE
 40
0.6431102362
  9
$OSMODE
 70
  4095
  9
$ATTMODE
 70
     1
  9
$TEXTSIZE
 40
0.2
  9
$TRACEWID
 40
0.05
  9
$TEXTSTYLE
  7
STANDARD
  9
$CLAYER
  8
0
  9
$CELTYPE
  6
BYLAYER
  9
$CECOLOR
 62
   256
  9
$DIMSCALE
 40
1.0
  9
$DIMASZ
 40
0.1875
  9
$DIMEXO
 40
0.0625
  9
$DIMDLI
 40
0.4443307087
  9
$DIMRND
 40
0.0
  9
$DIMDLE
 40
0.0
  9
$DIMEXE
 40
0.125
  9
$DIMTP
 40
0.01
  9
$DIMTM
 40
0.01
  9
$DIMTXT
 40
2.0
  9
$DIMCEN
 40
0.1052362205
  9
$DIMTSZ
 40
0.0
  9
$DIMTOL
 70
     1
  9
$DIMLIM
 70
     0
  9
$DIMTIH
 70
     1
  9
$DIMTOH
 70
     1
  9
$DIMSE1
 70
     0
  9
$DIMSE2
 70
     0
  9
$DIMTAD
 70
     0
  9
$DIMZIN
 70
     0
  9
$DIMBLK
  1

  9
$DIMASO
 70
     1
  9
$DIMSHO
 70
     1
  9
$DIMPOST
  1
\X
  9
$DIMAPOST
  1

  9
$DIMALT
 70
     1
  9
$DIMALTD
 70
     2
  9
$DIMALTF
 40
25.3999999999999986
  9
$DIMLFAC
 40
1.0
  9
$DIMTOFL
 70
     0
  9
$DIMTVP
 40
0.0
  9
$DIMTIX
 70
     0
  9
$DIMSOXD
 70
     0
  9
$DIMSAH
 70
     0
  9
$DIMBLK1
  1

  9
$DIMBLK2
  1

  9
$DIMSTYLE
  2
STANDARD
  9
$DIMCLRD
 70
     0
  9
$DIMCLRE
 70
     0
  9
$DIMCLRT
 70
     0
  9
$DIMTFAC
 40
1.0
  9
$DIMGAP
 40
0.09
  9
$LUNITS
 70
     2
  9
$LUPREC
 70
     4
  9
$SKETCHINC
 40
0.1
  9
$FILLETRAD
 40
0.0
  9
$AUNITS
 70
     0
  9
$AUPREC
 70
     0
  9
$MENU
  1
.
  9
$ELEVATION
 40
0.0
  9
$PELEVATION
 40
0.0
  9
$THICKNESS
 40
0.0
  9
$LIMCHECK
 70
     0
  9
$BLIPMODE
 70
     0
  9
$CHAMFERA
 40
0.0
  9
$CHAMFERB
 40
0.0
  9
$SKPOLY
 70
     0
  9
$TDCREATE
 40
2458060.468368056230247
  9
$TDUPDATE
 40
2460111.5191898150369525
  9
$TDINDWG
 40
0.664358912
  9
$TDUSRTIMER
 40
0.664358912
  9
$USRTIMER
 70
     1
  9
$ANGBASE
 50
0.0
  9
$ANGDIR
 70
     0
  9
$PDMODE
 70
     0
  9
$PDSIZE
 40
0.3125
  9
$PLINEWID
 40
0.0
  9
$COORDS
 70
     1
  9
$SPLFRAME
 70
     0
  9
$SPLINETYPE
 70
     6
  9
$SPLINESEGS
 70
     8
  9
$ATTDIA
 70
     1
  9
$ATTREQ
 70
     1
  9
$HANDLING
 70
     1
  9
$HANDSEED
  5
190A4
  9
$SURFTAB1
 70
     6
  9
$SURFTAB2
 70
     6
  9
$SURFTYPE
 70
     6
  9
$SURFU
 70
     6
  9
$SURFV
 70
     6
  9
$UCSNAME
  2

  9
$UCSORG
 10
0.0
 20
0.0
 30
0.0
  9
$UCSXDIR
 10
1.0
 20
0.0
 30
0.0
  9
$UCSYDIR
 10
0.0
 20
1.0
 30
0.0
  9
$PUCSNAME
  2

  9
$PUCSORG
 10
0.0
 20
0.0
 30
0.0
  9
$PUCSXDIR
 10
1.0
 20
0.0
 30
0.0
  9
$PUCSYDIR
 10
0.0
 20
1.0
 30
0.0
  9
$USERI1
 70
     0
  9
$USERI2
 70
     0
  9
$USERI3
 70
     0
  9
$USERI4
 70
     0
  9
$USERI5
 70
     0
  9
$USERR1
 40
0.0
  9
$USERR2
 40
0.0
  9
$USERR3
 40
0.0
  9
$USERR4
 40
0.0
  9
$USERR5
 40
0.0
  9
$WORLDVIEW
 70
     1
  9
$SHADEDGE
 70
     3
  9
$SHADEDIF
 70
    70
  9
$TILEMODE
 70
     1
  9
$MAXACTVP
 70
    64
  9
$PLIMCHECK
 70
     0
  9
$PEXTMIN
 10
1.0000000000000000E+20
 20
1.0000000000000000E+20
 30
1.0000000000000000E+20
  9
$PEXTMAX
 10
-1.0000000000000000E+20
 20
-1.0000000000000000E+20
 30
-1.0000000000000000E+20
  9
$PLIMMIN
 10
0.0
 20
0.0
  9
$PLIMMAX
 10
12.0
 20
9.0
  9
$UNITMODE
 70
     0
  9
$VISRETAIN
 70
     1
  9
$PLINEGEN
 70
     0
  9
$PSLTSCALE
 70
     1
  0
ENDSEC
  0
SECTION
  2
TABLES
  0
TABLE
  2
VPORT
 70
     1
  0
VPORT
  2
*ACTIVE
 70
     0
 10
0.0
 20
0.0
 11
1.0
 21
1.0
 12
1451.0071700216290083
 22
349.6365016021513838
 13
0.0
 23
0.0
 14
1.0
 24
1.0
 15
0.0
 25
0.0
 16
0.0
 26
0.0
 36
17.1152628219792007
 17
3803.5440673828129547
 27
125.9952621967499056
 37
0.0
 40
6.9627453152646694
 41
2.5251322751322749
 42
50.0
 43
0.0
 44
0.0
 50
0.0
 51
0.0
 71
     0
 72
   100
 73
     1
 74
     1
 75
     0
 76
     0
 77
     0
 78
     0
  0
ENDTAB
  0
TABLE
  2
LTYPE
 70
     2
  0
LTYPE
  2
CONTINUOUS
 70
     0
  3
Solid line
 72
    65
 73
     0
 40
0.0
  0
LTYPE
  2
PHANTOM2
 70
     0
  3
___ _ _ ___ _ _ ___ _ _ ___ _ _
 72
    65
 73
     6
 40
1.25
 49
0.625
 49
-0.125
 49
0.125
 49
-0.125
 49
0.125
 49
-0.125
  0
ENDTAB
  0
TABLE
  2
LAYER
 70
     2
  0
LAYER
  2
0
 70
     0
 62
   255
  6
CONTINUOUS
  0
LAYER
  2
DEFPOINTS
 70
     0
 62
     7
  6
CONTINUOUS
  0
ENDTAB
  0
TABLE
  2
STYLE
 70
     1
  0
STYLE
  2
STANDARD
 70
     0
 40
0.0
 41
0.8
 50
0.0
 71
     0
 42
0.2
  3
txt
  4

  0
ENDTAB
  0
TABLE
  2
VIEW
 70
     0
  0
ENDTAB
  0
TABLE
  2
UCS
 70
     0
  0
ENDTAB
  0
TABLE
  2
APPID
 70
    10
  0
APPID
  2
ACAD
 70
     0
  0
APPID
  2
ACAD_MLEADERVER
 70
     0
  0
APPID
  2
ACAD_EXEMPT_FROM_CAD_STANDARDS
 70
     0
  0
APPID
  2
ACAD_NAV_VCDISPLAY
 70
     0
  0
APPID
  2
ACAECLAYERSTANDARD
 70
     0
  0
APPID
  2
ACCMTRANSPARENCY
 70
     0
  0
APPID
  2
ACAD_DSTYLE_DIMJAG
 70
     0
  0
APPID
  2
ACAD_DSTYLE_DIMTALN
 70
     0
  0
APPID
  2
ACDBATTR
 70
     0
  0
APPID
  2
ACADANNOTATIVE
 70
     0
  0
ENDTAB
  0
TABLE
  2
DIMSTYLE
 70
     2
  0
DIMSTYLE
  2
STANDARD
 70
     0
  3

  4

  5

  6

  7

 40
1.0
 41
0.1875
 42
0.0625
 43
0.38
 44
0.125
 45
0.0
 46
0.0
 47
0.01
 48
0.01
140
0.15625
141
0.09
142
0.0
143
25.3999999999999986
144
1.0
145
0.0
146
1.0
147
0.09
 71
     1
 72
     0
 73
     1
 74
     1
 75
     0
 76
     0
 77
     0
 78
     4
170
     0
171
     2
172
     0
173
     0
174
     0
175
     0
176
     0
177
     0
178
     0
  0
DIMSTYLE
  2
ANNOTATIVE
 70
     0
  3

  4

  5

  6

  7

 40
0.0
 41
0.18
 42
0.0625
 43
0.38
 44
0.18
 45
0.0
 46
0.0
 47
0.0
 48
0.0
140
0.18
141
0.09
142
0.0
143
25.3999999999999986
144
1.0
145
0.0
146
1.0
147
0.09
 71
     0
 72
     0
 73
     1
 74
     1
 75
     0
 76
     0
 77
     0
 78
     0
170
     0
171
     2
172
     0
173
     0
174
     0
175
     0
176
     0
177
     0
178
     0
  0
ENDTAB
  0
ENDSEC
  0
SECTION
  2
BLOCKS
  0
BLOCK
  8
0
  2
$MODEL_SPACE
 70
     0
 10
0.0
 20
0.0
 30
0.0
  3
$MODEL_SPACE
  1

  0
ENDBLK
  5
21
  8
0
  0
BLOCK
 67
     1
  8
0
  2
$PAPER_SPACE
 70
     0
 10
0.0
 20
0.0
 30
0.0
  3
$PAPER_SPACE
  1

  0
ENDBLK
  5
1D
 67
     1
  8
0
  0
BLOCK
  8
0
  2
_FILLED
 70
     0
 10
0.0
 20
0.0
 30
0.0
  3
_FILLED
  1

  0
SOLID
  5
13053
  8
0
  6
BYBLOCK
 62
     0
 10
0.0
 20
0.0
 30
0.0
 11
-1.0
 21
0.1666666667
 31
0.0
 12
-1.0
 22
-0.1666666667
 32
0.0
 13
-1.0
 23
-0.1666666667
 33
0.0
  0
ENDBLK
  5
13054
  8
0
  6
BYBLOCK
 62
     0
  0
ENDSEC
  0
SECTION
  2
ENTITIES
  0
ATTDEF
  5
3930
  8
DEFPOINTS
 10
5254.4493580066828144
 20
477.9439523409798198
 30
0.0
 40
0.001
  1
P40875-BL
  3

  2
MODELNUMBER
 70
     0
1001
ACDBATTR
1070
     0
1070
     1
  0
ATTDEF
  5
3931
  8
DEFPOINTS
 10
5254.4493580066828144
 20
477.9422856743129842
 30
0.0
 40
0.001
  1
ONE
  3

  2
TRADENAME
 70
     0
1001
ACDBATTR
1070
     0
1070
     1
  0
ATTDEF
  5
3932
  8
DEFPOINTS
 10
5254.4493580066828144
 20
477.9406190076463758
 30
0.0
 40
0.001
  1
BATHROOM SINK FAUCET
  3

  2
PRODUCT
 70
     0
1001
ACDBATTR
1070
     0
1070
     1
  0
ARC
  5
18E80
  8
0
 10
5258.458595116878314
 20
477.9458003450242245
 30
0.0
 40
1.125
 50
20.9485515009602707
 51
339.0964678720599181
  0
ARC
  5
18E81
  8
0
 10
5259.0305096882893849
 20
478.3336239720662775
 30
0.0
 40
0.0141766886775609
 50
6.6264327833759902
 51
89.6176141451057902
  0
ARC
  5
18E82
  8
0
 10
5259.0305057463592675
 20
477.5579660698927
 30
0.0
 40
0.0141660661155941
 50
270.3976934187389816
 51
353.9025922831821731
  0
LINE
  5
18E83
  8
0
 10
5259.0445916715098065
 20
477.5538405326183238
 30
0.0
 11
5259.0445916715098065
 21
478.3374067414803221
 31
0.0
  0
LINE
  5
18E84
  8
0
 10
5261.2445916715087151
 20
477.5551151254803131
 30
0.0
 11
5261.2445916715087151
 21
478.3374067414803221
 31
0.0
  0
ARC
  5
18E85
  8
0
 10
5261.2345916715094063
 20
478.3374067414803221
 30
0.0
 40
0.01
 50
359.9999999999968168
 51
90.0
  0
ARC
  5
18E86
  8
0
 10
5261.2330164110308033
 20
477.5557676197349224
 30
0.0
 40
0.0115936363538384
 50
277.8090959131469049
 51
356.7736670253347029
  0
LINE
  5
18E87
  8
0
 10
5259.0545951168778629
 20
478.3481829019876841
 30
0.0
 11
5261.2345916715094063
 21
478.347406741480313
 31
0.0
  0
ARC
  5
18E88
  8
0
 10
5259.0546156808095475
 20
478.3381326630964736
 30
0.0
 40
0.0100502599293134
 50
90.1172335194287086
 51
184.142031660375892
  0
LINE
  5
18E89
  8
0
 10
5259.0545985475109774
 20
477.5444379586194827
 30
0.0
 11
5261.2345916715094063
 21
477.5442814994876812
 31
0.0
  0
ARC
  5
18E8A
  8
0
 10
5259.054611302950434
 20
477.55447782904929
 30
0.0
 40
0.0100398785325516
 50
183.6393828158342103
 51
269.9272069853006997
  0
ARC
  5
18E8B
  8
0
 10
5259.4602516368113356
 20
474.1824317220102785
 30
0.0
 40
4.1683688655337319
 50
92.312225036940518
 51
95.5982593769183779
  0
ARC
  5
18E8C
  8
0
 10
5259.0545916715100248
 20
478.3209666819196855
 30
0.0
 40
0.01
 50
95.5982593769183779
 51
180.0
  0
ARC
  5
18E8D
  8
0
 10
5259.4831298743101797
 20
475.1776538912798742
 30
0.0
 40
3.1707428044003829
 50
91.4317789522609985
 51
97.7922456770162682
  0
ARC
  5
18E8E
  8
0
 10
5259.0545916715100248
 20
478.3092110254082172
 30
0.0
 40
0.01
 50
97.7922456770162682
 51
180.0000000000032117
  0
ARC
  5
18E8F
  8
0
 10
5259.7711724210657849
 20
474.3990884984235095
 30
0.0
 40
3.9530035386008469
 50
92.7898793934033392
 51
100.4708202269401056
  0
ARC
  5
18E90
  8
0
 10
5259.0545916715100248
 20
478.2764315235870072
 30
0.0
 40
0.01
 50
100.4708202269401056
 51
180.0
  0
ARC
  5
18E91
  8
0
 10
5259.8978852542577442
 20
474.5415922578691266
 30
0.0
 40
3.8075709298349518
 50
91.740394709599272
 51
102.7617792333158064
  0
ARC
  5
18E92
  8
0
 10
5259.0545916715100248
 20
478.2648574562689987
 30
0.0
 40
0.01
 50
180.0
 51
282.7617792333159059
  0
ARC
  5
18E93
  8
0
 10
5260.1102024546980829
 20
474.2482032134853966
 30
0.0
 40
4.1067513191855509
 50
95.2081692286253372
 51
104.9318655894604007
  0
ARC
  5
18E94
  8
0
 10
5259.7518470167151463
 20
478.1796561075436784
 30
0.0
 40
0.159
 50
91.5357416139069358
 51
95.2081692286253372
  0
ARC
  5
18E95
  8
0
 10
5259.0545916715100248
 20
478.2066192155832027
 30
0.0
 40
0.01
 50
104.9318655894604007
 51
180.0
  0
ARC
  5
18E96
  8
0
 10
5260.233859361517716
 20
474.2962846106929078
 30
0.0
 40
4.0549277323491726
 50
97.1312224433938241
 51
106.8644165648717035
  0
ARC
  5
18E97
  8
0
 10
5259.0545916715100248
 20
478.1863958153405747
 30
0.0
 40
0.01
 50
180.0000000000032117
 51
286.8644165648717035
  0
ARC
  5
18E98
  8
0
 10
5259.7502102664257109
 20
478.1620751441420794
 30
0.0
 40
0.159
 50
92.0549024436823515
 51
97.1312224433938241
  0
ARC
  5
18E99
  8
0
 10
5261.3296921732107876
 20
469.5985169689350869
 30
0.0
 40
8.8459171538472212
 50
100.3706274332846959
 51
104.8863012879474041
  0
ARC
  5
18E9A
  8
0
 10
5259.0545916715100248
 20
478.157207659862479
 30
0.0
 40
0.01
 50
180.0
 51
284.8863012879465941
  0
ARC
  5
18E9B
  8
0
 10
5259.7659176886281784
 20
478.1435236394519279
 30
0.0
 40
0.159
 50
92.8459910762739327
 51
100.3706274332846959
  0
ARC
  5
18E9C
  8
0
 10
5261.3678754633310746
 20
469.9007059523748921
 30
0.0
 40
8.5560996296121097
 50
101.028210186636997
 51
105.7049127069872014
  0
ARC
  5
18E9D
  8
0
 10
5259.0545916715100248
 20
478.1277672124938931
 30
0.0
 40
0.01
 50
105.7049127069864056
 51
180.0
  0
ARC
  5
18E9E
  8
0
 10
5260.9974339793998297
 20
472.4494813277785283
 30
0.0
 40
5.967062777008648
 50
102.3292077646252949
 51
108.9685845068867991
  0
ARC
  5
18E9F
  8
0
 10
5259.0545916715100248
 20
478.10197132838681
 30
0.0
 40
0.01
 50
179.9999999999934914
 51
288.9685845068859749
  0
ARC
  5
18EA0
  8
0
 10
5259.7572474607286495
 20
478.1235918854413853
 30
0.0
 40
0.159
 50
93.6938053804058484
 51
102.3292077646252949
  0
ARC
  5
18EA1
  8
0
 10
5261.1595159771450199
 20
471.5414206004687117
 30
0.0
 40
6.8467532956804718
 50
102.0552299889561993
 51
107.8776603929203048
  0
ARC
  5
18EA2
  8
0
 10
5259.0545916715100248
 20
478.0670898707713832
 30
0.0
 40
0.01
 50
180.0
 51
287.8776603929201769
  0
ARC
  5
18EA3
  8
0
 10
5259.7627487755444236
 20
478.081687072748025
 30
0.0
 40
0.159
 50
94.4416899851488552
 51
102.0552299889561993
  0
ARC
  5
18EA4
  8
0
 10
5261.4944151733061517
 20
470.4043707116645123
 30
0.0
 40
8.0237909624013817
 50
102.598893498787902
 51
107.7252641308631951
  0
ARC
  5
18EA5
  8
0
 10
5259.0545916715100248
 20
478.0377256011707914
 30
0.0
 40
0.01
 50
107.7252641308645025
 51
180.0
  0
ARC
  5
18EA6
  8
0
 10
5259.778912407829921
 20
478.079785172390018
 30
0.0
 40
0.159
 50
94.602685444758734
 51
102.598893498787902
  0
ARC
  5
18EA7
  8
0
 10
5262.4893481159251678
 20
468.7072015391923969
 30
0.0
 40
9.8930638976236196
 50
106.2534553803681945
 51
110.294019565019596
  0
ARC
  5
18EA8
  8
0
 10
5259.0545916715100248
 20
477.9955341520980028
 30
0.0
 40
0.01
 50
180.0
 51
290.2940195650207897
  0
ARC
  5
18EA9
  8
0
 10
5259.7649110305756039
 20
478.0522238789728817
 30
0.0
 40
0.159
 50
95.094639456731187
 51
106.2534553803681945
  0
ARC
  5
18EAA
  8
0
 10
5263.5413785372647908
 20
464.5024272475715748
 30
0.0
 40
14.1770274071043705
 50
105.6023093353414026
 51
108.436885296315296
  0
ARC
  5
18EAB
  8
0
 10
5259.0545916715100248
 20
477.9612715616726746
 30
0.0
 40
0.01
 50
180.0
 51
288.4368852963153813
  0
ARC
  5
18EAC
  8
0
 10
5259.7711089342328705
 20
478.0039145547823978
 30
0.0
 40
0.159
 50
95.2879035213170198
 51
105.6023093353414026
  0
ARC
  5
18EAD
  8
0
 10
5269.4755517807398064
 20
449.7226931161080756
 30
0.0
 40
30.018831961528349
 50
108.9674366637818963
 51
110.3058748543374037
  0
ARC
  5
18EAE
  8
0
 10
5259.0545916715100248
 20
477.8853339613045819
 30
0.0
 40
0.01
 50
180.0
 51
290.3058748543408001
  0
ARC
  5
18EAF
  8
0
 10
5259.7701888511892321
 20
477.9612393813890776
 30
0.0
 40
0.159
 50
96.019240781514597
 51
108.9674366637818963
  0
ARC
  5
18EB0
  8
0
 10
5253.3322159643867053
 20
496.095575212355925
 30
0.0
 40
19.1270756228693095
 50
287.4175588811274906
 51
289.520219402802411
  0
ARC
  5
18EB1
  8
0
 10
5259.0545916715100248
 20
477.8550435140463151
 30
0.0
 40
0.01
 50
180.0000000000032117
 51
287.4175588811842772
  0
ARC
  5
18EB2
  8
0
 10
5259.7764554767236405
 20
477.9179931388601972
 30
0.0
 40
0.159
 50
95.5041719608282165
 51
109.5202194028023968
  0
ARC
  5
18EB3
  8
0
 10
5252.646217580116172
 20
498.161100131930084
 30
0.0
 40
21.3107690359777493
 50
287.4918152039888923
 51
289.4029760005652747
  0
ARC
  5
18EB4
  8
0
 10
5259.0545916715100248
 20
477.8262056451064836
 30
0.0
 40
0.01
 50
107.4918152039332995
 51
180.0
  0
ARC
  5
18EB5
  8
0
 10
5259.7786922003197105
 20
477.9106979569024247
 30
0.0
 40
0.159
 50
95.2981360848610564
 51
109.4029760005653031
  0
ARC
  5
18EB6
  8
0
 10
5245.0558912269752909
 20
518.4008303297905513
 30
0.0
 40
42.9432698669328303
 50
289.0296355753894773
 51
289.987666438946917
  0
ARC
  5
18EB7
  8
0
 10
5259.0545916715100248
 20
477.8138613947853059
 30
0.0
 40
0.01
 50
180.0000000000032117
 51
289.0296355753903867
  0
ARC
  5
18EB8
  8
0
 10
5259.7890167014602412
 20
477.8947729872767809
 30
0.0
 40
0.159
 50
96.3983970712079241
 51
109.987666438947798
  0
ARC
  5
18EB9
  8
0
 10
5238.4350734000181546
 20
536.9844717144793549
 30
0.0
 40
62.7005761691371717
 50
289.2025924089533078
 51
289.8433461614097268
  0
ARC
  5
18EBA
  8
0
 10
5259.0545916715100248
 20
477.7819058353724131
 30
0.0
 40
0.01
 50
180.0
 51
289.2025924089576279
  0
ARC
  5
18EBB
  8
0
 10
5259.7727333236298364
 20
477.8572310791524842
 30
0.0
 40
0.159
 50
96.6766670882380481
 51
109.8433461614096984
  0
ARC
  5
18EBC
  8
0
 10
5275.9653491871686128
 20
426.8272420352680001
 30
0.0
 40
53.6618326553195217
 50
107.6128309130643999
 51
108.3654594606134935
  0
ARC
  5
18EBD
  8
0
 10
5259.0545916715100248
 20
477.7653603831931264
 30
0.0
 40
0.01
 50
179.9999999999934914
 51
288.3654594605620218
  0
ARC
  5
18EBE
  8
0
 10
5259.7762832605758376
 20
477.8220186949179151
 30
0.0
 40
0.159
 50
96.0085733303603206
 51
107.6128309130643999
  0
ARC
  5
18EBF
  8
0
 10
5295.1968035414793121
 20
367.5362055266369907
 30
0.0
 40
115.985095395021105
 50
107.8053132742523985
 51
108.1579535835711994
  0
ARC
  5
18EC0
  8
0
 10
5259.0545916715100248
 20
477.7358574000911062
 30
0.0
 40
0.01
 50
108.157953583518605
 51
179.9999999999934914
  0
ARC
  5
18EC1
  8
0
 10
5259.7790832868076905
 20
477.8143514414932156
 30
0.0
 40
0.159
 50
96.0477262123767304
 51
107.8053132742511053
  0
ARC
  5
18EC2
  8
0
 10
5256.5076429674118117
 20
486.4193259329534271
 30
0.0
 40
9.0770045164868343
 50
286.3141055218735005
 51
290.8198646456904157
  0
ARC
  5
18EC3
  8
0
 10
5259.0545916715100248
 20
477.7173937796504788
 30
0.0
 40
0.01
 50
180.0
 51
286.3141055218746942
  0
ARC
  5
18EC4
  8
0
 10
5259.7904057354289762
 20
477.7864093900063835
 30
0.0
 40
0.159
 50
96.6778540641027604
 51
110.8198646456904015
  0
ARC
  5
18EC5
  8
0
 10
5256.6555368474682837
 20
486.1446038898113216
 30
0.0
 40
8.7978399206131517
 50
285.8426899638192253
 51
290.3697787850913983
  0
ARC
  5
18EC6
  8
0
 10
5259.0545916715100248
 20
477.690571335960783
 30
0.0
 40
0.01
 50
180.0
 51
285.8426899638221244
  0
ARC
  5
18EC7
  8
0
 10
5259.7732123731193496
 20
477.7478735332827
 30
0.0
 40
0.159
 50
96.6956766872594216
 51
110.3697787850912988
  0
ARC
  5
18EC8
  8
0
 10
5254.3458467199852748
 20
494.8791911134882753
 30
0.0
 40
17.8355636792113792
 50
285.3168593836687137
 51
287.5609676649156086
  0
ARC
  5
18EC9
  8
0
 10
5259.0545916715100248
 20
477.6867962406639094
 30
0.0
 40
0.01
 50
179.9999999999934914
 51
285.3168593837215212
  0
ARC
  5
18ECA
  8
0
 10
5259.7751748658238284
 20
477.723238272273079
 30
0.0
 40
0.159
 50
94.7480757602206438
 51
107.5609676649155944
  0
ARC
  5
18ECB
  8
0
 10
5257.7349199461032185
 20
483.957970648016726
 30
0.0
 40
6.4091390104364683
 50
283.5407972803400867
 51
288.1252551156013055
  0
ARC
  5
18ECC
  8
0
 10
5259.7782375977749325
 20
477.7157512482536958
 30
0.0
 40
0.159
 50
94.8464554961719273
 51
108.1252551156013055
  0
ARC
  5
18ECD
  8
0
 10
5294.5025627178301875
 20
359.1324009398381918
 30
0.0
 40
123.6828455334745058
 50
106.3224500728523054
 51
106.6533523925672995
  0
ARC
  5
18ECE
  8
0
 10
5259.0545916715100248
 20
477.6370902346811818
 30
0.0
 40
0.01
 50
180.0
 51
286.6533523926191265
  0
ARC
  5
18ECF
  8
0
 10
5259.7870795447870478
 20
477.6776481808806238
 30
0.0
 40
0.159
 50
96.4260791469914977
 51
106.3224500728523054
  0
ARC
  5
18ED0
  8
0
 10
5257.8915457349503413
 20
483.1348736785923847
 30
0.0
 40
5.6471920648368457
 50
281.9065786443164825
 51
288.8835178679191245
  0
ARC
  5
18ED1
  8
0
 10
5259.0545916715100248
 20
477.6189640958206155
 30
0.0
 40
0.01
 50
180.0
 51
281.9065786443172783
  0
ARC
  5
18ED2
  8
0
 10
5259.7706921988310569
 20
477.6411795788940822
 30
0.0
 40
0.159
 50
96.2079009337485758
 51
108.883517867919096
  0
ARC
  5
18ED3
  8
0
 10
5256.801317167032721
 20
488.1191211240035841
 30
0.0
 40
10.7507665560798795
 50
282.1098773492512919
 51
285.8209192496996138
  0
ARC
  5
18ED4
  8
0
 10
5259.0545916715100248
 20
477.6173679265760939
 30
0.0
 40
0.01
 50
180.0
 51
282.109877349302792
  0
ARC
  5
18ED5
  8
0
 10
5259.7756636688636718
 20
477.6226327019072073
 30
0.0
 40
0.159
 50
95.810027390642901
 51
105.8209192496988038
  0
ARC
  5
18ED6
  8
0
 10
5258.4691072900541258
 20
481.730197529574923
 30
0.0
 40
4.1973822072029581
 50
278.0374941438516885
 51
287.5786385953115882
  0
ARC
  5
18ED7
  8
0
 10
5259.0545916715100248
 20
477.5839488891444944
 30
0.0
 40
0.01
 50
180.0
 51
278.0374941439034728
  0
ARC
  5
18ED8
  8
0
 10
5259.7847978609734128
 20
477.5772438509471272
 30
0.0
 40
0.159
 50
95.7501644622250438
 51
107.5786385953116024
  0
ARC
  5
18ED9
  8
0
 10
5258.6846500150795691
 20
481.0923521656624757
 30
0.0
 40
3.5493324971781481
 50
275.9996853485876045
 51
286.9575563408113226
  0
ARC
  5
18EDA
  8
0
 10
5259.0545916715100248
 20
477.5724064705673868
 30
0.0
 40
0.01
 50
180.0
 51
275.9996853485876045
  0
ARC
  5
18EDB
  8
0
 10
5259.7662341808882047
 20
477.5452539710956898
 30
0.0
 40
0.159
 50
95.3629557838052619
 51
106.9575563408111947
  0
ARC
  5
18EDC
  8
0
 10
5258.9010048540521893
 20
481.0124860849920765
 30
0.0
 40
3.468997137456999
 50
272.4345039647984095
 51
283.9940657801457178
  0
ARC
  5
18EDD
  8
0
 10
5259.7783321979413813
 20
477.492165082432507
 30
0.0
 40
0.159
 50
94.6390421542414231
 51
103.9940657801456041
  0
ARC
  5
18EDE
  8
0
 10
5259.0316389567196893
 20
480.6733283939278181
 30
0.0
 40
3.1285396861402979
 50
270.3683723610503762
 51
282.775464934868296
  0
ARC
  5
18EDF
  8
0
 10
5259.7586155700364543
 20
477.4671745935560239
 30
0.0
 40
0.159
 50
94.150718324483833
 51
102.775464934868296
  0
ARC
  5
18EE0
  8
0
 10
5259.2193378479059902
 20
480.8143425453141049
 30
0.0
 40
3.2707036075596871
 50
271.7214886591764866
 51
279.230119749953019
  0
ARC
  5
18EE1
  8
0
 10
5259.7694626223046725
 20
477.4290464625020718
 30
0.0
 40
0.159
 50
94.0051161046306163
 51
99.2301197499530758
  0
ARC
  5
18EE2
  8
0
 10
5272.2984996479508482
 20
440.8881671087466998
 30
0.0
 40
39.3188179299133225
 50
108.6346089531244985
 51
109.689305169379395
  0
ARC
  5
18EE3
  8
0
 10
5259.0545916715100248
 20
477.8987340938476223
 30
0.0
 40
0.01
 50
109.6893051693814982
 51
180.0
  0
ARC
  5
18EE4
  8
0
 10
5259.7856948366552388
 20
477.9950540174914977
 30
0.0
 40
0.159
 50
95.642326221421996
 51
108.6346089531244985
  0
ARC
  5
18EE5
  8
0
 10
5259.3252366363631154
 20
480.634231303286299
 30
0.0
 40
3.089929067325043
 50
271.3142822992704168
 51
277.3775945714882027
  0
ARC
  5
18EE6
  8
0
 10
5259.7424244547310082
 20
477.4121986515716003
 30
0.0
 40
0.159
 50
92.3245280013652661
 51
97.377594571488217
  0
ARC
  5
18EE7
  8
0
 10
5259.5367269555399616
 20
480.6208691049424147
 30
0.0
 40
3.076628109099012
 50
271.3658353038684936
 51
273.9601631442661187
  0
ARC
  5
18EE8
  8
0
 10
5259.7601887071023157
 20
477.3929666736443096
 30
0.0
 40
0.159
 50
91.3253863778863888
 51
93.9601631442660761
  0
ARC
  5
18EE9
  8
0
 10
5260.4161137541523203
 20
453.4029845626915858
 30
0.0
 40
24.9445744968710912
 50
90.2002283335998953
 51
91.5357416139069358
  0
ARC
  5
18EEA
  8
0
 10
5261.1060863309621709
 20
440.3730965680724125
 30
0.0
 40
37.972295303702829
 50
90.5076827919111935
 51
92.0549024436823515
  0
ARC
  5
18EEB
  8
0
 10
5262.6813301025631517
 20
419.4984260661946109
 30
0.0
 40
58.8765195228833207
 50
91.7524933417716824
 51
92.8459910762739327
  0
ARC
  5
18EEC
  8
0
 10
5261.7862871646948406
 20
446.6941330183590253
 30
0.0
 40
31.6538866770130909
 50
90.9989741538783363
 51
93.6938053804058484
  0
ARC
  5
18EED
  8
0
 10
5261.2345916715094063
 20
478.3332100610043085
 30
0.0
 40
0.01
 50
0.0
 51
90.9989741538783363
  0
ARC
  5
18EEE
  8
0
 10
5262.6796842970079524
 20
440.5299521520487929
 30
0.0
 40
37.8238550825676825
 50
92.1901463181648637
 51
94.4416899851488552
  0
ARC
  5
18EEF
  8
0
 10
5261.2345916715094063
 20
478.3161843472433929
 30
0.0
 40
0.01
 50
0.0
 51
92.1901463181126957
  0
ARC
  5
18EF0
  8
0
 10
5262.5875622972453129
 20
443.1920053833886755
 30
0.0
 40
35.1596527483010703
 50
92.205958115754882
 51
94.602685444758734
  0
ARC
  5
18EF1
  8
0
 10
5261.2345916715094063
 20
478.3156093956771997
 30
0.0
 40
0.01
 50
0.0
 51
92.205958115754882
  0
ARC
  5
18EF2
  8
0
 10
5262.8782151400082512
 20
443.131436286072983
 30
0.0
 40
35.2182936121970585
 50
92.6757027019400539
 51
95.094639456731187
  0
ARC
  5
18EF3
  8
0
 10
5261.2345916715094063
 20
478.301344460199175
 30
0.0
 40
0.01
 50
0.0
 51
92.6757027019400539
  0
ARC
  5
18EF4
  8
0
 10
5264.0915571973564511
 20
431.3237476513041884
 30
0.0
 40
47.0386784900547497
 50
93.4828305571429325
 51
95.2879035213170198
  0
ARC
  5
18EF5
  8
0
 10
5261.2345916715094063
 20
478.265566411393479
 30
0.0
 40
0.01
 50
0.0000000000065138
 51
93.4828305571951148
  0
ARC
  5
18EF6
  8
0
 10
5265.0477251465763402
 20
424.7338834959102769
 30
0.0
 40
53.6794750381709491
 50
94.30359742268773
 51
95.642326221421996
  0
ARC
  5
18EF7
  8
0
 10
5265.0072499683546994
 20
428.2943788400698963
 30
0.0
 40
50.1012050491942773
 50
94.3193666188864484
 51
96.019240781514597
  0
ARC
  5
18EF8
  8
0
 10
5261.2345916715094063
 20
478.2433114878820106
 30
0.0
 40
0.01
 50
0.0
 51
94.3193666188864484
  0
ARC
  5
18EF9
  8
0
 10
5267.6218886700207804
 20
396.502192620782921
 30
0.0
 40
81.9519299878043626
 50
94.4706877389885875
 51
95.5041719608282165
  0
ARC
  5
18EFA
  8
0
 10
5261.2345916715094063
 20
478.1948013879107862
 30
0.0
 40
0.01
 50
0.0
 51
94.4706877390931368
  0
ARC
  5
18EFB
  8
0
 10
3628.3605997127019691
 20
18070.2860728141313302
 30
0.0
 40
17667.698717402490729
 50
275.2981360878964097
 51
275.3029286265319229
  0
ARC
  5
18EFC
  8
0
 10
5261.2345916715094063
 20
478.2154970855306146
 30
0.0
 40
0.01
 50
275.3029286568337852
 51
0.0
  0
ARC
  5
18EFD
  8
0
 10
5267.2739332855244356
 20
411.1483813363054765
 30
0.0
 40
67.3237584280272046
 50
95.1474574073655646
 51
96.3983970712079241
  0
ARC
  5
18EFE
  8
0
 10
5261.2345916715094063
 20
478.1906696816180897
 30
0.0
 40
0.01
 50
0.0
 51
95.1474574073659483
  0
ARC
  5
18EFF
  8
0
 10
5267.0972751736007922
 20
415.2864851773413761
 30
0.0
 40
63.1569932697939507
 50
95.327117726809206
 51
96.6766670882896761
  0
ARC
  5
18F00
  8
0
 10
5261.2345916715094063
 20
478.1607382637176897
 30
0.0
 40
0.01
 50
359.9999999999935199
 51
95.3271177267049268
  0
ARC
  5
18F01
  8
0
 10
5269.8632795270023053
 20
381.9886036484306828
 30
0.0
 40
96.5218088691440244
 50
95.1294076653728951
 51
96.0085733303607185
  0
ARC
  5
18F02
  8
0
 10
5261.2345916715094063
 20
478.1139124754334944
 30
0.0
 40
0.01
 50
0.0
 51
95.1294076654775296
  0
ARC
  5
18F03
  8
0
 10
5269.9015304247150198
 20
382.2713364556173019
 30
0.0
 40
96.2367375287899307
 50
95.1675124898795559
 51
96.0477262123767304
  0
ARC
  5
18F04
  8
0
 10
5261.2345916715094063
 20
478.1069727715661202
 30
0.0
 40
0.01
 50
0.0
 51
95.1675124897753193
  0
ARC
  5
18F05
  8
0
 10
5274.7697303528011616
 20
349.8467487027104994
 30
0.0
 40
128.972574373095398
 50
96.0245166013467042
 51
96.6778540641027604
  0
ARC
  5
18F06
  8
0
 10
5261.2345916715094063
 20
478.0970727171721819
 30
0.0
 40
0.01
 50
0.0
 51
96.0245166013467042
  0
ARC
  5
18F07
  8
0
 10
5278.2568409067362154
 20
320.3017163950185022
 30
0.0
 40
158.6864011689328038
 50
96.1575623735297853
 51
96.6956766872598479
  0
ARC
  5
18F08
  8
0
 10
5261.2345916715094063
 20
478.0825478510121798
 30
0.0
 40
0.01
 50
276.1575623737389833
 51
0.0
  0
ARC
  5
18F09
  8
0
 10
5256.542882363381068
 20
516.6384948832962891
 30
0.0
 40
38.8902626296980003
 50
274.7480757602206722
 51
276.9272324930885247
  0
ARC
  5
18F0A
  8
0
 10
5261.2345916715094063
 20
478.0221991465544988
 30
0.0
 40
0.01
 50
0.0
 51
96.9272324929830944
  0
ARC
  5
18F0B
  8
0
 10
5256.1721094399508729
 20
520.2464042407009401
 30
0.0
 40
42.5242590631809279
 50
274.8464554961719273
 51
276.8356216171605979
  0
ARC
  5
18F0C
  8
0
 10
5261.2345916715094063
 20
478.0144913345945952
 30
0.0
 40
0.01
 50
359.9999999999935199
 51
96.8356216170555939
  0
ARC
  5
18F0D
  8
0
 10
5176.3220609247500761
 20
1218.7399021212629577
 30
0.0
 40
745.5887278198324566
 50
276.4260791470968002
 51
276.539319262281424
  0
ARC
  5
18F0E
  8
0
 10
5261.2345916715094063
 20
477.9920873767757143
 30
0.0
 40
0.01
 50
359.9999999999935199
 51
96.5393192603938957
  0
ARC
  5
18F0F
  8
0
 10
5234.8869574786713201
 20
706.4060325275366949
 30
0.0
 40
229.9552285871027948
 50
276.2079009338002038
 51
276.5789538402822245
  0
ARC
  5
18F10
  8
0
 10
5261.2345916715094063
 20
477.9551438631265228
 30
0.0
 40
0.01
 50
359.9999999999902229
 51
96.5789538396522431
  0
ARC
  5
18F11
  8
0
 10
5248.9555733099532517
 20
583.9593309778381354
 30
0.0
 40
106.7267696590213006
 50
275.8100273906428015
 51
276.6071867544677048
  0
ARC
  5
18F12
  8
0
 10
5261.2345916715094063
 20
477.9513377200975128
 30
0.0
 40
0.01
 50
276.6071867543627718
 51
359.9999999999935199
  0
ARC
  5
18F13
  8
0
 10
5247.9420448899281837
 20
595.1843409296269556
 30
0.0
 40
118.0428615809720014
 50
275.7501644622245749
 51
276.4651156507807741
  0
ARC
  5
18F14
  8
0
 10
5261.2345916715094063
 20
477.882225315646906
 30
0.0
 40
0.01
 50
0.0
 51
96.4651156508856644
  0
ARC
  5
18F15
  8
0
 10
5251.7301453344425681
 20
563.1488944082339003
 30
0.0
 40
85.8210091884085386
 50
275.3629557838053188
 51
276.3591408185408795
  0
ARC
  5
18F16
  8
0
 10
5261.2345916715094063
 20
477.8658668015704052
 30
0.0
 40
0.01
 50
276.3591408184885267
 51
0.0
  0
ARC
  5
18F17
  8
0
 10
5254.5579823162961475
 20
541.8265943823921589
 30
0.0
 40
64.3868817140048719
 50
274.6390421542419062
 51
275.9529234634982231
  0
ARC
  5
18F18
  8
0
 10
5261.2345916715094063
 20
477.7968685768192927
 30
0.0
 40
0.01
 50
275.9529234635505759
 51
0.0
  0
ARC
  5
18F19
  8
0
 10
5255.657644133143549
 20
533.9771923791429344
 30
0.0
 40
56.4996275588594798
 50
274.1507183244838188
 51
275.6657642743884935
  0
ARC
  5
18F1A
  8
0
 10
5261.2345916715094063
 20
477.7635314247719975
 30
0.0
 40
0.01
 50
275.6657642745456087
 51
0.0
  0
ARC
  5
18F1B
  8
0
 10
5254.3490578038154126
 20
554.84510649594813
 30
0.0
 40
77.4465870379085572
 50
274.005116104682827
 51
275.1013838588939961
  0
ARC
  5
18F1C
  8
0
 10
5261.2345916715094063
 20
477.7152521240096803
 30
0.0
 40
0.01
 50
275.1013838591557032
 51
0.0
  0
ARC
  5
18F1D
  8
0
 10
5258.3701625533049082
 20
511.2176302450715184
 30
0.0
 40
33.674272202802193
 50
272.3245280013653087
 51
274.8810912522318972
  0
ARC
  5
18F1E
  8
0
 10
5261.2345916715094063
 20
477.675443840915591
 30
0.0
 40
0.01
 50
274.8810912522841932
 51
0.0
  0
ARC
  5
18F1F
  8
0
 10
5258.9691740881271471
 20
511.5820270715851734
 30
0.0
 40
34.0392098218822667
 50
271.3253863778863888
 51
273.817159884810394
  0
ARC
  5
18F20
  8
0
 10
5261.2345916715094063
 20
477.62830850830278
 30
0.0
 40
0.01
 50
273.8171598849148154
 51
0.0
  0
ARC
  5
18F21
  8
0
 10
5258.9868672768416218
 20
516.8234806130537891
 30
0.0
 40
39.2895704139542019
 50
271.3684023635817084
 51
273.2804714883072279
  0
ARC
  5
18F22
  8
0
 10
5261.2345916715094063
 20
477.6082745451215033
 30
0.0
 40
0.01
 50
273.2804714883072279
 51
0.0
  0
ARC
  5
18F23
  8
0
 10
5261.8138915224753873
 20
423.2866311759577798
 30
0.0
 40
54.2841920518341965
 50
90.6113373285468668
 51
91.7890695368294871
  0
ARC
  5
18F24
  8
0
 10
5261.2345916715094063
 20
477.5777326774389735
 30
0.0
 40
0.01
 50
270.6113373284948125
 51
0.0
  0
ARC
  5
18F25
  8
0
 10
5259.7612373543497597
 20
537.8718185796793705
 30
0.0
 40
60.3332564955686479
 50
270.8444707909062004
 51
271.3995494338320782
  0
ARC
  5
18F26
  8
0
 10
5261.2345916715094063
 20
477.5665576044851832
 30
0.0
 40
0.01
 50
271.3995494337800096
 51
0.0
  0
ARC
  5
18F27
  8
0
 10
5258.458595116878314
 20
477.9458003450242245
 30
0.0
 40
0.4019999999999993
 50
90.0
 51
270.0
  0
LINE
  5
18F28
  8
0
 10
5259.03060430127789
 20
478.3478003450242113
 30
0.0
 11
5258.458595116878314
 21
478.3478003450242113
 31
0.0
  0
LINE
  5
18F29
  8
0
 10
5259.0306040730783934
 20
477.5438003450242945
 30
0.0
 11
5258.458595116878314
 21
477.5438003450242945
 31
0.0
  0
ARC
  5
18F2A
  8
0
 10
5254.458595116878314
 20
477.9458003450242245
 30
0.0
 40
1.125
 50
293.0236536600617114
 51
246.9763463399384023
  0
ARC
  5
18F2B
  8
0
 10
5258.458595116878314
 20
477.9458003450242245
 30
0.0
 40
0.4420000000000002
 50
65.436658261353486
 51
294.5633417386464998
  0
ARC
  5
18F2D
  8
0
 10
5250.458595116878314
 20
477.9458003450242245
 30
0.0
 40
1.125
 50
200.9035321279401103
 51
159.0514484990397079
  0
ARC
  5
18F2E
  8
0
 10
5249.8866805454681526
 20
478.3336239720662775
 30
0.0
 40
0.0141766886775609
 50
90.3823858548942241
 51
173.3735672166239965
  0
ARC
  5
18F2F
  8
0
 10
5249.8866844873973605
 20
477.5579660698927
 30
0.0
 40
0.0141660661155941
 50
186.0974077168177985
 51
269.6023065812610184
  0
LINE
  5
18F30
  8
0
 10
5249.8725985622450025
 20
477.5538405326183238
 30
0.0
 11
5249.8725985622450025
 21
478.3374067414803221
 31
0.0
  0
LINE
  5
18F31
  8
0
 10
5247.6725985622460939
 20
477.5551151254803131
 30
0.0
 11
5247.6725985622460939
 21
478.3374067414803221
 31
0.0
  0
ARC
  5
18F32
  8
0
 10
5247.6825985622463122
 20
478.3374067414803221
 30
0.0
 40
0.01
 50
90.0
 51
180.0000000000032117
  0
ARC
  5
18F33
  8
0
 10
5247.6841738227249152
 20
477.5557676197349224
 30
0.0
 40
0.0115936363538384
 50
183.2263329746652971
 51
262.1909040868526972
  0
LINE
  5
18F34
  8
0
 10
5249.8625951168769461
 20
478.3481829019876841
 30
0.0
 11
5247.6825985622463122
 21
478.347406741480313
 31
0.0
  0
ARC
  5
18F35
  8
0
 10
5249.862574552946171
 20
478.3381326630964736
 30
0.0
 40
0.0100502599293134
 50
355.8579683396238806
 51
89.8827664805713198
  0
LINE
  5
18F36
  8
0
 10
5249.8625916862447411
 20
477.5444379586194827
 30
0.0
 11
5247.6825985622481312
 21
477.5442814994876812
 31
0.0
  0
ARC
  5
18F37
  8
0
 10
5249.8625789308052845
 20
477.55447782904929
 30
0.0
 40
0.0100398785325516
 50
270.072793014699414
 51
356.360617184165676
  0
ARC
  5
18F38
  8
0
 10
5249.4569385969443829
 20
474.1824317220102785
 30
0.0
 40
4.1683688655337319
 50
84.4017406230816221
 51
87.6877749630594963
  0
ARC
  5
18F39
  8
0
 10
5249.8625985622466033
 20
478.3209666819196855
 30
0.0
 40
0.01
 50
0.0
 51
84.4017406230816221
  0
ARC
  5
18F3A
  8
0
 10
5249.4340603594473578
 20
475.1776538912798742
 30
0.0
 40
3.1707428044003829
 50
82.207754322983746
 51
88.5682210477389873
  0
ARC
  5
18F3B
  8
0
 10
5249.8625985622466033
 20
478.3092110254082172
 30
0.0
 40
0.01
 50
359.9999999999935199
 51
82.207754322983746
  0
ARC
  5
18F3C
  8
0
 10
5249.1460178126899336
 20
474.3990884984235095
 30
0.0
 40
3.9530035386008469
 50
79.5291797730598802
 51
87.210120606596675
  0
ARC
  5
18F3D
  8
0
 10
5249.8625985622466033
 20
478.2764315235870072
 30
0.0
 40
0.01
 50
0.0
 51
79.5291797730598802
  0
ARC
  5
18F3E
  8
0
 10
5249.0193049794979743
 20
474.5415922578691266
 30
0.0
 40
3.8075709298349518
 50
77.2382207666841509
 51
88.2596052904007138
  0
ARC
  5
18F3F
  8
0
 10
5249.8625985622466033
 20
478.2648574562689987
 30
0.0
 40
0.01
 50
257.2382207666840941
 51
0.0
  0
ARC
  5
18F40
  8
0
 10
5248.8069877790576356
 20
474.2482032134853966
 30
0.0
 40
4.1067513191855509
 50
75.0681344105395567
 51
84.7918307713746628
  0
ARC
  5
18F41
  8
0
 10
5249.1653432170405722
 20
478.1796561075436784
 30
0.0
 40
0.159
 50
84.7918307713746628
 51
88.4642583860930785
  0
ARC
  5
18F42
  8
0
 10
5249.8625985622466033
 20
478.2066192155832027
 30
0.0
 40
0.01
 50
0.0
 51
75.0681344105395567
  0
ARC
  5
18F43
  8
0
 10
5248.683330872238912
 20
474.2962846106929078
 30
0.0
 40
4.0549277323491726
 50
73.1355834351282823
 51
82.8687775566061759
  0
ARC
  5
18F44
  8
0
 10
5249.8625985622466033
 20
478.1863958153405747
 30
0.0
 40
0.01
 50
253.1355834351282965
 51
359.9999999999935199
  0
ARC
  5
18F45
  8
0
 10
5249.1669799673309171
 20
478.1620751441420794
 30
0.0
 40
0.159
 50
82.8687775566061759
 51
87.9450975563176627
  0
ARC
  5
18F46
  8
0
 10
5247.5874980605458404
 20
469.5985169689350869
 30
0.0
 40
8.8459171538472212
 50
75.1136987120525959
 51
79.629372566715233
  0
ARC
  5
18F47
  8
0
 10
5249.8625985622466033
 20
478.157207659862479
 30
0.0
 40
0.01
 50
255.1136987120534059
 51
0.0
  0
ARC
  5
18F48
  8
0
 10
5249.1512725451284496
 20
478.1435236394519279
 30
0.0
 40
0.159
 50
79.629372566715233
 51
87.1540089237260815
  0
ARC
  5
18F49
  8
0
 10
5247.5493147704246439
 20
469.9007059523748921
 30
0.0
 40
8.5560996296121097
 50
74.2950872930127417
 51
78.9717898133629603
  0
ARC
  5
18F4A
  8
0
 10
5249.8625985622466033
 20
478.1277672124938931
 30
0.0
 40
0.01
 50
0.0
 51
74.2950872930135802
  0
ARC
  5
18F4B
  8
0
 10
5247.9197562543567983
 20
472.4494813277785283
 30
0.0
 40
5.967062777008648
 50
71.0314154931139825
 51
77.6707922353747051
  0
ARC
  5
18F4C
  8
0
 10
5249.8625985622466033
 20
478.10197132838681
 30
0.0
 40
0.01
 50
251.0314154931139967
 51
0.0000000000065138
  0
ARC
  5
18F4D
  8
0
 10
5249.1599427730270691
 20
478.1235918854413853
 30
0.0
 40
0.159
 50
77.6707922353747051
 51
86.3061946195941374
  0
ARC
  5
18F4E
  8
0
 10
5247.7576742566106986
 20
471.5414206004687117
 30
0.0
 40
6.8467532956804718
 50
72.1223396070797236
 51
77.9447700110438149
  0
ARC
  5
18F4F
  8
0
 10
5249.8625985622466033
 20
478.0670898707713832
 30
0.0
 40
0.01
 50
252.1223396070793115
 51
0.0
  0
ARC
  5
18F50
  8
0
 10
5249.1544414582122045
 20
478.081687072748025
 30
0.0
 40
0.159
 50
77.9447700110438149
 51
85.5583100148511448
  0
ARC
  5
18F51
  8
0
 10
5247.4227750604495668
 20
470.4043707116645123
 30
0.0
 40
8.0237909624013817
 50
72.2747358691367623
 51
77.4011065012120554
  0
ARC
  5
18F52
  8
0
 10
5249.8625985622466033
 20
478.0377256011707914
 30
0.0
 40
0.01
 50
0.0
 51
72.2747358691354549
  0
ARC
  5
18F53
  8
0
 10
5249.138277825926707
 20
478.079785172390018
 30
0.0
 40
0.159
 50
77.4011065012120554
 51
85.3973145552412944
  0
ARC
  5
18F54
  8
0
 10
5246.4278421178323697
 20
468.7072015391923969
 30
0.0
 40
9.8930638976236196
 50
69.7059804349804324
 51
73.7465446196317629
  0
ARC
  5
18F55
  8
0
 10
5249.8625985622466033
 20
477.9955341520980028
 30
0.0
 40
0.01
 50
249.7059804349792103
 51
0.0
  0
ARC
  5
18F56
  8
0
 10
5249.1522792031801146
 20
478.0522238789728817
 30
0.0
 40
0.159
 50
73.7465446196317629
 51
84.9053605432688272
  0
ARC
  5
18F57
  8
0
 10
5245.3758116964900182
 20
464.5024272475715748
 30
0.0
 40
14.1770274071043705
 50
71.5631147036846329
 51
74.3976906646585974
  0
ARC
  5
18F58
  8
0
 10
5249.8625985622466033
 20
477.9612715616726746
 30
0.0
 40
0.01
 50
251.5631147036845903
 51
0.0
  0
ARC
  5
18F59
  8
0
 10
5249.146081299522848
 20
478.0039145547823978
 30
0.0
 40
0.159
 50
74.3976906646585974
 51
84.7120964786830086
  0
ARC
  5
18F5A
  8
0
 10
5239.4416384530159121
 20
449.7226931161080756
 30
0.0
 40
30.018831961528349
 50
69.6941251456625821
 51
71.0325633362181037
  0
ARC
  5
18F5B
  8
0
 10
5249.8625985622466033
 20
477.8853339613045819
 30
0.0
 40
0.01
 50
249.6941251456591999
 51
0.0
  0
ARC
  5
18F5C
  8
0
 10
5249.1470013825673959
 20
477.9612393813890776
 30
0.0
 40
0.159
 50
71.0325633362181037
 51
83.9807592184853888
  0
ARC
  5
18F5D
  8
0
 10
5255.5849742693681037
 20
496.095575212355925
 30
0.0
 40
19.1270756228693095
 50
250.479780597197589
 51
252.5824411188723957
  0
ARC
  5
18F5E
  8
0
 10
5249.8625985622466033
 20
477.8550435140463151
 30
0.0
 40
0.01
 50
252.5824411188156944
 51
359.9999999999935199
  0
ARC
  5
18F5F
  8
0
 10
5249.1407347570320781
 20
477.9179931388601972
 30
0.0
 40
0.159
 50
70.479780597197589
 51
84.4958280391721814
  0
ARC
  5
18F60
  8
0
 10
5256.2709726536413655
 20
498.161100131930084
 30
0.0
 40
21.3107690359777493
 50
250.5970239994333042
 51
252.5081847960111929
  0
ARC
  5
18F61
  8
0
 10
5249.8625985622466033
 20
477.8262056451064836
 30
0.0
 40
0.01
 50
0.0
 51
72.5081847960666721
  0
ARC
  5
18F62
  8
0
 10
5249.138498033436008
 20
477.9106979569024247
 30
0.0
 40
0.159
 50
70.59702399943464
 51
84.7018639151389579
  0
ARC
  5
18F63
  8
0
 10
5263.8612990067813371
 20
518.4008303297905513
 30
0.0
 40
42.9432698669328303
 50
250.0123335610529978
 51
250.9703644246104091
  0
ARC
  5
18F64
  8
0
 10
5249.8625985622466033
 20
477.8138613947853059
 30
0.0
 40
0.01
 50
250.9703644246091869
 51
359.9999999999935199
  0
ARC
  5
18F65
  8
0
 10
5249.1281735322963868
 20
477.8947729872767809
 30
0.0
 40
0.159
 50
70.0123335610521451
 51
83.6016029287920759
  0
ARC
  5
18F66
  8
0
 10
5270.4821168337366544
 20
536.9844717144793549
 30
0.0
 40
62.7005761691371717
 50
250.1566538385901879
 51
250.7974075910466922
  0
ARC
  5
18F67
  8
0
 10
5249.8625985622466033
 20
477.7819058353724131
 30
0.0
 40
0.01
 50
250.7974075910424006
 51
0.0
  0
ARC
  5
18F68
  8
0
 10
5249.1444569101258821
 20
477.8572310791524842
 30
0.0
 40
0.159
 50
70.1566538385902589
 51
83.3233329117619661
  0
ARC
  5
18F69
  8
0
 10
5232.9518410465880152
 20
426.8272420352680001
 30
0.0
 40
53.6618326553195217
 50
71.6345405393864638
 51
72.3871690869356144
  0
ARC
  5
18F6A
  8
0
 10
5249.8625985622466033
 20
477.7653603831931264
 30
0.0
 40
0.01
 50
251.6345405394380066
 51
0.0000000000065138
  0
ARC
  5
18F6B
  8
0
 10
5249.1409069731798809
 20
477.8220186949179151
 30
0.0
 40
0.159
 50
72.3871690869356144
 51
83.9914266696397078
  0
ARC
  5
18F6C
  8
0
 10
5213.7203866922764064
 20
367.5362055266369907
 30
0.0
 40
115.985095395021105
 50
71.8420464164287296
 51
72.1946867257476157
  0
ARC
  5
18F6D
  8
0
 10
5249.8625985622466033
 20
477.7358574000911062
 30
0.0
 40
0.01
 50
0.0000000000065138
 51
71.842046416481395
  0
ARC
  5
18F6E
  8
0
 10
5249.1381069469489375
 20
477.8143514414932156
 30
0.0
 40
0.159
 50
72.1946867257488947
 51
83.9522737876232554
  0
ARC
  5
18F6F
  8
0
 10
5252.4095472663448163
 20
486.4193259329534271
 30
0.0
 40
9.0770045164868343
 50
249.1801353543096127
 51
253.6858944781264995
  0
ARC
  5
18F70
  8
0
 10
5249.8625985622466033
 20
477.7173937796504788
 30
0.0
 40
0.01
 50
253.6858944781253911
 51
0.0
  0
ARC
  5
18F71
  8
0
 10
5249.1267844983276518
 20
477.7864093900063835
 30
0.0
 40
0.159
 50
69.1801353543095985
 51
83.322145935897268
  0
ARC
  5
18F72
  8
0
 10
5252.2616533862883443
 20
486.1446038898113216
 30
0.0
 40
8.7978399206131517
 50
249.630221214908687
 51
254.1573100361804052
  0
ARC
  5
18F73
  8
0
 10
5249.8625985622466033
 20
477.690571335960783
 30
0.0
 40
0.01
 50
254.1573100361779041
 51
0.0
  0
ARC
  5
18F74
  8
0
 10
5249.1439778606372784
 20
477.7478735332827
 30
0.0
 40
0.159
 50
69.6302212149087012
 51
83.3043233127405784
  0
ARC
  5
18F75
  8
0
 10
5254.5713435137704437
 20
494.8791911134882753
 30
0.0
 40
17.8355636792113792
 50
252.4390323350843914
 51
254.6831406163312863
  0
ARC
  5
18F76
  8
0
 10
5249.8625985622466033
 20
477.6867962406639094
 30
0.0
 40
0.01
 50
254.6831406162783935
 51
0.0000000000065138
  0
ARC
  5
18F77
  8
0
 10
5249.1420153679318901
 20
477.723238272273079
 30
0.0
 40
0.159
 50
72.4390323350844056
 51
85.2519242397793562
  0
ARC
  5
18F78
  8
0
 10
5251.1822702876534095
 20
483.957970648016726
 30
0.0
 40
6.4091390104364683
 50
251.8747448843986945
 51
256.4592027196597996
  0
ARC
  5
18F79
  8
0
 10
5249.1389526359798765
 20
477.7157512482536958
 30
0.0
 40
0.159
 50
71.8747448843987087
 51
85.1535445038280869
  0
ARC
  5
18F7A
  8
0
 10
5214.4146275159264405
 20
359.1324009398381918
 30
0.0
 40
123.6828455334745058
 50
73.3466476074326863
 51
73.6775499271476804
  0
ARC
  5
18F7B
  8
0
 10
5249.8625985622466033
 20
477.6370902346811818
 30
0.0
 40
0.01
 50
253.3466476073807883
 51
0.0
  0
ARC
  5
18F7C
  8
0
 10
5249.1301106889695802
 20
477.6776481808806238
 30
0.0
 40
0.159
 50
73.6775499271476804
 51
83.5739208530085165
  0
ARC
  5
18F7D
  8
0
 10
5251.0256444988053772
 20
483.1348736785923847
 30
0.0
 40
5.6471920648368457
 50
251.116482132080904
 51
258.0934213556834038
  0
ARC
  5
18F7E
  8
0
 10
5249.8625985622466033
 20
477.6189640958206155
 30
0.0
 40
0.01
 50
258.093421355682608
 51
0.0
  0
ARC
  5
18F7F
  8
0
 10
5249.1464980349237521
 20
477.6411795788940822
 30
0.0
 40
0.159
 50
71.1164821320809324
 51
83.7920990662514242
  0
ARC
  5
18F80
  8
0
 10
5252.1158730667229975
 20
488.1191211240035841
 30
0.0
 40
10.7507665560798795
 50
254.1790807503003862
 51
257.8901226507487081
  0
ARC
  5
18F81
  8
0
 10
5249.8625985622466033
 20
477.6173679265760939
 30
0.0
 40
0.01
 50
257.8901226506970943
 51
0.0
  0
ARC
  5
18F82
  8
0
 10
5249.1415265648920467
 20
477.6226327019072073
 30
0.0
 40
0.159
 50
74.1790807503004004
 51
84.1899726093570848
  0
ARC
  5
18F83
  8
0
 10
5250.4480829437034117
 20
481.730197529574923
 30
0.0
 40
4.1973822072029581
 50
252.4213614046884118
 51
261.9625058561483115
  0
ARC
  5
18F84
  8
0
 10
5249.8625985622466033
 20
477.5839488891444944
 30
0.0
 40
0.01
 50
261.9625058560965272
 51
0.0
  0
ARC
  5
18F85
  8
0
 10
5249.1323923727832153
 20
477.5772438509471272
 30
0.0
 40
0.159
 50
72.4213614046883549
 51
84.2498355377749846
  0
ARC
  5
18F86
  8
0
 10
5250.2325402186770589
 20
481.0923521656624757
 30
0.0
 40
3.5493324971781481
 50
253.0424436591887059
 51
264.0003146514123955
  0
ARC
  5
18F87
  8
0
 10
5249.8625985622466033
 20
477.5724064705673868
 30
0.0
 40
0.01
 50
264.0003146514123955
 51
0.0
  0
ARC
  5
18F88
  8
0
 10
5249.1509560528693328
 20
477.5452539710956898
 30
0.0
 40
0.159
 50
73.0424436591887343
 51
84.6370442161947665
  0
ARC
  5
18F89
  8
0
 10
5250.0161853797044387
 20
481.0124860849920765
 30
0.0
 40
3.468997137456999
 50
256.0059342198543959
 51
267.5654960352015905
  0
ARC
  5
18F8A
  8
0
 10
5249.1388580358152467
 20
477.492165082432507
 30
0.0
 40
0.159
 50
76.0059342198543533
 51
85.3609578457585769
  0
ARC
  5
18F8B
  8
0
 10
5249.8855512770369387
 20
480.6733283939278181
 30
0.0
 40
3.1285396861402979
 50
257.224535065131704
 51
269.6316276389496238
  0
ARC
  5
18F8C
  8
0
 10
5249.1585746637201737
 20
477.4671745935560239
 30
0.0
 40
0.159
 50
77.224535065131704
 51
85.849281675516167
  0
ARC
  5
18F8D
  8
0
 10
5249.6978523858497283
 20
480.8143425453141049
 30
0.0
 40
3.2707036075596871
 50
260.7698802500469242
 51
268.2785113408235134
  0
ARC
  5
18F8E
  8
0
 10
5249.1477276114501365
 20
477.4290464625020718
 30
0.0
 40
0.159
 50
80.7698802500469526
 51
85.9948838953693979
  0
ARC
  5
18F8F
  8
0
 10
5236.6186905858048704
 20
440.8881671087466998
 30
0.0
 40
39.3188179299133225
 50
70.3106948306206334
 51
71.3653910468754731
  0
ARC
  5
18F90
  8
0
 10
5249.8625985622466033
 20
477.8987340938476223
 30
0.0
 40
0.01
 50
0.0
 51
70.3106948306185018
  0
ARC
  5
18F91
  8
0
 10
5249.1314953971013892
 20
477.9950540174914977
 30
0.0
 40
0.159
 50
71.3653910468754731
 51
84.357673778578004
  0
ARC
  5
18F92
  8
0
 10
5249.5919535973916936
 20
480.634231303286299
 30
0.0
 40
3.089929067325043
 50
262.6224054285117973
 51
268.6857177007295832
  0
ARC
  5
18F93
  8
0
 10
5249.1747657790256198
 20
477.4121986515716003
 30
0.0
 40
0.159
 50
82.622405428511783
 51
87.6754719986347482
  0
ARC
  5
18F94
  8
0
 10
5249.3804632782166664
 20
480.6208691049424147
 30
0.0
 40
3.076628109099012
 50
266.0398368557338813
 51
268.6341646961313927
  0
ARC
  5
18F95
  8
0
 10
5249.1570015266543123
 20
477.3929666736443096
 30
0.0
 40
0.159
 50
86.0398368557339239
 51
88.6746136221136112
  0
ARC
  5
18F96
  8
0
 10
5248.5010764796052172
 20
453.4029845626915858
 30
0.0
 40
24.9445744968710912
 50
88.4642583860930785
 51
89.7997716664001047
  0
ARC
  5
18F97
  8
0
 10
5247.8111039027935476
 20
440.3730965680724125
 30
0.0
 40
37.972295303702829
 50
87.9450975563176627
 51
89.4923172080888207
  0
ARC
  5
18F98
  8
0
 10
5246.2358601311925668
 20
419.4984260661946109
 30
0.0
 40
58.8765195228833207
 50
87.1540089237260815
 51
88.2475066582283034
  0
ARC
  5
18F99
  8
0
 10
5247.1309030690617874
 20
446.6941330183590253
 30
0.0
 40
31.6538866770130909
 50
86.3061946195941374
 51
89.0010258461216637
  0
ARC
  5
18F9A
  8
0
 10
5247.6825985622463122
 20
478.3332100610043085
 30
0.0
 40
0.01
 50
89.0010258461216637
 51
180.0
  0
ARC
  5
18F9B
  8
0
 10
5246.2375059367486756
 20
440.5299521520487929
 30
0.0
 40
37.8238550825676825
 50
85.5583100148511448
 51
87.8098536818351505
  0
ARC
  5
18F9C
  8
0
 10
5247.6825985622463122
 20
478.3161843472433929
 30
0.0
 40
0.01
 50
87.8098536818873043
 51
180.0
  0
ARC
  5
18F9D
  8
0
 10
5246.3296279365113151
 20
443.1920053833886755
 30
0.0
 40
35.1596527483010703
 50
85.3973145552412944
 51
87.7940418842451038
  0
ARC
  5
18F9E
  8
0
 10
5247.6825985622463122
 20
478.3156093956771997
 30
0.0
 40
0.01
 50
87.7940418842451038
 51
180.0
  0
ARC
  5
18F9F
  8
0
 10
5246.0389750937492863
 20
443.131436286072983
 30
0.0
 40
35.2182936121970585
 50
84.9053605432688272
 51
87.3242972980599461
  0
ARC
  5
18FA0
  8
0
 10
5247.6825985622463122
 20
478.301344460199175
 30
0.0
 40
0.01
 50
87.3242972980599461
 51
180.0
  0
ARC
  5
18FA1
  8
0
 10
5244.8256330364010864
 20
431.3237476513041884
 30
0.0
 40
47.0386784900547497
 50
84.7120964786830086
 51
86.5171694428570959
  0
ARC
  5
18FA2
  8
0
 10
5247.6825985622463122
 20
478.265566411393479
 30
0.0
 40
0.01
 50
86.5171694428048852
 51
179.9999999999934914
  0
ARC
  5
18FA3
  8
0
 10
5243.8694650871802878
 20
424.7338834959102769
 30
0.0
 40
53.6794750381709491
 50
84.357673778578004
 51
85.6964025773122842
  0
ARC
  5
18FA4
  8
0
 10
5243.9099402654010191
 20
428.2943788400698963
 30
0.0
 40
50.1012050491942773
 50
83.9807592184853888
 51
85.6806333811135659
  0
ARC
  5
18FA5
  8
0
 10
5247.6825985622463122
 20
478.2433114878820106
 30
0.0
 40
0.01
 50
85.6806333811135659
 51
180.0
  0
ARC
  5
18FA6
  8
0
 10
5241.2953015637340286
 20
396.502192620782921
 30
0.0
 40
81.9519299878043626
 50
84.4958280391721814
 51
85.5293122610114267
  0
ARC
  5
18FA7
  8
0
 10
5247.6825985622463122
 20
478.1948013879107862
 30
0.0
 40
0.01
 50
85.5293122609069059
 51
180.0
  0
ARC
  5
18FA8
  8
0
 10
6880.5565905210560231
 20
18070.2860728141313302
 30
0.0
 40
17667.698717402490729
 50
264.6970713734677929
 51
264.7018639121035903
  0
ARC
  5
18FA9
  8
0
 10
5247.6825985622463122
 20
478.2154970855306146
 30
0.0
 40
0.01
 50
180.0
 51
264.6970713431662148
  0
ARC
  5
18FAA
  8
0
 10
5241.6432569482312829
 20
411.1483813363054765
 30
0.0
 40
67.3237584280272046
 50
83.6016029287920759
 51
84.8525425926344496
  0
ARC
  5
18FAB
  8
0
 10
5247.6825985622463122
 20
478.1906696816180897
 30
0.0
 40
0.01
 50
84.8525425926340375
 51
180.0
  0
ARC
  5
18FAC
  8
0
 10
5241.8199150601540168
 20
415.2864851773413761
 30
0.0
 40
63.1569932697939507
 50
83.3233329117103239
 51
84.672882273190794
  0
ARC
  5
18FAD
  8
0
 10
5247.6825985622463122
 20
478.1607382637176897
 30
0.0
 40
0.01
 50
84.672882273295059
 51
180.0000000000065086
  0
ARC
  5
18FAE
  8
0
 10
5239.0539107067543227
 20
381.9886036484306828
 30
0.0
 40
96.5218088691440244
 50
83.9914266696392957
 51
84.8705923346271192
  0
ARC
  5
18FAF
  8
0
 10
5247.6825985622463122
 20
478.1139124754334944
 30
0.0
 40
0.01
 50
84.8705923345224846
 51
180.0
  0
ARC
  5
18FB0
  8
0
 10
5239.0156598090406987
 20
382.2713364556173019
 30
0.0
 40
96.2367375287899307
 50
83.9522737876232554
 51
84.8324875101204441
  0
ARC
  5
18FB1
  8
0
 10
5247.6825985622463122
 20
478.1069727715661202
 30
0.0
 40
0.01
 50
84.8324875102246665
 51
180.0
  0
ARC
  5
18FB2
  8
0
 10
5234.1474598809563759
 20
349.8467487027104994
 30
0.0
 40
128.972574373095398
 50
83.322145935897268
 51
83.97548339865331
  0
ARC
  5
18FB3
  8
0
 10
5247.6825985622463122
 20
478.0970727171721819
 30
0.0
 40
0.01
 50
83.97548339865331
 51
180.0
  0
ARC
  5
18FB4
  8
0
 10
5230.6603493270204126
 20
320.3017163950185022
 30
0.0
 40
158.6864011689328038
 50
83.3043233127401805
 51
83.8424376264702147
  0
ARC
  5
18FB5
  8
0
 10
5247.6825985622463122
 20
478.0825478510121798
 30
0.0
 40
0.01
 50
180.0
 51
263.8424376262610167
  0
ARC
  5
18FB6
  8
0
 10
5252.3743078703746505
 20
516.6384948832962891
 30
0.0
 40
38.8902626296980003
 50
263.0727675069114753
 51
265.2519242397793278
  0
ARC
  5
18FB7
  8
0
 10
5247.6825985622463122
 20
478.0221991465544988
 30
0.0
 40
0.01
 50
83.0727675070169198
 51
180.0
  0
ARC
  5
18FB8
  8
0
 10
5252.7450807938048456
 20
520.2464042407009401
 30
0.0
 40
42.5242590631809279
 50
263.1643783828394021
 51
265.1535445038280727
  0
ARC
  5
18FB9
  8
0
 10
5247.6825985622463122
 20
478.0144913345945952
 30
0.0
 40
0.01
 50
83.1643783829444203
 51
180.0000000000065086
  0
ARC
  5
18FBA
  8
0
 10
5332.5951293090056424
 20
1218.7399021212629577
 30
0.0
 40
745.5887278198324566
 50
263.460680737718576
 51
263.5739208529031998
  0
ARC
  5
18FBB
  8
0
 10
5247.6825985622463122
 20
477.9920873767757143
 30
0.0
 40
0.01
 50
83.4606807396061186
 51
180.0000000000065086
  0
ARC
  5
18FBC
  8
0
 10
5274.0302327550862174
 20
706.4060325275366949
 30
0.0
 40
229.9552285871027948
 50
263.4210461597177755
 51
263.7920990661997962
  0
ARC
  5
18FBD
  8
0
 10
5247.6825985622463122
 20
477.9551438631265228
 30
0.0
 40
0.01
 50
83.4210461603477569
 51
180.0000000000098055
  0
ARC
  5
18FBE
  8
0
 10
5259.9616169238033763
 20
583.9593309778381354
 30
0.0
 40
106.7267696590213006
 50
263.3928132455321816
 51
264.1899726093570848
  0
ARC
  5
18FBF
  8
0
 10
5247.6825985622463122
 20
477.9513377200975128
 30
0.0
 40
0.01
 50
180.0000000000065086
 51
263.3928132456372282
  0
ARC
  5
18FC0
  8
0
 10
5260.9751453438284443
 20
595.1843409296269556
 30
0.0
 40
118.0428615809720014
 50
263.5348843492192259
 51
264.2498355377750272
  0
ARC
  5
18FC1
  8
0
 10
5247.6825985622463122
 20
477.882225315646906
 30
0.0
 40
0.01
 50
83.5348843491143498
 51
180.0
  0
ARC
  5
18FC2
  8
0
 10
5257.1870448993140599
 20
563.1488944082339003
 30
0.0
 40
85.8210091884085386
 50
263.6408591814590068
 51
264.6370442161947949
  0
ARC
  5
18FC3
  8
0
 10
5247.6825985622463122
 20
477.8658668015704052
 30
0.0
 40
0.01
 50
180.0
 51
263.6408591815114733
  0
ARC
  5
18FC4
  8
0
 10
5254.35920791746139
 20
541.8265943823921589
 30
0.0
 40
64.3868817140048719
 50
264.0470765365018906
 51
265.3609578457582074
  0
ARC
  5
18FC5
  8
0
 10
5247.6825985622463122
 20
477.7968685768192927
 30
0.0
 40
0.01
 50
180.0
 51
264.0470765364494241
  0
ARC
  5
18FC6
  8
0
 10
5253.2595461006121695
 20
533.9771923791429344
 30
0.0
 40
56.4996275588594798
 50
264.3342357256113928
 51
265.8492816755161812
  0
ARC
  5
18FC7
  8
0
 10
5247.6825985622463122
 20
477.7635314247719975
 30
0.0
 40
0.01
 50
180.0
 51
264.3342357254543913
  0
ARC
  5
18FC8
  8
0
 10
5254.5681324299412154
 20
554.84510649594813
 30
0.0
 40
77.4465870379085572
 50
264.8986161411058902
 51
265.994883895317173
  0
ARC
  5
18FC9
  8
0
 10
5247.6825985622463122
 20
477.7152521240096803
 30
0.0
 40
0.01
 50
180.0
 51
264.8986161408444104
  0
ARC
  5
18FCA
  8
0
 10
5250.5470276804499008
 20
511.2176302450715184
 30
0.0
 40
33.674272202802193
 50
265.1189087477681028
 51
267.675471998634805
  0
ARC
  5
18FCB
  8
0
 10
5247.6825985622463122
 20
477.675443840915591
 30
0.0
 40
0.01
 50
180.0
 51
265.1189087477158068
  0
ARC
  5
18FCC
  8
0
 10
5249.9480161456303904
 20
511.5820270715851734
 30
0.0
 40
34.0392098218822667
 50
266.182840115189606
 51
268.6746136221136112
  0
ARC
  5
18FCD
  8
0
 10
5247.6825985622463122
 20
477.62830850830278
 30
0.0
 40
0.01
 50
180.0
 51
266.1828401150851278
  0
ARC
  5
18FCE
  8
0
 10
5249.9303229569140967
 20
516.8234806130537891
 30
0.0
 40
39.2895704139542019
 50
266.7195285116927721
 51
268.6315976364181779
  0
ARC
  5
18FCF
  8
0
 10
5247.6825985622463122
 20
477.6082745451215033
 30
0.0
 40
0.01
 50
180.0
 51
266.7195285116927721
  0
ARC
  5
18FD0
  8
0
 10
5247.1032987112812407
 20
423.2866311759577798
 30
0.0
 40
54.2841920518341965
 50
88.236590841817474
 51
89.3886626714531332
  0
ARC
  5
18FD1
  8
0
 10
5247.6825985622463122
 20
477.5777326774389735
 30
0.0
 40
0.01
 50
180.0
 51
269.3886626715051875
  0
ARC
  5
18FD2
  8
0
 10
5249.1559528794059588
 20
537.8718185796793705
 30
0.0
 40
60.3332564955686479
 50
268.6004505661678081
 51
269.2079117034668911
  0
ARC
  5
18FD3
  8
0
 10
5247.6825985622463122
 20
477.5665576044851832
 30
0.0
 40
0.01
 50
180.0
 51
268.6004505662199904
  0
ARC
  5
18FD4
  8
0
 10
5250.458595116878314
 20
477.9458003450242245
 30
0.0
 40
0.4019999999999993
 50
270.0
 51
90.0
  0
LINE
  5
18FD5
  8
0
 10
5249.8865859324778285
 20
478.3478003450242113
 30
0.0
 11
5250.458595116878314
 21
478.3478003450242113
 31
0.0
  0
LINE
  5
18FD6
  8
0
 10
5249.8865861606773251
 20
477.5438003450242945
 30
0.0
 11
5250.458595116878314
 21
477.5438003450242945
 31
0.0
  0
ARC
  5
18FD7
  8
0
 10
5250.458595116878314
 20
477.9458003450242245
 30
0.0
 40
0.4420000000000002
 50
245.4366582613535002
 51
114.5633417386464998
  0
LINE
  5
18FD8
  8
0
 10
5254.0185951168778047
 20
477.9458003450242245
 30
0.0
 11
5254.0185951168778047
 21
472.613228099752007
 31
0.0
  0
LINE
  5
18FD9
  8
0
 10
5254.8985951168779138
 20
477.9458003450242245
 30
0.0
 11
5254.8985951168779138
 21
472.6132345055693804
 31
0.0
  0
ARC
  5
18FDA
  8
0
 10
5254.458595116878314
 20
477.9458003450242245
 30
0.0
 40
0.440000000000001
 50
0.0
 51
180.0
  0
ARC
  5
18FDB
  8
0
 10
5254.4585949471793356
 20
472.6365438619242241
 30
0.0
 40
0.4406171528999999
 50
183.033288628609597
 51
356.9675455220909726
  0
ENDSEC
  0
EOF
