  0
SECTION
  2
HEADER
  9
$ACADVER
  1
AC1009
  9
$INSBASE
 10
5216.9592871622517123
 20
460.4726424341185975
 30
0.0
  9
$EXTMIN
 10
5209.8179207095317906
 20
460.4707478612473892
 30
-0.0015258207003583
  9
$EXTMAX
 10
5223.7675173391407952
 20
471.2934242741694106
 30
0.0000000349246037
  9
$LIMMIN
 10
0.0
 20
0.0
  9
$LIMMAX
 10
11.6929133858000007
 20
8.2677165353999982
  9
$ORTHOMODE
 70
     0
  9
$REGENMODE
 70
     1
  9
$FILLMODE
 70
     1
  9
$QTEXTMODE
 70
     0
  9
$MIRRTEXT
 70
     0
  9
$DRAGMODE
 70
     2
  9
$LTSCALE
 40
0.6431102362
  9
$OSMODE
 70
  4095
  9
$ATTMODE
 70
     1
  9
$TEXTSIZE
 40
0.2
  9
$TRACEWID
 40
0.05
  9
$TEXTSTYLE
  7
STANDARD
  9
$CLAYER
  8
0
  9
$CELTYPE
  6
BYLAYER
  9
$CECOLOR
 62
   256
  9
$DIMSCALE
 40
1.0
  9
$DIMASZ
 40
0.1875
  9
$DIMEXO
 40
0.0625
  9
$DIMDLI
 40
0.4443307087
  9
$DIMRND
 40
0.0
  9
$DIMDLE
 40
0.0
  9
$DIMEXE
 40
0.125
  9
$DIMTP
 40
0.01
  9
$DIMTM
 40
0.01
  9
$DIMTXT
 40
2.0
  9
$DIMCEN
 40
0.1052362205
  9
$DIMTSZ
 40
0.0
  9
$DIMTOL
 70
     1
  9
$DIMLIM
 70
     0
  9
$DIMTIH
 70
     1
  9
$DIMTOH
 70
     1
  9
$DIMSE1
 70
     0
  9
$DIMSE2
 70
     0
  9
$DIMTAD
 70
     0
  9
$DIMZIN
 70
     0
  9
$DIMBLK
  1

  9
$DIMASO
 70
     1
  9
$DIMSHO
 70
     1
  9
$DIMPOST
  1
\X
  9
$DIMAPOST
  1

  9
$DIMALT
 70
     1
  9
$DIMALTD
 70
     2
  9
$DIMALTF
 40
25.3999999999999986
  9
$DIMLFAC
 40
1.0
  9
$DIMTOFL
 70
     0
  9
$DIMTVP
 40
0.0
  9
$DIMTIX
 70
     0
  9
$DIMSOXD
 70
     0
  9
$DIMSAH
 70
     0
  9
$DIMBLK1
  1

  9
$DIMBLK2
  1

  9
$DIMSTYLE
  2
STANDARD
  9
$DIMCLRD
 70
     0
  9
$DIMCLRE
 70
     0
  9
$DIMCLRT
 70
     0
  9
$DIMTFAC
 40
1.0
  9
$DIMGAP
 40
0.09
  9
$LUNITS
 70
     2
  9
$LUPREC
 70
     4
  9
$SKETCHINC
 40
0.1
  9
$FILLETRAD
 40
0.0
  9
$AUNITS
 70
     0
  9
$AUPREC
 70
     0
  9
$MENU
  1
.
  9
$ELEVATION
 40
0.0
  9
$PELEVATION
 40
0.0
  9
$THICKNESS
 40
0.0
  9
$LIMCHECK
 70
     0
  9
$BLIPMODE
 70
     0
  9
$CHAMFERA
 40
0.0
  9
$CHAMFERB
 40
0.0
  9
$SKPOLY
 70
     0
  9
$TDCREATE
 40
2458060.468368056230247
  9
$TDUPDATE
 40
2460109.8459722232073545
  9
$TDINDWG
 40
0.6501922454
  9
$TDUSRTIMER
 40
0.6501922454
  9
$USRTIMER
 70
     1
  9
$ANGBASE
 50
0.0
  9
$ANGDIR
 70
     0
  9
$PDMODE
 70
     0
  9
$PDSIZE
 40
0.3125
  9
$PLINEWID
 40
0.0
  9
$COORDS
 70
     1
  9
$SPLFRAME
 70
     0
  9
$SPLINETYPE
 70
     6
  9
$SPLINESEGS
 70
     8
  9
$ATTDIA
 70
     1
  9
$ATTREQ
 70
     1
  9
$HANDLING
 70
     1
  9
$HANDSEED
  5
19024
  9
$SURFTAB1
 70
     6
  9
$SURFTAB2
 70
     6
  9
$SURFTYPE
 70
     6
  9
$SURFU
 70
     6
  9
$SURFV
 70
     6
  9
$UCSNAME
  2

  9
$UCSORG
 10
0.0
 20
0.0
 30
0.0
  9
$UCSXDIR
 10
1.0
 20
0.0
 30
0.0
  9
$UCSYDIR
 10
0.0
 20
1.0
 30
0.0
  9
$PUCSNAME
  2

  9
$PUCSORG
 10
0.0
 20
0.0
 30
0.0
  9
$PUCSXDIR
 10
1.0
 20
0.0
 30
0.0
  9
$PUCSYDIR
 10
0.0
 20
1.0
 30
0.0
  9
$USERI1
 70
     0
  9
$USERI2
 70
     0
  9
$USERI3
 70
     0
  9
$USERI4
 70
     0
  9
$USERI5
 70
     0
  9
$USERR1
 40
0.0
  9
$USERR2
 40
0.0
  9
$USERR3
 40
0.0
  9
$USERR4
 40
0.0
  9
$USERR5
 40
0.0
  9
$WORLDVIEW
 70
     1
  9
$SHADEDGE
 70
     3
  9
$SHADEDIF
 70
    70
  9
$TILEMODE
 70
     1
  9
$MAXACTVP
 70
    64
  9
$PLIMCHECK
 70
     0
  9
$PEXTMIN
 10
1.0000000000000000E+20
 20
1.0000000000000000E+20
 30
1.0000000000000000E+20
  9
$PEXTMAX
 10
-1.0000000000000000E+20
 20
-1.0000000000000000E+20
 30
-1.0000000000000000E+20
  9
$PLIMMIN
 10
0.0
 20
0.0
  9
$PLIMMAX
 10
12.0
 20
9.0
  9
$UNITMODE
 70
     0
  9
$VISRETAIN
 70
     1
  9
$PLINEGEN
 70
     0
  9
$PSLTSCALE
 70
     1
  0
ENDSEC
  0
SECTION
  2
TABLES
  0
TABLE
  2
VPORT
 70
     1
  0
VPORT
  2
*ACTIVE
 70
     0
 10
0.0
 20
0.0
 11
1.0
 21
1.0
 12
1413.2486516415249298
 22
339.8868238709584944
 13
0.0
 23
0.0
 14
1.0
 24
1.0
 15
0.0
 25
0.0
 16
0.0
 26
0.0
 36
17.1152628219792007
 17
3803.5440673828129547
 27
125.9952621967499056
 37
0.0
 40
10.9058211740967792
 41
1.4307692307692299
 42
50.0
 43
0.0
 44
0.0
 50
0.0
 51
0.0
 71
     0
 72
   100
 73
     1
 74
     1
 75
     0
 76
     0
 77
     0
 78
     0
  0
ENDTAB
  0
TABLE
  2
LTYPE
 70
     2
  0
LTYPE
  2
CONTINUOUS
 70
     0
  3
Solid line
 72
    65
 73
     0
 40
0.0
  0
LTYPE
  2
PHANTOM2
 70
     0
  3
___ _ _ ___ _ _ ___ _ _ ___ _ _
 72
    65
 73
     6
 40
1.25
 49
0.625
 49
-0.125
 49
0.125
 49
-0.125
 49
0.125
 49
-0.125
  0
ENDTAB
  0
TABLE
  2
LAYER
 70
     2
  0
LAYER
  2
0
 70
     0
 62
   255
  6
CONTINUOUS
  0
LAYER
  2
DEFPOINTS
 70
     0
 62
     7
  6
CONTINUOUS
  0
ENDTAB
  0
TABLE
  2
STYLE
 70
     1
  0
STYLE
  2
STANDARD
 70
     0
 40
0.0
 41
0.8
 50
0.0
 71
     0
 42
0.2
  3
txt
  4

  0
ENDTAB
  0
TABLE
  2
VIEW
 70
     0
  0
ENDTAB
  0
TABLE
  2
UCS
 70
     0
  0
ENDTAB
  0
TABLE
  2
APPID
 70
    10
  0
APPID
  2
ACAD
 70
     0
  0
APPID
  2
ACAD_MLEADERVER
 70
     0
  0
APPID
  2
ACAD_EXEMPT_FROM_CAD_STANDARDS
 70
     0
  0
APPID
  2
ACAD_NAV_VCDISPLAY
 70
     0
  0
APPID
  2
ACAECLAYERSTANDARD
 70
     0
  0
APPID
  2
ACCMTRANSPARENCY
 70
     0
  0
APPID
  2
ACAD_DSTYLE_DIMJAG
 70
     0
  0
APPID
  2
ACAD_DSTYLE_DIMTALN
 70
     0
  0
APPID
  2
ACDBATTR
 70
     0
  0
APPID
  2
ACADANNOTATIVE
 70
     0
  0
ENDTAB
  0
TABLE
  2
DIMSTYLE
 70
     1
  0
DIMSTYLE
  2
STANDARD
 70
     0
  3

  4

  5

  6

  7

 40
1.0
 41
0.1875
 42
0.0625
 43
0.38
 44
0.125
 45
0.0
 46
0.0
 47
0.01
 48
0.01
140
0.15625
141
0.09
142
0.0
143
25.3999999999999986
144
1.0
145
0.0
146
1.0
147
0.09
 71
     1
 72
     0
 73
     1
 74
     1
 75
     0
 76
     0
 77
     0
 78
     4
170
     0
171
     2
172
     0
173
     0
174
     0
175
     0
176
     0
177
     0
178
     0
  0
ENDTAB
  0
ENDSEC
  0
SECTION
  2
BLOCKS
  0
BLOCK
  8
0
  2
$MODEL_SPACE
 70
     0
 10
0.0
 20
0.0
 30
0.0
  3
$MODEL_SPACE
  1

  0
ENDBLK
  5
21
  8
0
  0
BLOCK
 67
     1
  8
0
  2
$PAPER_SPACE
 70
     0
 10
0.0
 20
0.0
 30
0.0
  3
$PAPER_SPACE
  1

  0
ENDBLK
  5
1D
 67
     1
  8
0
  0
ENDSEC
  0
SECTION
  2
ENTITIES
  0
ATTDEF
  5
3930
  8
DEFPOINTS
 10
5216.9548537854743699
 20
460.4771348003707772
 30
0.0
 40
0.001
  1
P40877-SN
  3

  2
MODELNUMBER
 70
     0
1001
ACDBATTR
1070
     0
1070
     1
  0
ATTDEF
  5
3931
  8
DEFPOINTS
 10
5216.9548537854743699
 20
460.4754681337039983
 30
0.0
 40
0.001
  1
ONE
  3

  2
TRADENAME
 70
     0
1001
ACDBATTR
1070
     0
1070
     1
  0
ATTDEF
  5
3932
  8
DEFPOINTS
 10
5216.9548537854743699
 20
460.47380146703739
 30
0.0
 40
0.001
  1
BATHROOM SINK FAUCET
  3

  2
PRODUCT
 70
     0
1001
ACDBATTR
1070
     0
1070
     1
  0
ARC
  5
18D52
  8
0
 10
5221.531282939015
 20
463.3495266883207933
 30
0.0
 40
0.0140434657584074
 50
4.4685117017865243
 51
86.4917517488358243
  0
ARC
  5
18D53
  8
0
 10
5221.546317848599756
 20
462.3752381540724059
 30
0.0
 40
0.1850311280106319
 50
94.3305050882525791
 51
179.8748126379400958
  0
ARC
  5
18D54
  8
0
 10
5221.5295989894520972
 20
462.5751873880021208
 30
0.0
 40
0.0156887596928109
 50
280.0849411795866786
 51
358.7009468704910091
  0
LINE
  5
18D55
  8
0
 10
5221.5452837168841143
 20
462.5692014672491723
 30
0.0
 11
5221.5452837168841143
 21
463.3527676761111138
 31
0.0
  0
LINE
  5
18D56
  8
0
 10
5223.7452837168830229
 20
462.5704760601112184
 30
0.0
 11
5223.7452837168830229
 21
463.3527676761111138
 31
0.0
  0
ARC
  5
18D57
  8
0
 10
5223.7338273799141461
 20
463.3521644415869218
 30
0.0
 40
0.0114722076626978
 50
3.014131214738033
 51
82.7069212616903258
  0
ARC
  5
18D58
  8
0
 10
5223.7339153464627088
 20
462.5710408733161785
 30
0.0
 40
0.0113823925427832
 50
276.9046940461699933
 51
357.15572028384139
  0
LINE
  5
18D59
  8
0
 10
5221.5552871622521707
 20
463.3635438366184758
 30
0.0
 11
5223.7352837168837141
 21
463.3635438366184758
 31
0.0
  0
ARC
  5
18D5A
  8
0
 10
5221.5551559150908361
 20
463.3536345230568259
 30
0.0
 40
0.0099101826968066
 50
89.2411715877221923
 51
185.018093592089599
  0
LINE
  5
18D5B
  8
0
 10
5221.5552905928852852
 20
462.5597410316186142
 30
0.0
 11
5223.7352837168828046
 21
462.5597410316186142
 31
0.0
  0
ARC
  5
18D5C
  8
0
 10
5221.5554082973740151
 20
462.5698881921492216
 30
0.0
 40
0.010147843178771
 50
183.880285789959288
 51
269.3354132982320834
  0
ARC
  5
18D5D
  8
0
 10
5221.9609436821847339
 20
459.1977926566411838
 30
0.0
 40
4.1683688655337319
 50
92.0306544498767209
 51
95.5982593769183353
  0
ARC
  5
18D5E
  8
0
 10
5221.555283716885242
 20
463.3363276165505908
 30
0.0
 40
0.01
 50
95.5982593769183353
 51
180.0
  0
ARC
  5
18D5F
  8
0
 10
5221.983821919683578
 20
460.1930148259107796
 30
0.0
 40
3.1707428044003829
 50
90.6653604879157626
 51
97.7922456770162682
  0
ARC
  5
18D60
  8
0
 10
5221.555283716885242
 20
463.3245719600391226
 30
0.0
 40
0.01
 50
97.7922456770162682
 51
180.0000000000065086
  0
ARC
  5
18D61
  8
0
 10
5222.2718644664400927
 20
459.4144494330544148
 30
0.0
 40
3.9530035386008469
 50
92.5482976938994852
 51
100.4708202269401056
  0
ARC
  5
18D62
  8
0
 10
5221.555283716885242
 20
463.2917924582179126
 30
0.0
 40
0.01
 50
100.4708202269401056
 51
180.0
  0
ARC
  5
18D63
  8
0
 10
5222.398577299632052
 20
459.5569531924999751
 30
0.0
 40
3.8075709298349518
 50
91.3001674359148154
 51
102.7617792333158064
  0
ARC
  5
18D64
  8
0
 10
5221.555283716885242
 20
463.2802183908999041
 30
0.0
 40
0.01
 50
180.0
 51
282.7617792333159059
  0
ARC
  5
18D65
  8
0
 10
5222.6108945000723907
 20
459.2635641481161883
 30
0.0
 40
4.1067513191855509
 50
95.2081692286253229
 51
104.9318655894605996
  0
ARC
  5
18D66
  8
0
 10
5222.2525390620903636
 20
463.1950170421745838
 30
0.0
 40
0.159
 50
91.5357416139068789
 51
95.2081692286253229
  0
ARC
  5
18D67
  8
0
 10
5221.555283716885242
 20
463.2219801502142218
 30
0.0
 40
0.01
 50
104.9318655894605996
 51
180.0
  0
ARC
  5
18D68
  8
0
 10
5222.7345514068911143
 20
459.3116455453238132
 30
0.0
 40
4.0549277323491726
 50
97.1312224433939662
 51
106.864416564871803
  0
ARC
  5
18D69
  8
0
 10
5221.555283716885242
 20
463.2017567499714801
 30
0.0
 40
0.01
 50
180.0000000000065086
 51
286.864416564871874
  0
ARC
  5
18D6A
  8
0
 10
5222.2509023118009281
 20
463.1774360787729847
 30
0.0
 40
0.159
 50
92.0549024436822947
 51
97.1312224433939662
  0
ARC
  5
18D6B
  8
0
 10
5223.8303842185841859
 20
454.6138779035659923
 30
0.0
 40
8.8459171538472212
 50
100.3706274332845965
 51
104.8863012879476031
  0
ARC
  5
18D6C
  8
0
 10
5221.555283716885242
 20
463.1725685944933844
 30
0.0
 40
0.01
 50
180.0
 51
284.8863012879467078
  0
ARC
  5
18D6D
  8
0
 10
5222.2666097340033957
 20
463.1588845740827765
 30
0.0
 40
0.159
 50
92.8459910762739327
 51
100.3706274332845965
  0
ARC
  5
18D6E
  8
0
 10
5223.8685675087062918
 20
454.9160668870057975
 30
0.0
 40
8.5560996296121097
 50
101.0282101866370965
 51
105.7049127069873009
  0
ARC
  5
18D6F
  8
0
 10
5221.555283716885242
 20
463.1431281471247985
 30
0.0
 40
0.01
 50
105.7049127069864056
 51
180.0
  0
ARC
  5
18D70
  8
0
 10
5223.498126024773228
 20
457.4648422624093769
 30
0.0
 40
5.967062777008648
 50
102.3292077646252949
 51
108.9685845068868986
  0
ARC
  5
18D71
  8
0
 10
5221.555283716885242
 20
463.1173322630177154
 30
0.0
 40
0.01
 50
179.9999999999934914
 51
288.968584506885918
  0
ARC
  5
18D72
  8
0
 10
5222.2579395061029572
 20
463.1389528200722907
 30
0.0
 40
0.159
 50
93.6938053804058484
 51
102.3292077646252949
  0
ARC
  5
18D73
  8
0
 10
5223.6602080225184181
 20
456.5567815350996739
 30
0.0
 40
6.8467532956804718
 50
102.0552299889560004
 51
107.8776603929204043
  0
ARC
  5
18D74
  8
0
 10
5221.555283716885242
 20
463.0824508054022886
 30
0.0
 40
0.01
 50
180.0
 51
287.8776603929204043
  0
ARC
  5
18D75
  8
0
 10
5222.2634408209187313
 20
463.0970480073788167
 30
0.0
 40
0.159
 50
94.4416899851487841
 51
102.0552299889560004
  0
ARC
  5
18D76
  8
0
 10
5223.99510721867955
 20
455.419731646295304
 30
0.0
 40
8.0237909624013817
 50
102.5988934987881009
 51
107.725264130863394
  0
ARC
  5
18D77
  8
0
 10
5221.555283716885242
 20
463.0530865358015831
 30
0.0
 40
0.01
 50
107.725264130864403
 51
180.0
  0
ARC
  5
18D78
  8
0
 10
5222.2796044532033193
 20
463.0951461070208097
 30
0.0
 40
0.159
 50
94.6026854447587766
 51
102.5988934987881009
  0
ARC
  5
18D79
  8
0
 10
5224.9900401613003851
 20
453.7225624738233023
 30
0.0
 40
9.8930638976236196
 50
106.2534553803681945
 51
110.2940195650196955
  0
ARC
  5
18D7A
  8
0
 10
5221.555283716885242
 20
463.0108950867287945
 30
0.0
 40
0.01
 50
180.0
 51
290.2940195650207897
  0
ARC
  5
18D7B
  8
0
 10
5222.2656030759499117
 20
463.0675848136037871
 30
0.0
 40
0.159
 50
95.0946394567312865
 51
106.2534553803681945
  0
ARC
  5
18D7C
  8
0
 10
5226.0420705826390986
 20
449.5177881822025938
 30
0.0
 40
14.1770274071043705
 50
105.6023093353416016
 51
108.4368852963150971
  0
ARC
  5
18D7D
  8
0
 10
5221.555283716885242
 20
462.97663249630358
 30
0.0
 40
0.01
 50
180.0
 51
288.4368852963150971
  0
ARC
  5
18D7E
  8
0
 10
5222.2718009796080878
 20
463.0192754894133031
 30
0.0
 40
0.159
 50
95.287903521316963
 51
105.6023093353416016
  0
ARC
  5
18D7F
  8
0
 10
5231.9762438261141142
 20
434.738054050738981
 30
0.0
 40
30.018831961528349
 50
108.9674366637816973
 51
110.3058748543375032
  0
ARC
  5
18D80
  8
0
 10
5221.555283716885242
 20
462.9006948959354872
 30
0.0
 40
0.01
 50
180.0
 51
290.3058748543409138
  0
ARC
  5
18D81
  8
0
 10
5222.2708808965626304
 20
462.976600316019983
 30
0.0
 40
0.159
 50
96.0192407815147959
 51
108.9674366637816973
  0
ARC
  5
18D82
  8
0
 10
5215.8329080097610131
 20
481.1109361469867167
 30
0.0
 40
19.1270756228693095
 50
287.4175588811276043
 51
289.520219402802411
  0
ARC
  5
18D83
  8
0
 10
5221.555283716885242
 20
462.8704044486772204
 30
0.0
 40
0.01
 50
180.0000000000065086
 51
287.4175588811841067
  0
ARC
  5
18D84
  8
0
 10
5222.2771475220979482
 20
462.9333540734911026
 30
0.0
 40
0.159
 50
95.5041719608280175
 51
109.5202194028022973
  0
ARC
  5
18D85
  8
0
 10
5215.1469096254895703
 20
483.1764610665609894
 30
0.0
 40
21.3107690359777493
 50
287.491815203989006
 51
289.4029760005665821
  0
ARC
  5
18D86
  8
0
 10
5221.555283716885242
 20
462.841566579737389
 30
0.0
 40
0.01
 50
107.4918152039333989
 51
180.0
  0
ARC
  5
18D87
  8
0
 10
5222.2793842456949278
 20
462.9260588915332733
 30
0.0
 40
0.159
 50
95.2981360848609
 51
109.4029760005655021
  0
ARC
  5
18D88
  8
0
 10
5207.5565832723486892
 20
503.4161912644212862
 30
0.0
 40
42.9432698669328303
 50
289.0296355753894773
 51
289.987666438947997
  0
ARC
  5
18D89
  8
0
 10
5221.555283716885242
 20
462.8292223294162113
 30
0.0
 40
0.01
 50
180.0000000000065086
 51
289.0296355753906141
  0
ARC
  5
18D8A
  8
0
 10
5222.2897087468336395
 20
462.9101339219076863
 30
0.0
 40
0.159
 50
96.398397071207782
 51
109.987666438947997
  0
ARC
  5
18D8B
  8
0
 10
5200.9357654453933719
 20
521.9998326491104308
 30
0.0
 40
62.7005761691371717
 50
289.2025924089533078
 51
289.8433461614097837
  0
ARC
  5
18D8C
  8
0
 10
5221.555283716885242
 20
462.7972667700033185
 30
0.0
 40
0.01
 50
180.0
 51
289.2025924089576279
  0
ARC
  5
18D8D
  8
0
 10
5222.2734253690041442
 20
462.8725920137833896
 30
0.0
 40
0.159
 50
96.6766670882380481
 51
109.8433461614097979
  0
ARC
  5
18D8E
  8
0
 10
5238.4660412325429206
 20
411.8426029698989055
 30
0.0
 40
53.6618326553195217
 50
107.6128309130643004
 51
108.3654594606137067
  0
ARC
  5
18D8F
  8
0
 10
5221.555283716885242
 20
462.7807213178239749
 30
0.0
 40
0.01
 50
179.9999999999934914
 51
288.3654594605620787
  0
ARC
  5
18D90
  8
0
 10
5222.2769753059501454
 20
462.8373796295488205
 30
0.0
 40
0.159
 50
96.0085733303604769
 51
107.6128309130643004
  0
ARC
  5
18D91
  8
0
 10
5257.6974955868527104
 20
352.5515664612678961
 30
0.0
 40
115.985095395021105
 50
107.8053132742521996
 51
108.1579535835712989
  0
ARC
  5
18D92
  8
0
 10
5221.555283716885242
 20
462.7512183347220116
 30
0.0
 40
0.01
 50
108.1579535835187045
 51
179.9999999999934914
  0
ARC
  5
18D93
  8
0
 10
5222.2797753321810887
 20
462.8297123761241778
 30
0.0
 40
0.159
 50
96.0477262123769151
 51
107.8053132742512048
  0
ARC
  5
18D94
  8
0
 10
5219.0083350127861195
 20
471.4346868675842757
 30
0.0
 40
9.0770045164868343
 50
286.3141055218736142
 51
290.819864645690302
  0
ARC
  5
18D95
  8
0
 10
5221.555283716885242
 20
462.7327547142813842
 30
0.0
 40
0.01
 50
180.0
 51
286.3141055218745237
  0
ARC
  5
18D96
  8
0
 10
5222.291097780803284
 20
462.8017703246372889
 30
0.0
 40
0.159
 50
96.6778540641028314
 51
110.819864645690302
  0
ARC
  5
18D97
  8
0
 10
5219.156228892841682
 20
471.1599648244422269
 30
0.0
 40
8.7978399206131517
 50
285.8426899638192822
 51
290.3697787850913983
  0
ARC
  5
18D98
  8
0
 10
5221.555283716885242
 20
462.7059322705916884
 30
0.0
 40
0.01
 50
180.0
 51
285.8426899638220107
  0
ARC
  5
18D99
  8
0
 10
5222.2739044184927479
 20
462.7632344679136054
 30
0.0
 40
0.159
 50
96.6956766872595637
 51
110.3697787850912988
  0
ARC
  5
18D9A
  8
0
 10
5216.8465387653586731
 20
479.8945520481191807
 30
0.0
 40
17.8355636792113792
 50
285.3168593836688274
 51
287.5609676649153812
  0
ARC
  5
18D9B
  8
0
 10
5221.555283716885242
 20
462.7021571752948716
 30
0.0
 40
0.01
 50
179.9999999999934914
 51
285.3168593837215781
  0
ARC
  5
18D9C
  8
0
 10
5222.2758669111981362
 20
462.7385992069039844
 30
0.0
 40
0.159
 50
94.7480757602207149
 51
107.5609676649153954
  0
ARC
  5
18D9D
  8
0
 10
5220.2356119914757073
 20
468.9733315826475746
 30
0.0
 40
6.4091390104364683
 50
283.540797280340314
 51
288.1252551156014192
  0
ARC
  5
18D9E
  8
0
 10
5222.2789296431501498
 20
462.7311121828844875
 30
0.0
 40
0.159
 50
94.8464554961720552
 51
108.125255115601405
  0
ARC
  5
18D9F
  8
0
 10
5257.0032547632035858
 20
344.1477618744690972
 30
0.0
 40
123.6828455334745058
 50
106.3224500728523054
 51
106.6533523925672995
  0
ARC
  5
18DA0
  8
0
 10
5221.555283716885242
 20
462.6524511693120871
 30
0.0
 40
0.01
 50
180.0
 51
286.6533523926191265
  0
ARC
  5
18DA1
  8
0
 10
5222.2877715901622651
 20
462.6930091155114724
 30
0.0
 40
0.159
 50
96.4260791469915972
 51
106.3224500728523054
  0
ARC
  5
18DA2
  8
0
 10
5220.3922377803237396
 20
468.1502346132231764
 30
0.0
 40
5.6471920648368457
 50
281.9065786443164825
 51
288.8835178679191813
  0
ARC
  5
18DA3
  8
0
 10
5221.555283716885242
 20
462.6343250304515777
 30
0.0
 40
0.01
 50
180.0
 51
281.9065786443172783
  0
ARC
  5
18DA4
  8
0
 10
5222.2713842442053647
 20
462.6565405135249875
 30
0.0
 40
0.159
 50
96.2079009337484337
 51
108.883517867919096
  0
ARC
  5
18DA5
  8
0
 10
5219.3020092124070288
 20
473.1344820586344895
 30
0.0
 40
10.7507665560798795
 50
282.1098773492511214
 51
285.8209192496996138
  0
ARC
  5
18DA6
  8
0
 10
5221.555283716885242
 20
462.6327288612069992
 30
0.0
 40
0.01
 50
180.0
 51
282.109877349302792
  0
ARC
  5
18DA7
  8
0
 10
5222.2763557142379796
 20
462.637993636537999
 30
0.0
 40
0.159
 50
95.8100273906427446
 51
105.8209192496988038
  0
ARC
  5
18DA8
  8
0
 10
5220.9697993354284336
 20
466.7455584642058284
 30
0.0
 40
4.1973822072029581
 50
278.0374941438515748
 51
287.5786385953114745
  0
ARC
  5
18DA9
  8
0
 10
5221.555283716885242
 20
462.5993098237755135
 30
0.0
 40
0.01
 50
180.0
 51
278.0374941439035865
  0
ARC
  5
18DAA
  8
0
 10
5222.285489906346811
 20
462.5926047855779188
 30
0.0
 40
0.159
 50
95.7501644622248165
 51
107.578638595311503
  0
ARC
  5
18DAB
  8
0
 10
5221.1853420604529674
 20
466.1077131002933811
 30
0.0
 40
3.5493324971781481
 50
275.9996853485877182
 51
286.9575563408112089
  0
ARC
  5
18DAC
  8
0
 10
5221.555283716885242
 20
462.5877674051982922
 30
0.0
 40
0.01
 50
180.0
 51
275.9996853485877182
  0
ARC
  5
18DAD
  8
0
 10
5222.266926226263422
 20
462.5606149057265952
 30
0.0
 40
0.159
 50
95.362955783805134
 51
106.9575563408111947
  0
ARC
  5
18DAE
  8
0
 10
5221.4016968994274066
 20
466.0278470196229819
 30
0.0
 40
3.468997137456999
 50
272.4344629060116176
 51
283.9940657801453767
  0
ARC
  5
18DAF
  8
0
 10
5222.2790242433156891
 20
462.5075260170635261
 30
0.0
 40
0.159
 50
94.6390421542414231
 51
103.9940657801454051
  0
ARC
  5
18DB0
  8
0
 10
5221.5323310020939971
 20
465.6886893285586098
 30
0.0
 40
3.1285396861402979
 50
270.3665417632950039
 51
282.7754649348681824
  0
ARC
  5
18DB1
  8
0
 10
5222.2593076154089431
 20
462.4825355281869861
 30
0.0
 40
0.159
 50
94.1507183244838757
 51
102.7754649348681966
  0
ARC
  5
18DB2
  8
0
 10
5221.7200298932812075
 20
465.8297034799450103
 30
0.0
 40
3.2707036075596871
 50
271.2197785681340179
 51
279.230119749953019
  0
ARC
  5
18DB3
  8
0
 10
5222.2701546676789803
 20
462.4444073971329772
 30
0.0
 40
0.159
 50
94.0051161046306305
 51
99.2301197499529337
  0
ARC
  5
18DB4
  8
0
 10
5234.7991916933251559
 20
425.9035280433776052
 30
0.0
 40
39.3188179299133225
 50
108.634608953124598
 51
109.6893051693792955
  0
ARC
  5
18DB5
  8
0
 10
5221.555283716885242
 20
462.914095028478414
 30
0.0
 40
0.01
 50
109.6893051693826067
 51
180.0
  0
ARC
  5
18DB6
  8
0
 10
5222.286386882028637
 20
463.0104149521224031
 30
0.0
 40
0.159
 50
95.6423262214221239
 51
108.634608953124598
  0
ARC
  5
18DB7
  8
0
 10
5221.8259286817383327
 20
465.6495922379170906
 30
0.0
 40
3.089929067325043
 50
270.4067469917112021
 51
277.3775945714882027
  0
ARC
  5
18DB8
  8
0
 10
5222.2431165001025875
 20
462.427559586202392
 30
0.0
 40
0.159
 50
92.3245280013652376
 51
97.377594571488217
  0
ARC
  5
18DB9
  8
0
 10
5222.0374190009133599
 20
465.63623003957332
 30
0.0
 40
3.076628109099012
 50
270.5448376562205794
 51
273.9601631442661187
  0
ARC
  5
18DBA
  8
0
 10
5222.260880752475714
 20
462.408327608275215
 30
0.0
 40
0.159
 50
91.3253863778863888
 51
93.9601631442660761
  0
ARC
  5
18DBB
  8
0
 10
5222.9168057995257186
 20
438.4183454973224912
 30
0.0
 40
24.9445744968710912
 50
89.1315701415162209
 51
91.5357416139068789
  0
ARC
  5
18DBC
  8
0
 10
5223.6067783763355692
 20
425.3884575027033179
 30
0.0
 40
37.972295303702829
 50
90.5076827918924067
 51
92.0549024436822947
  0
ARC
  5
18DBD
  8
0
 10
5225.18202214793655
 20
404.5137870008255732
 30
0.0
 40
58.8765195228833207
 50
91.7276186206080837
 51
92.8459910762739327
  0
ARC
  5
18DBE
  8
0
 10
5224.2869792100691484
 20
431.7094939529898738
 30
0.0
 40
31.6538866770130909
 50
90.9989741538783363
 51
93.6938053804058484
  0
ARC
  5
18DBF
  8
0
 10
5223.7352837168837141
 20
463.3485709956352139
 30
0.0
 40
0.01
 50
0.0
 51
90.9989741538783363
  0
ARC
  5
18DC0
  8
0
 10
5225.1803763423822602
 20
425.5453130866796982
 30
0.0
 40
37.8238550825676825
 50
92.1901463181648353
 51
94.4416899851487841
  0
ARC
  5
18DC1
  8
0
 10
5223.7352837168837141
 20
463.3315452818742983
 30
0.0
 40
0.01
 50
0.0
 51
92.1901463181127667
  0
ARC
  5
18DC2
  8
0
 10
5225.0882543426196207
 20
428.2073663180195808
 30
0.0
 40
35.1596527483010703
 50
92.205958115754882
 51
94.6026854447587766
  0
ARC
  5
18DC3
  8
0
 10
5223.7352837168837141
 20
463.3309703303081051
 30
0.0
 40
0.01
 50
0.0
 51
92.205958115754882
  0
ARC
  5
18DC4
  8
0
 10
5225.3789071853816495
 20
428.1467972207037747
 30
0.0
 40
35.2182936121970585
 50
92.6757027019400539
 51
95.0946394567312865
  0
ARC
  5
18DC5
  8
0
 10
5223.7352837168837141
 20
463.3167053948301941
 30
0.0
 40
0.01
 50
0.0
 51
92.6757027019400539
  0
ARC
  5
18DC6
  8
0
 10
5226.5922492427289399
 20
416.3391085859350937
 30
0.0
 40
47.0386784900547497
 50
93.4828305571428757
 51
95.287903521316963
  0
ARC
  5
18DC7
  8
0
 10
5223.7352837168837141
 20
463.2809273460243844
 30
0.0
 40
0.01
 50
0.0000000000065138
 51
93.4828305571950864
  0
ARC
  5
18DC8
  8
0
 10
5227.5484171919497385
 20
409.7492444305411823
 30
0.0
 40
53.6794750381709491
 50
94.3035974226875453
 51
95.6423262214221239
  0
ARC
  5
18DC9
  8
0
 10
5227.5079420137290072
 20
413.3097397747008017
 30
0.0
 40
50.1012050491942773
 50
94.3193666188862636
 51
96.0192407815147959
  0
ARC
  5
18DCA
  8
0
 10
5223.7352837168837141
 20
463.258672422512916
 30
0.0
 40
0.01
 50
0.0
 51
94.3193666188865052
  0
ARC
  5
18DCB
  8
0
 10
5230.1225807153950882
 20
381.5175535554137127
 30
0.0
 40
81.9519299878043626
 50
94.4706877389886159
 51
95.5041719608280175
  0
ARC
  5
18DCC
  8
0
 10
5223.7352837168837141
 20
463.2101623225416915
 30
0.0
 40
0.01
 50
0.0
 51
94.4706877390930231
  0
ARC
  5
18DCD
  8
0
 10
3590.8612917580758221
 20
18055.3014337487511511
 30
0.0
 40
17667.698717402490729
 50
275.2981360878965233
 51
275.3029286265320934
  0
ARC
  5
18DCE
  8
0
 10
5223.7352837168837141
 20
463.23085802016152
 30
0.0
 40
0.01
 50
275.3029286568337284
 51
0.0
  0
ARC
  5
18DCF
  8
0
 10
5229.7746253308978339
 20
396.1637422709364955
 30
0.0
 40
67.3237584280272046
 50
95.1474574073657493
 51
96.398397071207782
  0
ARC
  5
18DD0
  8
0
 10
5223.7352837168837141
 20
463.2060306162489951
 30
0.0
 40
0.01
 50
0.0
 51
95.1474574073660335
  0
ARC
  5
18DD1
  8
0
 10
5229.5979672189760095
 20
400.3018461119722815
 30
0.0
 40
63.1569932697939507
 50
95.327117726809206
 51
96.676667088289804
  0
ARC
  5
18DD2
  8
0
 10
5223.7352837168837141
 20
463.1760991983485951
 30
0.0
 40
0.01
 50
359.9999999999935199
 51
95.3271177267048415
  0
ARC
  5
18DD3
  8
0
 10
5232.3639715723757035
 20
367.0039645830615882
 30
0.0
 40
96.5218088691440244
 50
95.129407665373023
 51
96.0085733303608038
  0
ARC
  5
18DD4
  8
0
 10
5223.7352837168837141
 20
463.1292734100643997
 30
0.0
 40
0.01
 50
0.0
 51
95.1294076654776859
  0
ARC
  5
18DD5
  8
0
 10
5232.4022224700893275
 20
367.286697390248321
 30
0.0
 40
96.2367375287899307
 50
95.1675124898797264
 51
96.0477262123769151
  0
ARC
  5
18DD6
  8
0
 10
5223.7352837168837141
 20
463.1223337061970255
 30
0.0
 40
0.01
 50
0.0
 51
95.1675124897753335
  0
ARC
  5
18DD7
  8
0
 10
5237.2704223981745599
 20
334.8621096373415185
 30
0.0
 40
128.972574373095398
 50
96.0245166013468037
 51
96.6778540641028314
  0
ARC
  5
18DD8
  8
0
 10
5223.7352837168837141
 20
463.1124336518030873
 30
0.0
 40
0.01
 50
0.0
 51
96.0245166013468037
  0
ARC
  5
18DD9
  8
0
 10
5240.7575329521114327
 20
305.3170773296494076
 30
0.0
 40
158.6864011689328038
 50
96.1575623735298137
 51
96.6956766872599616
  0
ARC
  5
18DDA
  8
0
 10
5223.7352837168837141
 20
463.0979087856430283
 30
0.0
 40
0.01
 50
276.1575623737392107
 51
0.0
  0
ARC
  5
18DDB
  8
0
 10
5219.0435744087535568
 20
501.6538558179270808
 30
0.0
 40
38.8902626296980003
 50
274.7480757602206722
 51
276.9272324930885247
  0
ARC
  5
18DDC
  8
0
 10
5223.7352837168837141
 20
463.0375600811854042
 30
0.0
 40
0.01
 50
0.0
 51
96.927232492983137
  0
ARC
  5
18DDD
  8
0
 10
5218.6728014853251807
 20
505.261765175331675
 30
0.0
 40
42.5242590631809279
 50
274.8464554961719841
 51
276.8356216171605979
  0
ARC
  5
18DDE
  8
0
 10
5223.7352837168837141
 20
463.0298522692255005
 30
0.0
 40
0.01
 50
359.9999999999935199
 51
96.8356216170555371
  0
ARC
  5
18DDF
  8
0
 10
5138.8227529701225649
 20
1203.75526305589392
 30
0.0
 40
745.5887278198324566
 50
276.4260791470965728
 51
276.539319262281424
  0
ARC
  5
18DE0
  8
0
 10
5223.7352837168837141
 20
463.0074483114066197
 30
0.0
 40
0.01
 50
359.9999999999935199
 51
96.5393192603938957
  0
ARC
  5
18DE1
  8
0
 10
5197.3876495240456279
 20
691.4213934621676572
 30
0.0
 40
229.9552285871027948
 50
276.2079009338002038
 51
276.5789538402818835
  0
ARC
  5
18DE2
  8
0
 10
5223.7352837168837141
 20
462.9705047977573145
 30
0.0
 40
0.01
 50
359.9999999999902229
 51
96.5789538396521863
  0
ARC
  5
18DE3
  8
0
 10
5211.4562653553275595
 20
568.9746919124690976
 30
0.0
 40
106.7267696590213006
 50
275.8100273906430857
 51
276.6071867544675911
  0
ARC
  5
18DE4
  8
0
 10
5223.7352837168837141
 20
462.9666986547284182
 30
0.0
 40
0.01
 50
276.6071867543628855
 51
359.9999999999935199
  0
ARC
  5
18DE5
  8
0
 10
5210.442736935301582
 20
580.1997018642579178
 30
0.0
 40
118.0428615809720014
 50
275.7501644622248023
 51
276.4651156507807741
  0
ARC
  5
18DE6
  8
0
 10
5223.7352837168837141
 20
462.8975862502776977
 30
0.0
 40
0.01
 50
0.0
 51
96.4651156508854797
  0
ARC
  5
18DE7
  8
0
 10
5214.2308373798168759
 20
548.1642553428647489
 30
0.0
 40
85.8210091884085386
 50
275.3629557838050914
 51
276.3591408185408795
  0
ARC
  5
18DE8
  8
0
 10
5223.7352837168837141
 20
462.8812277362013106
 30
0.0
 40
0.01
 50
276.3591408184884131
 51
0.0
  0
ARC
  5
18DE9
  8
0
 10
5217.0586743616695458
 20
526.8419553170231211
 30
0.0
 40
64.3868817140048719
 50
274.6390421542416789
 51
275.9529234634982799
  0
ARC
  5
18DEA
  8
0
 10
5223.7352837168837141
 20
462.8122295114501981
 30
0.0
 40
0.01
 50
275.952923463550519
 51
0.0
  0
ARC
  5
18DEB
  8
0
 10
5218.1583361785178568
 20
518.992553313773783
 30
0.0
 40
56.4996275588594798
 50
274.1507183244838757
 51
275.6657642743886072
  0
ARC
  5
18DEC
  8
0
 10
5223.7352837168837141
 20
462.7788923594029029
 30
0.0
 40
0.01
 50
275.6657642745457224
 51
0.0
  0
ARC
  5
18DED
  8
0
 10
5216.8497498491888109
 20
539.8604674305788649
 30
0.0
 40
77.4465870379085572
 50
274.005116104682827
 51
275.1013838588939961
  0
ARC
  5
18DEE
  8
0
 10
5223.7352837168837141
 20
462.7306130586405857
 30
0.0
 40
0.01
 50
275.1013838591554759
 51
0.0
  0
ARC
  5
18DEF
  8
0
 10
5220.870854598679216
 20
496.2329911797024238
 30
0.0
 40
33.674272202802193
 50
272.324528001365195
 51
274.8810912522317835
  0
ARC
  5
18DF0
  8
0
 10
5223.7352837168837141
 20
462.6908047755464963
 30
0.0
 40
0.01
 50
274.8810912522841932
 51
0.0
  0
ARC
  5
18DF1
  8
0
 10
5221.4698661335005454
 20
496.5973880062160788
 30
0.0
 40
34.0392098218822667
 50
271.3253863778863888
 51
273.8171598848102803
  0
ARC
  5
18DF2
  8
0
 10
5223.7352837168837141
 20
462.643669442933799
 30
0.0
 40
0.01
 50
273.8171598849148722
 51
0.0
  0
ARC
  5
18DF3
  8
0
 10
5221.4875593222159296
 20
501.8388415476846944
 30
0.0
 40
39.2895704139542019
 50
271.3227563583873234
 51
273.2804714883072279
  0
ARC
  5
18DF4
  8
0
 10
5223.7352837168837141
 20
462.6236354797524086
 30
0.0
 40
0.01
 50
273.2804714883072279
 51
0.0
  0
ARC
  5
18DF5
  8
0
 10
5224.3145835678487856
 20
408.3019921105886851
 30
0.0
 40
54.2841920518341965
 50
90.6113373285468668
 51
91.7884426118376666
  0
ARC
  5
18DF6
  8
0
 10
5223.7352837168837141
 20
462.5930936120698789
 30
0.0
 40
0.01
 50
270.6113373284946988
 51
0.0
  0
ARC
  5
18DF7
  8
0
 10
5222.2619293997240675
 20
522.8871795143103327
 30
0.0
 40
60.3332564955686479
 50
270.7957013150439138
 51
271.3995494338321919
  0
ARC
  5
18DF8
  8
0
 10
5223.7352837168837141
 20
462.5819185391160886
 30
0.0
 40
0.01
 50
271.3995494337800096
 51
0.0
  0
LINE
  5
18DF9
  8
0
 10
5219.8342871622508028
 20
460.4726424341185975
 30
0.0
 11
5222.0842871622508028
 21
460.4726424341185975
 31
0.0
  0
LINE
  5
18DFA
  8
0
 10
5219.8542871622521488
 20
460.8726424341185748
 30
0.0
 11
5222.0642871622521852
 21
460.8726424341185748
 31
0.0
  0
LINE
  5
18DFB
  8
0
 10
5219.8342871622508028
 20
460.8526424341184793
 30
0.0
 11
5219.8342871622508028
 21
460.4726424341185975
 31
0.0
  0
LINE
  5
18DFC
  8
0
 10
5220.5572871622525781
 20
462.0026424341186271
 30
0.0
 11
5220.5572871622525781
 21
460.9126424341185952
 31
0.0
  0
LINE
  5
18DFD
  8
0
 10
5220.5972871622516323
 20
462.0426424341185907
 30
0.0
 11
5221.3212871622508828
 21
462.0426424341185907
 31
0.0
  0
LINE
  5
18DFE
  8
0
 10
5220.5712871622508828
 20
462.0506424341185152
 30
0.0
 11
5221.3472871622516323
 21
462.0506424341185152
 31
0.0
  0
ARC
  5
18DFF
  8
0
 10
5219.8542871622521488
 20
460.8526424341184793
 30
0.0
 40
0.02
 50
90.0
 51
179.9999999999870113
  0
ARC
  5
18E00
  8
0
 10
5220.517287162251705
 20
460.9126424341185952
 30
0.0
 40
0.04
 50
270.0
 51
0.0
  0
ARC
  5
18E01
  8
0
 10
5220.5972871622516323
 20
462.0026424341186271
 30
0.0
 40
0.04
 50
90.0
 51
180.0000000000032117
  0
ARC
  5
18E02
  8
0
 10
5220.5712871622508828
 20
462.0646424341185252
 30
0.0
 40
0.014
 50
179.9999999999934914
 51
270.0
  0
LINE
  5
18E03
  8
0
 10
5220.609287162252258
 20
462.0506424341185152
 30
0.0
 11
5220.609287162252258
 21
462.0426424341185907
 31
0.0
  0
LINE
  5
18E04
  8
0
 10
5222.0842871622508028
 20
460.8526424341184793
 30
0.0
 11
5222.0842871622508028
 21
460.4726424341185975
 31
0.0
  0
LINE
  5
18E05
  8
0
 10
5221.3612871622517559
 20
462.0026424341186271
 30
0.0
 11
5221.3612871622517559
 21
460.9126424341185952
 31
0.0
  0
ARC
  5
18E06
  8
0
 10
5222.0642871622521852
 20
460.8526424341184793
 30
0.0
 40
0.02
 50
0.0000000000130276
 51
90.0
  0
ARC
  5
18E07
  8
0
 10
5221.4012871622508101
 20
460.9126424341185952
 30
0.0
 40
0.04
 50
180.0
 51
270.0
  0
ARC
  5
18E08
  8
0
 10
5221.3212871622508828
 20
462.0026424341186271
 30
0.0
 40
0.04
 50
359.9999999999968168
 51
90.0
  0
ARC
  5
18E09
  8
0
 10
5221.3472871622516323
 20
462.0646424341185252
 30
0.0
 40
0.014
 50
270.0
 51
0.0000000000065138
  0
LINE
  5
18E0A
  8
0
 10
5221.3092871622520761
 20
462.0506424341185152
 30
0.0
 11
5221.3092871622520761
 21
462.0426424341185907
 31
0.0
  0
LINE
  5
18E0B
  8
0
 10
5220.5572871622525781
 20
462.0646424341185252
 30
0.0
 11
5220.5572871622525781
 21
462.3756424341186175
 31
0.0
  0
LINE
  5
18E0C
  8
0
 10
5221.3612871622517559
 20
462.0646424341185252
 30
0.0
 11
5221.3612871622517559
 21
462.3756424341186175
 31
0.0
  0
ARC
  5
18E0D
  8
0
 10
5221.5452678195206317
 20
462.3756503708663104
 30
0.0
 40
0.9879806573012349
 50
90.7612087989019045
 51
180.0004602743414068
  0
LINE
  5
18E0E
  8
0
 10
5215.8342871622517123
 20
460.4726424341185975
 30
0.0
 11
5218.0842871622517123
 21
460.4726424341185975
 31
0.0
  0
LINE
  5
18E0F
  8
0
 10
5215.8442871622510211
 20
460.8726424341185748
 30
0.0
 11
5218.0742871622524035
 21
460.8726424341185748
 31
0.0
  0
ARC
  5
18E10
  8
0
 10
5218.0742871622524035
 20
460.8626424341185839
 30
0.0
 40
0.01
 50
0.0
 51
90.0
  0
ARC
  5
18E11
  8
0
 10
5215.8442871622510211
 20
460.8626424341185839
 30
0.0
 40
0.01
 50
90.0
 51
180.0
  0
LINE
  5
18E12
  8
0
 10
5215.8342871622517123
 20
460.8626424341185839
 30
0.0
 11
5215.8342871622517123
 21
460.4726424341185975
 31
0.0
  0
LINE
  5
18E13
  8
0
 10
5218.0842871622517123
 20
460.8626424341185839
 30
0.0
 11
5218.0842871622517123
 21
460.4726424341185975
 31
0.0
  0
LINE
  5
18E14
  8
0
 10
5216.5532871622517632
 20
470.8726424341185748
 30
0.0
 11
5216.5532871622517632
 21
460.8726424341185748
 31
0.0
  0
LINE
  5
18E15
  8
0
 10
5217.3652871622525709
 20
470.8726424341185748
 30
0.0
 11
5217.3652871622525709
 21
460.8726424341185748
 31
0.0
  0
ARC
  5
18E16
  8
0
 10
5216.9592871622517123
 20
470.8726424341185748
 30
0.0
 40
0.4060000000000006
 50
0.0
 51
180.0
  0
LINE
  5
18E18
  8
0
 10
5216.5632871622519815
 20
466.3726424341185748
 30
0.0
 11
5217.3552871622523526
 21
466.3726424341185748
 31
0.0
  0
ARC
  5
18E19
  8
0
 10
5216.5632871622519815
 20
466.3826424341186225
 30
0.0
 40
0.01
 50
180.0
 51
270.0
  0
ARC
  5
18E1A
  8
0
 10
5217.3552871622523526
 20
466.3826424341186225
 30
0.0
 40
0.01
 50
270.0
 51
0.0000000000162844
  0
ARC
  5
18E1B
  8
0
 10
5212.3872913854884246
 20
463.3495266883207933
 30
0.0
 40
0.0140434657584074
 50
93.5082482511641757
 51
175.5314882982135032
  0
ARC
  5
18E1C
  8
0
 10
5212.3722564759027591
 20
462.3752381540724059
 30
0.0
 40
0.1850311280106319
 50
0.1251873620598301
 51
85.6694949117474067
  0
ARC
  5
18E1D
  8
0
 10
5212.3889753350531464
 20
462.5751873880021208
 30
0.0
 40
0.0156887596928109
 50
181.2990531295089056
 51
259.9150588204133214
  0
LINE
  5
18E1E
  8
0
 10
5212.3732906076211293
 20
462.5692014672491723
 30
0.0
 11
5212.3732906076211293
 21
463.3527676761111138
 31
0.0
  0
LINE
  5
18E1F
  8
0
 10
5210.1732906076204017
 20
462.5704760601112184
 30
0.0
 11
5210.1732906076204017
 21
463.3527676761111138
 31
0.0
  0
ARC
  5
18E20
  8
0
 10
5210.1847469445901879
 20
463.3521644415869218
 30
0.0
 40
0.0114722076626978
 50
97.2930787383096742
 51
176.9858687852619141
  0
ARC
  5
18E21
  8
0
 10
5210.1846589780407157
 20
462.5710408733161785
 30
0.0
 40
0.0113823925427832
 50
182.84427971615861
 51
263.095305953829893
  0
LINE
  5
18E22
  8
0
 10
5212.3632871622521634
 20
463.3635438366184758
 30
0.0
 11
5210.1832906076197105
 21
463.3635438366184758
 31
0.0
  0
ARC
  5
18E23
  8
0
 10
5212.3634184094125885
 20
463.3536345230568259
 30
0.0
 40
0.0099101826968066
 50
354.981906407910401
 51
90.7588284122777935
  0
LINE
  5
18E24
  8
0
 10
5212.3632837316190489
 20
462.5597410316186142
 30
0.0
 11
5210.183290607622439
 21
462.5597410316186142
 31
0.0
  0
ARC
  5
18E25
  8
0
 10
5212.3631660271312285
 20
462.5698881921492216
 30
0.0
 40
0.010147843178771
 50
270.6645867017679166
 51
356.1197142100406268
  0
ARC
  5
18E26
  8
0
 10
5211.9576306423186907
 20
459.1977926566411838
 30
0.0
 40
4.1683688655337319
 50
84.4017406230816789
 51
87.9693455501232933
  0
ARC
  5
18E27
  8
0
 10
5212.3632906076200015
 20
463.3363276165505908
 30
0.0
 40
0.01
 50
0.0
 51
84.4017406230816789
  0
ARC
  5
18E28
  8
0
 10
5211.9347524048207561
 20
460.1930148259107796
 30
0.0
 40
3.1707428044003829
 50
82.2077543229837175
 51
89.3346395120842516
  0
ARC
  5
18E29
  8
0
 10
5212.3632906076200015
 20
463.3245719600391226
 30
0.0
 40
0.01
 50
359.9999999999935199
 51
82.2077543229837175
  0
ARC
  5
18E2A
  8
0
 10
5211.6467098580642414
 20
459.4144494330544148
 30
0.0
 40
3.9530035386008469
 50
79.5291797730598802
 51
87.4517023061005006
  0
ARC
  5
18E2B
  8
0
 10
5212.3632906076200015
 20
463.2917924582179126
 30
0.0
 40
0.01
 50
0.0
 51
79.5291797730598802
  0
ARC
  5
18E2C
  8
0
 10
5211.5199970248722821
 20
459.5569531924999751
 30
0.0
 40
3.8075709298349518
 50
77.2382207666841509
 51
88.6998325640851988
  0
ARC
  5
18E2D
  8
0
 10
5212.3632906076200015
 20
463.2802183908999041
 30
0.0
 40
0.01
 50
257.2382207666840941
 51
0.0
  0
ARC
  5
18E2E
  8
0
 10
5211.3076798244319434
 20
459.2635641481161883
 30
0.0
 40
4.1067513191855509
 50
75.068134410539372
 51
84.7918307713746771
  0
ARC
  5
18E2F
  8
0
 10
5211.66603526241488
 20
463.1950170421745838
 30
0.0
 40
0.159
 50
84.7918307713746771
 51
88.4642583860931069
  0
ARC
  5
18E30
  8
0
 10
5212.3632906076200015
 20
463.2219801502142218
 30
0.0
 40
0.01
 50
0.0
 51
75.068134410539372
  0
ARC
  5
18E31
  8
0
 10
5211.1840229176123103
 20
459.3116455453238132
 30
0.0
 40
4.0549277323491726
 50
73.1355834351281118
 51
82.8687775566060338
  0
ARC
  5
18E32
  8
0
 10
5212.3632906076200015
 20
463.2017567499714801
 30
0.0
 40
0.01
 50
253.1355834351280976
 51
359.9999999999935199
  0
ARC
  5
18E33
  8
0
 10
5211.6676720127034059
 20
463.1774360787729847
 30
0.0
 40
0.159
 50
82.8687775566060338
 51
87.9450975563177337
  0
ARC
  5
18E34
  8
0
 10
5210.0881901059210577
 20
454.6138779035659923
 30
0.0
 40
8.8459171538472212
 50
75.1136987120524395
 51
79.6293725667153467
  0
ARC
  5
18E35
  8
0
 10
5212.3632906076200015
 20
463.1725685944933844
 30
0.0
 40
0.01
 50
255.1136987120532922
 51
0.0
  0
ARC
  5
18E36
  8
0
 10
5211.6519645905018479
 20
463.1588845740827765
 30
0.0
 40
0.159
 50
79.6293725667153467
 51
87.1540089237260531
  0
ARC
  5
18E37
  8
0
 10
5210.0500068157980422
 20
454.9160668870057975
 30
0.0
 40
8.5560996296121097
 50
74.2950872930127133
 51
78.9717898133628751
  0
ARC
  5
18E38
  8
0
 10
5212.3632906076200015
 20
463.1431281471247985
 30
0.0
 40
0.01
 50
0.0
 51
74.2950872930135802
  0
ARC
  5
18E39
  8
0
 10
5210.4204482997311061
 20
457.4648422624093769
 30
0.0
 40
5.967062777008648
 50
71.0314154931130872
 51
77.6707922353746341
  0
ARC
  5
18E3A
  8
0
 10
5212.3632906076200015
 20
463.1173322630177154
 30
0.0
 40
0.01
 50
251.0314154931141104
 51
0.0000000000065138
  0
ARC
  5
18E3B
  8
0
 10
5211.6606348184013768
 20
463.1389528200722907
 30
0.0
 40
0.159
 50
77.6707922353746341
 51
86.3061946195941374
  0
ARC
  5
18E3C
  8
0
 10
5210.2583663019850064
 20
456.5567815350996739
 30
0.0
 40
6.8467532956804718
 50
72.1223396070795815
 51
77.944770011043957
  0
ARC
  5
18E3D
  8
0
 10
5212.3632906076200015
 20
463.0824508054022886
 30
0.0
 40
0.01
 50
252.1223396070795104
 51
0.0
  0
ARC
  5
18E3E
  8
0
 10
5211.6551335035856027
 20
463.0970480073788167
 30
0.0
 40
0.159
 50
77.944770011043957
 51
85.5583100148512017
  0
ARC
  5
18E3F
  8
0
 10
5209.9234671058238746
 20
455.419731646295304
 30
0.0
 40
8.0237909624013817
 50
72.2747358691366344
 51
77.4011065012119133
  0
ARC
  5
18E40
  8
0
 10
5212.3632906076200015
 20
463.0530865358015831
 30
0.0
 40
0.01
 50
0.0
 51
72.2747358691356396
  0
ARC
  5
18E41
  8
0
 10
5211.6389698713019243
 20
463.0951461070208097
 30
0.0
 40
0.159
 50
77.4011065012119133
 51
85.3973145552412092
  0
ARC
  5
18E42
  8
0
 10
5208.9285341632048585
 20
453.7225624738233023
 30
0.0
 40
9.8930638976236196
 50
69.7059804349803045
 51
73.7465446196317345
  0
ARC
  5
18E43
  8
0
 10
5212.3632906076200015
 20
463.0108950867287945
 30
0.0
 40
0.01
 50
249.7059804349792103
 51
0.0
  0
ARC
  5
18E44
  8
0
 10
5211.6529712485544223
 20
463.0675848136037871
 30
0.0
 40
0.159
 50
73.7465446196317345
 51
84.9053605432687135
  0
ARC
  5
18E45
  8
0
 10
5207.876503741864326
 20
449.5177881822025938
 30
0.0
 40
14.1770274071043705
 50
71.5631147036848319
 51
74.3976906646584126
  0
ARC
  5
18E46
  8
0
 10
5212.3632906076200015
 20
462.97663249630358
 30
0.0
 40
0.01
 50
251.5631147036847892
 51
0.0
  0
ARC
  5
18E47
  8
0
 10
5211.6467733448971558
 20
463.0192754894133031
 30
0.0
 40
0.159
 50
74.3976906646584126
 51
84.7120964786830228
  0
ARC
  5
18E48
  8
0
 10
5201.9423304983902199
 20
434.738054050738981
 30
0.0
 40
30.018831961528349
 50
69.6941251456625253
 51
71.03256333621826
  0
ARC
  5
18E49
  8
0
 10
5212.3632906076200015
 20
462.9006948959354872
 30
0.0
 40
0.01
 50
249.6941251456590862
 51
0.0
  0
ARC
  5
18E4A
  8
0
 10
5211.6476934279407942
 20
462.976600316019983
 30
0.0
 40
0.159
 50
71.03256333621826
 51
83.9807592184852041
  0
ARC
  5
18E4B
  8
0
 10
5218.0856663147442305
 20
481.1109361469867167
 30
0.0
 40
19.1270756228693095
 50
250.479780597197589
 51
252.5824411188723957
  0
ARC
  5
18E4C
  8
0
 10
5212.3632906076200015
 20
462.8704044486772204
 30
0.0
 40
0.01
 50
252.5824411188158933
 51
359.9999999999935199
  0
ARC
  5
18E4D
  8
0
 10
5211.6414268024063858
 20
462.9333540734911026
 30
0.0
 40
0.159
 50
70.4797805971976317
 51
84.4958280391719967
  0
ARC
  5
18E4E
  8
0
 10
5218.7716646990147638
 20
483.1764610665609894
 30
0.0
 40
21.3107690359777493
 50
250.5970239994333895
 51
252.508184796010994
  0
ARC
  5
18E4F
  8
0
 10
5212.3632906076200015
 20
462.841566579737389
 30
0.0
 40
0.01
 50
0.0
 51
72.50818479606653
  0
ARC
  5
18E50
  8
0
 10
5211.6391900788103158
 20
462.9260588915332733
 30
0.0
 40
0.159
 50
70.5970239994345121
 51
84.7018639151391142
  0
ARC
  5
18E51
  8
0
 10
5226.3619910521538259
 20
503.4161912644212862
 30
0.0
 40
42.9432698669328303
 50
250.012333561052003
 51
250.9703644246104091
  0
ARC
  5
18E52
  8
0
 10
5212.3632906076200015
 20
462.8292223294162113
 30
0.0
 40
0.01
 50
250.9703644246093859
 51
359.9999999999935199
  0
ARC
  5
18E53
  8
0
 10
5211.6288655776706946
 20
462.9101339219076863
 30
0.0
 40
0.159
 50
70.0123335610519746
 51
83.6016029287922038
  0
ARC
  5
18E54
  8
0
 10
5232.9828088791109622
 20
521.9998326491104308
 30
0.0
 40
62.7005761691371717
 50
250.1566538385901879
 51
250.7974075910466922
  0
ARC
  5
18E55
  8
0
 10
5212.3632906076200015
 20
462.7972667700033185
 30
0.0
 40
0.01
 50
250.7974075910424006
 51
0.0
  0
ARC
  5
18E56
  8
0
 10
5211.6451489555010994
 20
462.8725920137833896
 30
0.0
 40
0.159
 50
70.1566538385901879
 51
83.3233329117619661
  0
ARC
  5
18E57
  8
0
 10
5195.4525330919623229
 20
411.8426029698989055
 30
0.0
 40
53.6618326553195217
 50
71.6345405393863359
 51
72.3871690869356996
  0
ARC
  5
18E58
  8
0
 10
5212.3632906076200015
 20
462.7807213178239749
 30
0.0
 40
0.01
 50
251.6345405394378929
 51
0.0000000000065138
  0
ARC
  5
18E59
  8
0
 10
5211.6415990185541887
 20
462.8373796295488205
 30
0.0
 40
0.159
 50
72.3871690869356996
 51
83.9914266696395089
  0
ARC
  5
18E5A
  8
0
 10
5176.2210787376507142
 20
352.5515664612678961
 30
0.0
 40
115.985095395021105
 50
71.8420464164287011
 51
72.1946867257478431
  0
ARC
  5
18E5B
  8
0
 10
5212.3632906076200015
 20
462.7512183347220116
 30
0.0
 40
0.01
 50
0.0000000000065138
 51
71.8420464164812529
  0
ARC
  5
18E5C
  8
0
 10
5211.6387989923223358
 20
462.8297123761241778
 30
0.0
 40
0.159
 50
72.1946867257488236
 51
83.9522737876230849
  0
ARC
  5
18E5D
  8
0
 10
5214.9102393117182146
 20
471.4346868675842757
 30
0.0
 40
9.0770045164868343
 50
249.180135354309698
 51
253.6858944781263006
  0
ARC
  5
18E5E
  8
0
 10
5212.3632906076200015
 20
462.7327547142813842
 30
0.0
 40
0.01
 50
253.6858944781255047
 51
0.0
  0
ARC
  5
18E5F
  8
0
 10
5211.6274765437019596
 20
462.8017703246372889
 30
0.0
 40
0.159
 50
69.1801353543096837
 51
83.3221459358971543
  0
ARC
  5
18E60
  8
0
 10
5214.7623454316617426
 20
471.1599648244422269
 30
0.0
 40
8.7978399206131517
 50
249.6302212149086017
 51
254.1573100361806041
  0
ARC
  5
18E61
  8
0
 10
5212.3632906076200015
 20
462.7059322705916884
 30
0.0
 40
0.01
 50
254.1573100361779893
 51
0.0
  0
ARC
  5
18E62
  8
0
 10
5211.6446699060115861
 20
462.7632344679136054
 30
0.0
 40
0.159
 50
69.6302212149086728
 51
83.3043233127404363
  0
ARC
  5
18E63
  8
0
 10
5217.072035559143842
 20
479.8945520481191807
 30
0.0
 40
17.8355636792113792
 50
252.4390323350845904
 51
254.683140616331201
  0
ARC
  5
18E64
  8
0
 10
5212.3632906076200015
 20
462.7021571752948716
 30
0.0
 40
0.01
 50
254.6831406162783935
 51
0.0000000000065138
  0
ARC
  5
18E65
  8
0
 10
5211.6427074133061979
 20
462.7385992069039844
 30
0.0
 40
0.159
 50
72.4390323350845904
 51
85.2519242397793136
  0
ARC
  5
18E66
  8
0
 10
5213.6829623330268078
 20
468.9733315826475746
 30
0.0
 40
6.4091390104364683
 50
251.8747448843986092
 51
256.4592027196595723
  0
ARC
  5
18E67
  8
0
 10
5211.6396446813550938
 20
462.7311121828844875
 30
0.0
 40
0.159
 50
71.874744884398595
 51
85.1535445038279448
  0
ARC
  5
18E68
  8
0
 10
5176.9153195613007483
 20
344.1477618744690972
 30
0.0
 40
123.6828455334745058
 50
73.3466476074326863
 51
73.6775499271476519
  0
ARC
  5
18E69
  8
0
 10
5212.3632906076200015
 20
462.6524511693120871
 30
0.0
 40
0.01
 50
253.3466476073809019
 51
0.0
  0
ARC
  5
18E6A
  8
0
 10
5211.6308027343429785
 20
462.6930091155114724
 30
0.0
 40
0.159
 50
73.6775499271476519
 51
83.5739208530084028
  0
ARC
  5
18E6B
  8
0
 10
5213.526336544179685
 20
468.1502346132231764
 30
0.0
 40
5.6471920648368457
 50
251.116482132080904
 51
258.0934213556834038
  0
ARC
  5
18E6C
  8
0
 10
5212.3632906076200015
 20
462.6343250304515777
 30
0.0
 40
0.01
 50
258.0934213556827217
 51
0.0
  0
ARC
  5
18E6D
  8
0
 10
5211.6471900802989694
 20
462.6565405135249875
 30
0.0
 40
0.159
 50
71.1164821320808329
 51
83.7920990662515663
  0
ARC
  5
18E6E
  8
0
 10
5214.6165651120973052
 20
473.1344820586344895
 30
0.0
 40
10.7507665560798795
 50
254.1790807503003009
 51
257.8901226507488218
  0
ARC
  5
18E6F
  8
0
 10
5212.3632906076200015
 20
462.6327288612069992
 30
0.0
 40
0.01
 50
257.890122650697208
 51
0.0
  0
ARC
  5
18E70
  8
0
 10
5211.642218610267264
 20
462.637993636537999
 30
0.0
 40
0.159
 50
74.1790807503012246
 51
84.1899726093572696
  0
ARC
  5
18E71
  8
0
 10
5212.94877498907681
 20
466.7455584642058284
 30
0.0
 40
4.1973822072029581
 50
252.421361404688497
 51
261.9625058561484252
  0
ARC
  5
18E72
  8
0
 10
5212.3632906076200015
 20
462.5993098237755135
 30
0.0
 40
0.01
 50
261.9625058560964135
 51
0.0
  0
ARC
  5
18E73
  8
0
 10
5211.6330844181566135
 20
462.5926047855779188
 30
0.0
 40
0.159
 50
72.4213614046885112
 51
84.2498355377751977
  0
ARC
  5
18E74
  8
0
 10
5212.7332322640513667
 20
466.1077131002933811
 30
0.0
 40
3.5493324971781481
 50
253.0424436591887911
 51
264.0003146514122818
  0
ARC
  5
18E75
  8
0
 10
5212.3632906076200015
 20
462.5877674051982922
 30
0.0
 40
0.01
 50
264.0003146514122818
 51
0.0
  0
ARC
  5
18E76
  8
0
 10
5211.6516480982418216
 20
462.5606149057265952
 30
0.0
 40
0.159
 50
73.0424436591888053
 51
84.637044216194866
  0
ARC
  5
18E77
  8
0
 10
5212.5168774250769275
 20
466.0278470196229819
 30
0.0
 40
3.468997137456999
 50
256.0059342198546233
 51
267.5655370939883824
  0
ARC
  5
18E78
  8
0
 10
5211.639550081188645
 20
462.5075260170635261
 30
0.0
 40
0.159
 50
76.0059342198545664
 51
85.3609578457585769
  0
ARC
  5
18E79
  8
0
 10
5212.3862433224112465
 20
465.6886893285586098
 30
0.0
 40
3.1285396861402979
 50
257.2245350651318176
 51
269.6334582367049961
  0
ARC
  5
18E7A
  8
0
 10
5211.659266709093572
 20
462.4825355281869861
 30
0.0
 40
0.159
 50
77.2245350651318034
 51
85.8492816755161243
  0
ARC
  5
18E7B
  8
0
 10
5212.1985444312231266
 20
465.8297034799450103
 30
0.0
 40
3.2707036075596871
 50
260.7698802500470947
 51
268.7802214318660958
  0
ARC
  5
18E7C
  8
0
 10
5211.6484196568253537
 20
462.4444073971329772
 30
0.0
 40
0.159
 50
80.7698802500470663
 51
85.9948838953693553
  0
ARC
  5
18E7D
  8
0
 10
5199.1193826311791781
 20
425.9035280433776052
 30
0.0
 40
39.3188179299133225
 50
70.310694830620676
 51
71.3653910468753878
  0
ARC
  5
18E7E
  8
0
 10
5212.3632906076200015
 20
462.914095028478414
 30
0.0
 40
0.01
 50
0.0
 51
70.3106948306173933
  0
ARC
  5
18E7F
  8
0
 10
5211.6321874424747875
 20
463.0104149521224031
 30
0.0
 40
0.159
 50
71.3653910468753878
 51
84.3576737785778903
  0
ARC
  5
18E80
  8
0
 10
5212.0926456427660014
 20
465.6495922379170906
 30
0.0
 40
3.089929067325043
 50
262.6224054285117973
 51
269.5932530082889116
  0
ARC
  5
18E81
  8
0
 10
5211.6754578244017466
 20
462.427559586202392
 30
0.0
 40
0.159
 50
82.622405428511783
 51
87.6754719986347766
  0
ARC
  5
18E82
  8
0
 10
5211.8811553235909741
 20
465.63623003957332
 30
0.0
 40
3.076628109099012
 50
266.0398368557338813
 51
269.4551623437793069
  0
ARC
  5
18E83
  8
0
 10
5211.6576935720277106
 20
462.408327608275215
 30
0.0
 40
0.159
 50
86.0398368557339381
 51
88.6746136221136112
  0
ARC
  5
18E84
  8
0
 10
5211.0017685249786155
 20
438.4183454973224912
 30
0.0
 40
24.9445744968710912
 50
88.4642583860931069
 51
90.8684298584837649
  0
ARC
  5
18E85
  8
0
 10
5210.3117959481678554
 20
425.3884575027033179
 30
0.0
 40
37.972295303702829
 50
87.9450975563177337
 51
89.4923172081076359
  0
ARC
  5
18E86
  8
0
 10
5208.7365521765668746
 20
404.5137870008255732
 30
0.0
 40
58.8765195228833207
 50
87.1540089237260531
 51
88.2723813793919305
  0
ARC
  5
18E87
  8
0
 10
5209.6315951144351857
 20
431.7094939529898738
 30
0.0
 40
31.6538866770130909
 50
86.3061946195941374
 51
89.0010258461216495
  0
ARC
  5
18E88
  8
0
 10
5210.1832906076197105
 20
463.3485709956352139
 30
0.0
 40
0.01
 50
89.0010258461216495
 51
180.0
  0
ARC
  5
18E89
  8
0
 10
5208.7381979821229834
 20
425.5453130866796982
 30
0.0
 40
37.8238550825676825
 50
85.5583100148512017
 51
87.8098536818351647
  0
ARC
  5
18E8A
  8
0
 10
5210.1832906076197105
 20
463.3315452818742983
 30
0.0
 40
0.01
 50
87.8098536818872333
 51
180.0
  0
ARC
  5
18E8B
  8
0
 10
5208.8303199818847133
 20
428.2073663180195808
 30
0.0
 40
35.1596527483010703
 50
85.3973145552412092
 51
87.794041884245118
  0
ARC
  5
18E8C
  8
0
 10
5210.1832906076197105
 20
463.3309703303081051
 30
0.0
 40
0.01
 50
87.794041884245118
 51
180.0
  0
ARC
  5
18E8D
  8
0
 10
5208.5396671391208656
 20
428.1467972207037747
 30
0.0
 40
35.2182936121970585
 50
84.9053605432687135
 51
87.3242972980599461
  0
ARC
  5
18E8E
  8
0
 10
5210.1832906076197105
 20
463.3167053948301941
 30
0.0
 40
0.01
 50
87.3242972980599461
 51
180.0
  0
ARC
  5
18E8F
  8
0
 10
5207.3263250817735752
 20
416.3391085859350937
 30
0.0
 40
47.0386784900547497
 50
84.7120964786830228
 51
86.5171694428571243
  0
ARC
  5
18E90
  8
0
 10
5210.1832906076197105
 20
463.2809273460243844
 30
0.0
 40
0.01
 50
86.5171694428049136
 51
179.9999999999934914
  0
ARC
  5
18E91
  8
0
 10
5206.3701571325536861
 20
409.7492444305411823
 30
0.0
 40
53.6794750381709491
 50
84.3576737785778903
 51
85.6964025773124831
  0
ARC
  5
18E92
  8
0
 10
5206.4106323107753269
 20
413.3097397747008017
 30
0.0
 40
50.1012050491942773
 50
83.9807592184852041
 51
85.6806333811137364
  0
ARC
  5
18E93
  8
0
 10
5210.1832906076197105
 20
463.258672422512916
 30
0.0
 40
0.01
 50
85.6806333811134948
 51
180.0
  0
ARC
  5
18E94
  8
0
 10
5203.7959936091092459
 20
381.5175535554137127
 30
0.0
 40
81.9519299878043626
 50
84.4958280391719967
 51
85.5293122610113841
  0
ARC
  5
18E95
  8
0
 10
5210.1832906076197105
 20
463.2101623225416915
 30
0.0
 40
0.01
 50
85.5293122609069769
 51
180.0
  0
ARC
  5
18E96
  8
0
 10
6843.0572825664276024
 20
18055.3014337487511511
 30
0.0
 40
17667.698717402490729
 50
264.6970713734677929
 51
264.7018639121034767
  0
ARC
  5
18E97
  8
0
 10
5210.1832906076197105
 20
463.23085802016152
 30
0.0
 40
0.01
 50
180.0
 51
264.6970713431662716
  0
ARC
  5
18E98
  8
0
 10
5204.1439489936055907
 20
396.1637422709364955
 30
0.0
 40
67.3237584280272046
 50
83.6016029287922038
 51
84.8525425926342649
  0
ARC
  5
18E99
  8
0
 10
5210.1832906076197105
 20
463.2060306162489951
 30
0.0
 40
0.01
 50
84.8525425926339665
 51
180.0
  0
ARC
  5
18E9A
  8
0
 10
5204.3206071055292341
 20
400.3018461119722815
 30
0.0
 40
63.1569932697939507
 50
83.323332911710196
 51
84.672882273190794
  0
ARC
  5
18E9B
  8
0
 10
5210.1832906076197105
 20
463.1760991983485951
 30
0.0
 40
0.01
 50
84.6728822732951585
 51
180.0000000000065086
  0
ARC
  5
18E9C
  8
0
 10
5201.554602752127721
 20
367.0039645830615882
 30
0.0
 40
96.5218088691440244
 50
83.9914266696391962
 51
84.870592334626977
  0
ARC
  5
18E9D
  8
0
 10
5210.1832906076197105
 20
463.1292734100643997
 30
0.0
 40
0.01
 50
84.8705923345222999
 51
180.0
  0
ARC
  5
18E9E
  8
0
 10
5201.5163518544150065
 20
367.286697390248321
 30
0.0
 40
96.2367375287899307
 50
83.9522737876230849
 51
84.8324875101202736
  0
ARC
  5
18E9F
  8
0
 10
5210.1832906076197105
 20
463.1223337061970255
 30
0.0
 40
0.01
 50
84.8324875102246523
 51
180.0
  0
ARC
  5
18EA0
  8
0
 10
5196.6481519263288646
 20
334.8621096373415185
 30
0.0
 40
128.972574373095398
 50
83.3221459358971543
 51
83.9754833986531963
  0
ARC
  5
18EA1
  8
0
 10
5210.1832906076197105
 20
463.1124336518030873
 30
0.0
 40
0.01
 50
83.9754833986531963
 51
180.0
  0
ARC
  5
18EA2
  8
0
 10
5193.1610413723938109
 20
305.3170773296494076
 30
0.0
 40
158.6864011689328038
 50
83.3043233127400526
 51
83.8424376264701721
  0
ARC
  5
18EA3
  8
0
 10
5210.1832906076197105
 20
463.0979087856430283
 30
0.0
 40
0.01
 50
180.0
 51
263.8424376262607893
  0
ARC
  5
18EA4
  8
0
 10
5214.8749999157498678
 20
501.6538558179270808
 30
0.0
 40
38.8902626296980003
 50
263.0727675069114753
 51
265.2519242397793278
  0
ARC
  5
18EA5
  8
0
 10
5210.1832906076197105
 20
463.0375600811854042
 30
0.0
 40
0.01
 50
83.072767507016863
 51
180.0
  0
ARC
  5
18EA6
  8
0
 10
5215.2457728391791534
 20
505.261765175331675
 30
0.0
 40
42.5242590631809279
 50
263.1643783828394021
 51
265.1535445038279022
  0
ARC
  5
18EA7
  8
0
 10
5210.1832906076197105
 20
463.0298522692255005
 30
0.0
 40
0.01
 50
83.1643783829444487
 51
180.0000000000065086
  0
ARC
  5
18EA8
  8
0
 10
5295.0958213543790407
 20
1203.75526305589392
 30
0.0
 40
745.5887278198324566
 50
263.460680737718576
 51
263.5739208529034272
  0
ARC
  5
18EA9
  8
0
 10
5210.1832906076197105
 20
463.0074483114066197
 30
0.0
 40
0.01
 50
83.4606807396061186
 51
180.0000000000065086
  0
ARC
  5
18EAA
  8
0
 10
5236.5309248004577967
 20
691.4213934621676572
 30
0.0
 40
229.9552285871027948
 50
263.4210461597180029
 51
263.7920990661997962
  0
ARC
  5
18EAB
  8
0
 10
5210.1832906076197105
 20
462.9705047977573145
 30
0.0
 40
0.01
 50
83.4210461603478279
 51
180.0000000000098055
  0
ARC
  5
18EAC
  8
0
 10
5222.4623089691767746
 20
568.9746919124690976
 30
0.0
 40
106.7267696590213006
 50
263.3928132455324089
 51
264.1899726093569143
  0
ARC
  5
18EAD
  8
0
 10
5210.1832906076197105
 20
462.9666986547284182
 30
0.0
 40
0.01
 50
180.0000000000065086
 51
263.3928132456371145
  0
ARC
  5
18EAE
  8
0
 10
5223.4758373892018426
 20
580.1997018642579178
 30
0.0
 40
118.0428615809720014
 50
263.5348843492192259
 51
264.2498355377751977
  0
ARC
  5
18EAF
  8
0
 10
5210.1832906076197105
 20
462.8975862502776977
 30
0.0
 40
0.01
 50
83.5348843491145345
 51
180.0
  0
ARC
  5
18EB0
  8
0
 10
5219.6877369446865487
 20
548.1642553428647489
 30
0.0
 40
85.8210091884085386
 50
263.6408591814590068
 51
264.6370442161947949
  0
ARC
  5
18EB1
  8
0
 10
5210.1832906076197105
 20
462.8812277362013106
 30
0.0
 40
0.01
 50
180.0
 51
263.6408591815115869
  0
ARC
  5
18EB2
  8
0
 10
5216.8598999628347883
 20
526.8419553170231211
 30
0.0
 40
64.3868817140048719
 50
264.0470765365017201
 51
265.3609578457583211
  0
ARC
  5
18EB3
  8
0
 10
5210.1832906076197105
 20
462.8122295114501981
 30
0.0
 40
0.01
 50
180.0
 51
264.047076536449481
  0
ARC
  5
18EB4
  8
0
 10
5215.7602381459846583
 20
518.992553313773783
 30
0.0
 40
56.4996275588594798
 50
264.3342357256113928
 51
265.8492816755161243
  0
ARC
  5
18EB5
  8
0
 10
5210.1832906076197105
 20
462.7788923594029029
 30
0.0
 40
0.01
 50
180.0
 51
264.3342357254542776
  0
ARC
  5
18EB6
  8
0
 10
5217.0688244753137042
 20
539.8604674305788649
 30
0.0
 40
77.4465870379085572
 50
264.8986161411060039
 51
265.994883895317173
  0
ARC
  5
18EB7
  8
0
 10
5210.1832906076197105
 20
462.7306130586405857
 30
0.0
 40
0.01
 50
180.0
 51
264.8986161408445241
  0
ARC
  5
18EB8
  8
0
 10
5213.0477197258251181
 20
496.2329911797024238
 30
0.0
 40
33.674272202802193
 50
265.1189087477682165
 51
267.675471998634805
  0
ARC
  5
18EB9
  8
0
 10
5210.1832906076197105
 20
462.6908047755464963
 30
0.0
 40
0.01
 50
180.0
 51
265.1189087477156932
  0
ARC
  5
18EBA
  8
0
 10
5212.4487081910028792
 20
496.5973880062160788
 30
0.0
 40
34.0392098218822667
 50
266.1828401151897197
 51
268.6746136221136112
  0
ARC
  5
18EBB
  8
0
 10
5210.1832906076197105
 20
462.643669442933799
 30
0.0
 40
0.01
 50
180.0
 51
266.1828401150851278
  0
ARC
  5
18EBC
  8
0
 10
5212.4310150022884045
 20
501.8388415476846944
 30
0.0
 40
39.2895704139542019
 50
266.7195285116927721
 51
268.6772436416126766
  0
ARC
  5
18EBD
  8
0
 10
5210.1832906076197105
 20
462.6236354797524086
 30
0.0
 40
0.01
 50
180.0
 51
266.7195285116927721
  0
ARC
  5
18EBE
  8
0
 10
5209.603990756654639
 20
408.3019921105886851
 30
0.0
 40
54.2841920518341965
 50
88.2115573881623476
 51
89.3886626714531189
  0
ARC
  5
18EBF
  8
0
 10
5210.1832906076197105
 20
462.5930936120698789
 30
0.0
 40
0.01
 50
180.0
 51
269.3886626715053012
  0
ARC
  5
18EC0
  8
0
 10
5211.6566449247802666
 20
522.8871795143103327
 30
0.0
 40
60.3332564955686479
 50
268.6004505661678081
 51
269.2042986849560862
  0
ARC
  5
18EC1
  8
0
 10
5210.1832906076197105
 20
462.5819185391160886
 30
0.0
 40
0.01
 50
180.0
 51
268.6004505662201041
  0
LINE
  5
18EC2
  8
0
 10
5214.0842871622508028
 20
460.4726424341185975
 30
0.0
 11
5211.8342871622508028
 21
460.4726424341185975
 31
0.0
  0
LINE
  5
18EC3
  8
0
 10
5214.0642871622521852
 20
460.8726424341185748
 30
0.0
 11
5211.8542871622521488
 21
460.8726424341185748
 31
0.0
  0
LINE
  5
18EC4
  8
0
 10
5214.0842871622508028
 20
460.8526424341184793
 30
0.0
 11
5214.0842871622508028
 21
460.4726424341185975
 31
0.0
  0
LINE
  5
18EC5
  8
0
 10
5213.3612871622517559
 20
462.0026424341186271
 30
0.0
 11
5213.3612871622517559
 21
460.9126424341185952
 31
0.0
  0
LINE
  5
18EC6
  8
0
 10
5213.3212871622508828
 20
462.0426424341185907
 30
0.0
 11
5212.5972871622534512
 21
462.0426424341185907
 31
0.0
  0
LINE
  5
18EC7
  8
0
 10
5213.3472871622534512
 20
462.0506424341185152
 30
0.0
 11
5212.5712871622508828
 21
462.0506424341185152
 31
0.0
  0
ARC
  5
18EC8
  8
0
 10
5214.0642871622521852
 20
460.8526424341184793
 30
0.0
 40
0.02
 50
0.0000000000130276
 51
90.0
  0
ARC
  5
18EC9
  8
0
 10
5213.4012871622517196
 20
460.9126424341185952
 30
0.0
 40
0.04
 50
180.0
 51
270.0
  0
ARC
  5
18ECA
  8
0
 10
5213.3212871622508828
 20
462.0026424341186271
 30
0.0
 40
0.04
 50
359.9999999999968168
 51
90.0
  0
ARC
  5
18ECB
  8
0
 10
5213.3472871622534512
 20
462.0646424341185252
 30
0.0
 40
0.014
 50
270.0
 51
0.0000000000065138
  0
LINE
  5
18ECC
  8
0
 10
5213.3092871622520761
 20
462.0506424341185152
 30
0.0
 11
5213.3092871622520761
 21
462.0426424341185907
 31
0.0
  0
LINE
  5
18ECD
  8
0
 10
5211.8342871622508028
 20
460.8526424341184793
 30
0.0
 11
5211.8342871622508028
 21
460.4726424341185975
 31
0.0
  0
LINE
  5
18ECE
  8
0
 10
5212.5572871622516686
 20
462.0026424341186271
 30
0.0
 11
5212.5572871622516686
 21
460.9126424341185952
 31
0.0
  0
ARC
  5
18ECF
  8
0
 10
5211.8542871622521488
 20
460.8526424341184793
 30
0.0
 40
0.02
 50
90.0
 51
179.9999999999870113
  0
ARC
  5
18ED0
  8
0
 10
5212.517287162251705
 20
460.9126424341185952
 30
0.0
 40
0.04
 50
270.0
 51
0.0
  0
ARC
  5
18ED1
  8
0
 10
5212.5972871622534512
 20
462.0026424341186271
 30
0.0
 40
0.04
 50
90.0
 51
180.0000000000032117
  0
ARC
  5
18ED2
  8
0
 10
5212.5712871622508828
 20
462.0646424341185252
 30
0.0
 40
0.014
 50
179.9999999999934914
 51
270.0
  0
LINE
  5
18ED3
  8
0
 10
5212.609287162252258
 20
462.0506424341185152
 30
0.0
 11
5212.609287162252258
 21
462.0426424341185907
 31
0.0
  0
LINE
  5
18ED4
  8
0
 10
5213.3612871622517559
 20
462.0646424341185252
 30
0.0
 11
5213.3612871622517559
 21
462.3756424341186175
 31
0.0
  0
LINE
  5
18ED5
  8
0
 10
5212.5572871622516686
 20
462.0646424341185252
 30
0.0
 11
5212.5572871622516686
 21
462.3756424341186175
 31
0.0
  0
ARC
  5
18ED6
  8
0
 10
5212.3733065049818833
 20
462.3756503708663104
 30
0.0
 40
0.9879806573012349
 50
359.9995397256586216
 51
89.2387912010980671
  0
ENDSEC
  0
EOF
