  0
SECTION
  2
HEADER
  9
$ACADVER
  1
AC1009
  9
$INSBASE
 10
5180.1617595018724387
 20
461.4386368070158255
 30
0.0
  9
$EXTMIN
 10
5176.4141782040733233
 20
458.6526368070154263
 30
0.0
  9
$EXTMAX
 10
5180.1731323784670167
 20
463.3136368070157118
 30
0.0
  9
$LIMMIN
 10
0.0
 20
0.0
  9
$LIMMAX
 10
11.6929133858000007
 20
8.2677165353999982
  9
$ORTHOMODE
 70
     0
  9
$REGENMODE
 70
     1
  9
$FILLMODE
 70
     1
  9
$QTEXTMODE
 70
     0
  9
$MIRRTEXT
 70
     0
  9
$DRAGMODE
 70
     2
  9
$LTSCALE
 40
0.6431102362
  9
$OSMODE
 70
  4095
  9
$ATTMODE
 70
     1
  9
$TEXTSIZE
 40
0.2
  9
$TRACEWID
 40
0.05
  9
$TEXTSTYLE
  7
STANDARD
  9
$CLAYER
  8
0
  9
$CELTYPE
  6
BYLAYER
  9
$CECOLOR
 62
   256
  9
$DIMSCALE
 40
1.0
  9
$DIMASZ
 40
0.1875
  9
$DIMEXO
 40
0.0625
  9
$DIMDLI
 40
0.4443307087
  9
$DIMRND
 40
0.0
  9
$DIMDLE
 40
0.0
  9
$DIMEXE
 40
0.125
  9
$DIMTP
 40
0.01
  9
$DIMTM
 40
0.01
  9
$DIMTXT
 40
2.0
  9
$DIMCEN
 40
0.1052362205
  9
$DIMTSZ
 40
0.0
  9
$DIMTOL
 70
     1
  9
$DIMLIM
 70
     0
  9
$DIMTIH
 70
     1
  9
$DIMTOH
 70
     1
  9
$DIMSE1
 70
     0
  9
$DIMSE2
 70
     0
  9
$DIMTAD
 70
     0
  9
$DIMZIN
 70
     0
  9
$DIMBLK
  1

  9
$DIMASO
 70
     1
  9
$DIMSHO
 70
     1
  9
$DIMPOST
  1
\X
  9
$DIMAPOST
  1

  9
$DIMALT
 70
     1
  9
$DIMALTD
 70
     2
  9
$DIMALTF
 40
25.3999999999999986
  9
$DIMLFAC
 40
1.0
  9
$DIMTOFL
 70
     0
  9
$DIMTVP
 40
0.0
  9
$DIMTIX
 70
     0
  9
$DIMSOXD
 70
     0
  9
$DIMSAH
 70
     0
  9
$DIMBLK1
  1

  9
$DIMBLK2
  1

  9
$DIMSTYLE
  2
STANDARD
  9
$DIMCLRD
 70
     0
  9
$DIMCLRE
 70
     0
  9
$DIMCLRT
 70
     0
  9
$DIMTFAC
 40
1.0
  9
$DIMGAP
 40
0.09
  9
$LUNITS
 70
     2
  9
$LUPREC
 70
     4
  9
$SKETCHINC
 40
0.1
  9
$FILLETRAD
 40
0.0
  9
$AUNITS
 70
     0
  9
$AUPREC
 70
     0
  9
$MENU
  1
.
  9
$ELEVATION
 40
0.0
  9
$PELEVATION
 40
0.0
  9
$THICKNESS
 40
0.0
  9
$LIMCHECK
 70
     0
  9
$BLIPMODE
 70
     0
  9
$CHAMFERA
 40
0.0
  9
$CHAMFERB
 40
0.0
  9
$SKPOLY
 70
     0
  9
$TDCREATE
 40
2458060.468368056230247
  9
$TDUPDATE
 40
2460088.7532175928354263
  9
$TDINDWG
 40
0.6432709491
  9
$TDUSRTIMER
 40
0.6432709491
  9
$USRTIMER
 70
     1
  9
$ANGBASE
 50
0.0
  9
$ANGDIR
 70
     0
  9
$PDMODE
 70
     0
  9
$PDSIZE
 40
0.3125
  9
$PLINEWID
 40
0.0
  9
$COORDS
 70
     1
  9
$SPLFRAME
 70
     0
  9
$SPLINETYPE
 70
     6
  9
$SPLINESEGS
 70
     8
  9
$ATTDIA
 70
     1
  9
$ATTREQ
 70
     1
  9
$HANDLING
 70
     1
  9
$HANDSEED
  5
1864D
  9
$SURFTAB1
 70
     6
  9
$SURFTAB2
 70
     6
  9
$SURFTYPE
 70
     6
  9
$SURFU
 70
     6
  9
$SURFV
 70
     6
  9
$UCSNAME
  2

  9
$UCSORG
 10
0.0
 20
0.0
 30
0.0
  9
$UCSXDIR
 10
1.0
 20
0.0
 30
0.0
  9
$UCSYDIR
 10
0.0
 20
1.0
 30
0.0
  9
$PUCSNAME
  2

  9
$PUCSORG
 10
0.0
 20
0.0
 30
0.0
  9
$PUCSXDIR
 10
1.0
 20
0.0
 30
0.0
  9
$PUCSYDIR
 10
0.0
 20
1.0
 30
0.0
  9
$USERI1
 70
     0
  9
$USERI2
 70
     0
  9
$USERI3
 70
     0
  9
$USERI4
 70
     0
  9
$USERI5
 70
     0
  9
$USERR1
 40
0.0
  9
$USERR2
 40
0.0
  9
$USERR3
 40
0.0
  9
$USERR4
 40
0.0
  9
$USERR5
 40
0.0
  9
$WORLDVIEW
 70
     1
  9
$SHADEDGE
 70
     3
  9
$SHADEDIF
 70
    70
  9
$TILEMODE
 70
     1
  9
$MAXACTVP
 70
    64
  9
$PLIMCHECK
 70
     0
  9
$PEXTMIN
 10
1.0000000000000000E+20
 20
1.0000000000000000E+20
 30
1.0000000000000000E+20
  9
$PEXTMAX
 10
-1.0000000000000000E+20
 20
-1.0000000000000000E+20
 30
-1.0000000000000000E+20
  9
$PLIMMIN
 10
0.0
 20
0.0
  9
$PLIMMAX
 10
12.0
 20
9.0
  9
$UNITMODE
 70
     0
  9
$VISRETAIN
 70
     1
  9
$PLINEGEN
 70
     0
  9
$PSLTSCALE
 70
     1
  0
ENDSEC
  0
SECTION
  2
TABLES
  0
TABLE
  2
VPORT
 70
     1
  0
VPORT
  2
*ACTIVE
 70
     0
 10
0.0
 20
0.0
 11
1.0
 21
1.0
 12
1374.7495879084569879
 22
334.9878746102655782
 13
0.0
 23
0.0
 14
1.0
 24
1.0
 15
0.0
 25
0.0
 16
0.0
 26
0.0
 36
17.1152628219792007
 17
3803.5440673828129547
 27
125.9952621967499056
 37
0.0
 40
4.696807938540644
 41
1.4307692307692299
 42
50.0
 43
0.0
 44
0.0
 50
0.0
 51
0.0
 71
     0
 72
   100
 73
     1
 74
     1
 75
     0
 76
     0
 77
     0
 78
     0
  0
ENDTAB
  0
TABLE
  2
LTYPE
 70
     2
  0
LTYPE
  2
CONTINUOUS
 70
     0
  3
Solid line
 72
    65
 73
     0
 40
0.0
  0
LTYPE
  2
PHANTOM2
 70
     0
  3
___ _ _ ___ _ _ ___ _ _ ___ _ _
 72
    65
 73
     6
 40
1.25
 49
0.625
 49
-0.125
 49
0.125
 49
-0.125
 49
0.125
 49
-0.125
  0
ENDTAB
  0
TABLE
  2
LAYER
 70
     2
  0
LAYER
  2
0
 70
     0
 62
   255
  6
CONTINUOUS
  0
LAYER
  2
DEFPOINTS
 70
     0
 62
     7
  6
CONTINUOUS
  0
ENDTAB
  0
TABLE
  2
STYLE
 70
     1
  0
STYLE
  2
STANDARD
 70
     0
 40
0.0
 41
0.8
 50
0.0
 71
     0
 42
0.2
  3
txt
  4

  0
ENDTAB
  0
TABLE
  2
VIEW
 70
     0
  0
ENDTAB
  0
TABLE
  2
UCS
 70
     0
  0
ENDTAB
  0
TABLE
  2
APPID
 70
    10
  0
APPID
  2
ACAD
 70
     0
  0
APPID
  2
ACAD_MLEADERVER
 70
     0
  0
APPID
  2
ACAD_EXEMPT_FROM_CAD_STANDARDS
 70
     0
  0
APPID
  2
ACAD_NAV_VCDISPLAY
 70
     0
  0
APPID
  2
ACAECLAYERSTANDARD
 70
     0
  0
APPID
  2
ACCMTRANSPARENCY
 70
     0
  0
APPID
  2
ACAD_DSTYLE_DIMJAG
 70
     0
  0
APPID
  2
ACAD_DSTYLE_DIMTALN
 70
     0
  0
APPID
  2
ACDBATTR
 70
     0
  0
APPID
  2
ACADANNOTATIVE
 70
     0
  0
ENDTAB
  0
TABLE
  2
DIMSTYLE
 70
     1
  0
DIMSTYLE
  2
STANDARD
 70
     0
  3

  4

  5

  6

  7

 40
1.0
 41
0.1875
 42
0.0625
 43
0.38
 44
0.125
 45
0.0
 46
0.0
 47
0.01
 48
0.01
140
0.15625
141
0.09
142
0.0
143
25.3999999999999986
144
1.0
145
0.0
146
1.0
147
0.09
 71
     1
 72
     0
 73
     1
 74
     1
 75
     0
 76
     0
 77
     0
 78
     4
170
     0
171
     2
172
     0
173
     0
174
     0
175
     0
176
     0
177
     0
178
     0
  0
ENDTAB
  0
ENDSEC
  0
SECTION
  2
BLOCKS
  0
BLOCK
  8
0
  2
$MODEL_SPACE
 70
     0
 10
0.0
 20
0.0
 30
0.0
  3
$MODEL_SPACE
  1

  0
ENDBLK
  5
21
  8
0
  0
BLOCK
 67
     1
  8
0
  2
$PAPER_SPACE
 70
     0
 10
0.0
 20
0.0
 30
0.0
  3
$PAPER_SPACE
  1

  0
ENDBLK
  5
1D
 67
     1
  8
0
  0
ENDSEC
  0
SECTION
  2
ENTITIES
  0
ATTDEF
  5
3930
  8
DEFPOINTS
 10
5180.1624657117981769
 20
461.4399903689979965
 30
0.0
 40
0.001
  1
P40878-BL
  3

  2
MODELNUMBER
 70
     0
1001
ACDBATTR
1070
     0
1070
     1
  0
ATTDEF
  5
3931
  8
DEFPOINTS
 10
5180.1624657117981769
 20
461.4383237023312745
 30
0.0
 40
0.001
  1
ONE
  3

  2
TRADENAME
 70
     0
1001
ACDBATTR
1070
     0
1070
     1
  0
ATTDEF
  5
3932
  8
DEFPOINTS
 10
5180.1624657117981769
 20
461.4366570356646093
 30
0.0
 40
0.001
  1
VALVE TRIM
  3

  2
PRODUCT
 70
     0
1001
ACDBATTR
1070
     0
1070
     1
  0
LINE
  5
184C7
  8
0
 10
5178.2217595018728389
 20
462.3386368070156891
 30
0.0
 11
5179.4617595018717111
 21
462.3386368070156891
 31
0.0
  0
LINE
  5
184C8
  8
0
 10
5177.8467595018728389
 20
461.8406368070156987
 30
0.0
 11
5177.4017595018722204
 21
461.8406368070156987
 31
0.0
  0
LINE
  5
184C9
  8
0
 10
5177.9117595018724387
 20
461.8406368070156987
 30
0.0
 11
5178.191759501872184
 21
461.8406368070156987
 31
0.0
  0
LINE
  5
184CA
  8
0
 10
5180.1617595018724387
 20
463.3136368070157118
 30
0.0
 11
5180.1617595018724387
 21
459.5636368070158255
 31
0.0
  0
LINE
  5
184CB
  8
0
 10
5179.4617595018717111
 20
463.2334836452156992
 30
0.0
 11
5179.4617595018717111
 21
459.6437899688157245
 31
0.0
  0
LINE
  5
184CC
  8
0
 10
5180.1617595018724387
 20
463.3136368070157118
 30
0.0
 11
5179.5305378299299264
 21
463.3034729838157091
 31
0.0
  0
ARC
  5
184CD
  8
0
 10
5179.5317595018723296
 20
463.2334836452156992
 30
0.0
 40
0.07
 50
90.9999999938257815
 51
180.0
  0
LINE
  5
184CE
  8
0
 10
5178.191759501872184
 20
462.3094909990156793
 30
0.0
 11
5178.191759501872184
 21
460.5677826150156875
 31
0.0
  0
ARC
  5
184CF
  8
0
 10
5178.2230434759094351
 20
462.3073026857226182
 30
0.0
 40
0.0313604168743539
 50
92.346488636310653
 51
175.998679148057505
  0
LINE
  5
184D0
  8
0
 10
5177.8817595018726934
 20
461.8114909990156889
 30
0.0
 11
5177.8817595018726934
 21
461.0657826150156779
 31
0.0
  0
LINE
  5
184D1
  8
0
 10
5177.8617595018722568
 20
461.8264909990156752
 30
0.0
 11
5177.8617595018722568
 21
461.0507826150156916
 31
0.0
  0
ARC
  5
184D2
  8
0
 10
5177.9116828988981069
 20
461.8107031379012142
 30
0.0
 40
0.0299337671312895
 50
89.8533752227271094
 51
178.4917925616381922
  0
ARC
  5
184D3
  8
0
 10
5177.8465990993681771
 20
461.8254409285228235
 30
0.0
 40
0.0151967250463697
 50
3.962208133041262
 51
89.3952277773828143
  0
ARC
  5
184D4
  8
0
 10
5177.40026871468217
 20
460.8541469949154816
 30
0.0
 40
0.9864909385411543
 50
89.9134144639859869
 51
178.3674445033512086
  0
ARC
  5
184D5
  8
0
 10
5177.4002253199796542
 20
460.8542246474739841
 30
0.0
 40
0.1824186110646765
 50
89.5181238185061545
 51
176.1193177540374961
  0
ARC
  5
184D6
  8
0
 10
5177.2032629121886202
 20
460.8676368070156855
 30
0.0
 40
0.015
 50
270.0
 51
355.9237224873755849
  0
LINE
  5
184D7
  8
0
 10
5177.8617595018722568
 20
461.7394909990156862
 30
0.0
 11
5177.8817595018726934
 21
461.7394909990156862
 31
0.0
  0
LINE
  5
184D8
  8
0
 10
5176.4141782040733233
 20
460.8676368070156855
 30
0.0
 11
5176.4141782040733233
 21
460.8822517402381891
 31
0.0
  0
ARC
  5
184D9
  8
0
 10
5176.4291782040727412
 20
460.8676368070156855
 30
0.0
 40
0.015
 50
180.0
 51
270.0
  0
LINE
  5
184DA
  8
0
 10
5176.4241782040717226
 20
460.8526368070156991
 30
0.0
 11
5177.2077587557723746
 21
460.8526368070156991
 31
0.0
  0
LINE
  5
184DB
  8
0
 10
5176.4241782040717226
 20
458.6526368070157105
 30
0.0
 11
5177.2077587557723746
 21
458.6526368070157105
 31
0.0
  0
LINE
  5
184DC
  8
0
 10
5176.4141782040733233
 20
458.6626368070157014
 30
0.0
 11
5176.4141782040733233
 21
460.8426368070158219
 31
0.0
  0
ARC
  5
184DD
  8
0
 10
5176.4241782040717226
 20
460.8426368070158219
 30
0.0
 40
0.01
 50
90.0
 51
180.0
  0
ARC
  5
184DE
  8
0
 10
5176.4241782040717226
 20
458.6626368070157014
 30
0.0
 40
0.01
 50
180.0000000000065086
 51
270.0
  0
LINE
  5
184DF
  8
0
 10
5177.2177587557725928
 20
458.6626368070157014
 30
0.0
 11
5177.2177587557725928
 21
460.8426368070158219
 31
0.0
  0
ARC
  5
184E0
  8
0
 10
5177.2077587557723746
 20
458.6626368070157014
 30
0.0
 40
0.01
 50
270.0
 51
359.9999999999869829
  0
ARC
  5
184E1
  8
0
 10
5177.2077587557723746
 20
460.8426368070158219
 30
0.0
 40
0.01
 50
0.0
 51
90.0
  0
LINE
  5
184E2
  8
0
 10
5176.4200393126720883
 20
460.8426367957156913
 30
0.0
 11
5176.4141782040733233
 21
460.7627630178105846
 31
0.0
  0
LINE
  5
184E3
  8
0
 10
5176.4400682594477985
 20
460.8433368111042228
 30
0.0
 11
5176.4141782040733233
 21
460.5836795227974108
 31
0.0
  0
LINE
  5
184E4
  8
0
 10
5176.4533897266728673
 20
460.8397856888157094
 30
0.0
 11
5176.4141782040733233
 21
460.5072993349245962
 31
0.0
  0
LINE
  5
184E5
  8
0
 10
5176.4905922966727303
 20
460.8426368743503758
 30
0.0
 11
5176.4141782040733233
 21
460.3519089109724973
 31
0.0
  0
LINE
  5
184E6
  8
0
 10
5176.5144236134719904
 20
460.842636798815704
 30
0.0
 11
5176.4245548905591932
 21
460.3001484813192974
 31
0.0
  0
ARC
  5
184E7
  8
0
 10
5176.8891070585459602
 20
460.8436107311192131
 30
0.0
 40
0.0242906486754109
 50
357.7016179241599048
 51
21.8134910456367592
  0
ARC
  5
184E8
  8
0
 10
5176.9164120634923165
 20
460.8436109997740004
 30
0.0
 40
0.0242906486754109
 50
357.7016179241599048
 51
21.8134910456367592
  0
ARC
  5
184E9
  8
0
 10
5176.8550340265173872
 20
460.8427750052229044
 30
0.0
 40
0.0242906486754109
 50
357.7016179241599048
 51
23.9532872151698015
  0
LINE
  5
184EA
  8
0
 10
5176.5562850575715856
 20
460.8397751737156796
 30
0.0
 11
5176.4489827507213704
 21
460.2969576475691156
 31
0.0
  0
LINE
  5
184EB
  8
0
 10
5176.5973865719734022
 20
460.8426367924157034
 30
0.0
 11
5176.5033626061458563
 21
460.4473328755029797
 31
0.0
  0
LINE
  5
184EC
  8
0
 10
5176.6357738798842547
 20
460.8397751655326147
 30
0.0
 11
5176.5130063147471446
 21
460.322488752435504
 31
0.0
  0
LINE
  5
184ED
  8
0
 10
5176.6572278110015759
 20
460.8441004748002001
 30
0.0
 11
5176.5346153978953225
 21
460.4135395531862969
 31
0.0
  0
LINE
  5
184EE
  8
0
 10
5176.7064008178722361
 20
460.839607997415726
 30
0.0
 11
5176.4990857781867817
 21
460.1732519757018167
 31
0.0
  0
LINE
  5
184EF
  8
0
 10
5176.7286114740718403
 20
460.8397751737156796
 30
0.0
 11
5176.5400685980721391
 21
460.1647875497156974
 31
0.0
  0
LINE
  5
184F0
  8
0
 10
5176.7682617200725872
 20
460.8318819248157183
 30
0.0
 11
5176.5472625425727529
 21
460.1548318939156843
 31
0.0
  0
LINE
  5
184F1
  8
0
 10
5176.8130932271724305
 20
460.8392089791157105
 30
0.0
 11
5176.5874758025238407
 21
460.1687026091275925
 31
0.0
  0
LINE
  5
184F2
  8
0
 10
5176.6154814234723744
 20
460.1647875495157223
 30
0.0
 11
5176.8279124036716894
 21
460.8397751585156925
 31
0.0
  0
LINE
  5
184F3
  8
0
 10
5176.879305134045353
 20
460.8418008633194063
 30
0.0
 11
5176.6374039134370832
 21
460.1532379652662144
 31
0.0
  0
ARC
  5
184F4
  8
0
 10
5177.7220065059036642
 20
459.9696716601293929
 30
0.0
 40
1.2594289829609211
 50
163.7314082410904064
 51
171.9892378160774058
  0
LINE
  5
184F5
  8
0
 10
5176.4748671447896413
 20
460.145184557325706
 30
0.0
 11
5176.424068670372435
 21
458.6626368070157014
 31
0.0
  0
LINE
  5
184F6
  8
0
 10
5176.4173990304725521
 20
458.6626368070157014
 30
0.0
 11
5176.4505450778733575
 21
460.1485919759156786
 31
0.0
  0
ARC
  5
184F7
  8
0
 10
5176.6431485348675778
 20
460.1412686266360765
 30
0.0
 40
0.1927426343367882
 50
171.8170172213191904
 51
177.8224951022909863
  0
ARC
  5
184F8
  8
0
 10
5180.1854736246450557
 20
459.6294592886958981
 30
0.0
 40
3.7718508396472541
 50
167.4767279120540877
 51
171.7805347472551034
  0
LINE
  5
184F9
  8
0
 10
5176.4467326838721419
 20
458.6626368070157014
 30
0.0
 11
5176.5349887527136161
 21
460.1404624272636283
 31
0.0
  0
LINE
  5
184FA
  8
0
 10
5176.4954937588636312
 20
460.1486377368726153
 30
0.0
 11
5176.4317453018593369
 21
458.6626368070157014
 31
0.0
  0
LINE
  5
184FB
  8
0
 10
5176.6120318188768579
 20
460.1457147805388104
 30
0.0
 11
5176.5012046251722495
 21
458.6626368070157014
 31
0.0
  0
LINE
  5
184FC
  8
0
 10
5176.5280907593942175
 20
458.6626368070157014
 30
0.0
 11
5176.6335276393720051
 21
460.134878143015726
 31
0.0
  0
LINE
  5
184FD
  8
0
 10
5176.6665086669163429
 20
460.1313531925953839
 30
0.0
 11
5176.5385648734727511
 21
458.6626368070157014
 31
0.0
  0
LINE
  5
184FE
  8
0
 10
5176.74122696935774
 20
460.1532323790207215
 30
0.0
 11
5176.9840278975179899
 21
460.8399976233694133
 31
0.0
  0
LINE
  5
184FF
  8
0
 10
5176.7369586287722996
 20
460.1348694172157252
 30
0.0
 11
5176.5833017045733868
 21
458.6626368070157014
 31
0.0
  0
LINE
  5
18500
  8
0
 10
5176.6733361526721637
 20
460.1717332570157168
 30
0.0
 11
5176.913378166072107
 21
460.8426365892157719
 31
0.0
  0
LINE
  5
18501
  8
0
 10
5176.7100004535732296
 20
460.1449500546157196
 30
0.0
 11
5176.5691992826723435
 21
458.6626368070157014
 31
0.0
  0
LINE
  5
18502
  8
0
 10
5176.7135800972728248
 20
460.1624971745156927
 30
0.0
 11
5176.9406831710193728
 21
460.8426368578705024
 31
0.0
  0
LINE
  5
18503
  8
0
 10
5177.0149696705839233
 20
460.8426367251207125
 30
0.0
 11
5176.7800411397720382
 21
460.1717323322156972
 31
0.0
  0
LINE
  5
18504
  8
0
 10
5176.8110641978728381
 20
460.1624971746156803
 30
0.0
 11
5177.0354853257722425
 21
460.8376839958157234
 31
0.0
  0
LINE
  5
18505
  8
0
 10
5177.0750777554721935
 20
460.8318821980157054
 30
0.0
 11
5176.8505585631337453
 21
460.153237728720228
 31
0.0
  0
LINE
  5
18506
  8
0
 10
5176.8462351273637978
 20
460.1348731943588746
 30
0.0
 11
5176.680028506407325
 21
458.6626368070157014
 31
0.0
  0
LINE
  5
18507
  8
0
 10
5176.6509163618311504
 20
458.6626368070157014
 30
0.0
 11
5176.8073277297598906
 21
460.1449500547200842
 31
0.0
  0
LINE
  5
18508
  8
0
 10
5176.7747332728749825
 20
460.1486822895918181
 30
0.0
 11
5176.6145182103728075
 21
458.6626368070157014
 31
0.0
  0
LINE
  5
18509
  8
0
 10
5176.8842524969568331
 20
460.1496033667730785
 30
0.0
 11
5176.7158708175993524
 21
458.6626368070157014
 31
0.0
  0
LINE
  5
1850A
  8
0
 10
5176.8893965572160596
 20
460.1717384316759194
 30
0.0
 11
5177.1017870578180009
 21
460.8426368070158219
 31
0.0
  0
LINE
  5
1850B
  8
0
 10
5176.9168458204139824
 20
460.1615340795358975
 30
0.0
 11
5177.114613687353085
 21
460.8369793222905173
 31
0.0
  0
LINE
  5
1850C
  8
0
 10
5176.9125622209721769
 20
460.1406278056156793
 30
0.0
 11
5176.7457277829753366
 21
458.6626368070157014
 31
0.0
  0
LINE
  5
1850D
  8
0
 10
5176.953282309572387
 20
460.1348707866156929
 30
0.0
 11
5176.7873638888286223
 21
458.6626368070157014
 31
0.0
  0
LINE
  5
1850E
  8
0
 10
5176.9573186476727642
 20
460.1532362516156809
 30
0.0
 11
5177.1483370815722083
 21
460.8318819230158283
 31
0.0
  0
LINE
  5
1850F
  8
0
 10
5176.9885837176725545
 20
460.1496035537156786
 30
0.0
 11
5176.8246317036164328
 21
458.6626368070157014
 31
0.0
  0
LINE
  5
18510
  8
0
 10
5177.0115677299991148
 20
460.1398690935407103
 30
0.0
 11
5176.8671707191833775
 21
458.6626368070157014
 31
0.0
  0
LINE
  5
18511
  8
0
 10
5177.0500702114723026
 20
460.1348745217156875
 30
0.0
 11
5176.8973021723722923
 21
458.6626368070157014
 31
0.0
  0
LINE
  5
18512
  8
0
 10
5177.0800989162726182
 20
460.1496035385156915
 30
0.0
 11
5176.9327345811716441
 21
458.6626368070157014
 31
0.0
  0
LINE
  5
18513
  8
0
 10
5177.129511382572673
 20
460.1348745225157018
 30
0.0
 11
5176.9889852223122944
 21
458.6626368070157014
 31
0.0
  0
LINE
  5
18514
  8
0
 10
5177.1513376100865571
 20
460.1389835138476769
 30
0.0
 11
5177.0321619571559495
 21
458.6626368070157014
 31
0.0
  0
LINE
  5
18515
  8
0
 10
5177.1856830232727589
 20
460.1348745209156732
 30
0.0
 11
5177.0747904279533032
 21
458.6626368070157014
 31
0.0
  0
LINE
  5
18516
  8
0
 10
5177.1989961546723862
 20
460.1369570028156772
 30
0.0
 11
5177.1180825265728345
 21
458.6626368070157014
 31
0.0
  0
LINE
  5
18517
  8
0
 10
5177.1998737512722073
 20
460.1582262644157026
 30
0.0
 11
5177.2177587557725928
 21
460.3677752185698751
 31
0.0
  0
LINE
  5
18518
  8
0
 10
5177.1873479538953688
 20
460.1532465636491906
 30
0.0
 11
5177.2177587557725928
 21
460.4850607107964038
 31
0.0
  0
LINE
  5
18519
  8
0
 10
5177.1548447666727952
 20
460.1717334920156759
 30
0.0
 11
5177.2177587557725928
 21
460.6422513331160076
 31
0.0
  0
LINE
  5
1851A
  8
0
 10
5177.1322046573422995
 20
460.1532385051247047
 30
0.0
 11
5177.2177587557725928
 21
460.810667642528017
 31
0.0
  0
LINE
  5
1851B
  8
0
 10
5177.0840137192726615
 20
460.1717335168157206
 30
0.0
 11
5177.2070305055221979
 21
460.8422290912156996
 31
0.0
  0
LINE
  5
1851C
  8
0
 10
5177.0535809561715723
 20
460.1532380369156954
 30
0.0
 11
5177.1974284443722354
 21
460.8397672333043147
 31
0.0
  0
LINE
  5
1851D
  8
0
 10
5177.0150719106341057
 20
460.1592460590854898
 30
0.0
 11
5177.1677258778727264
 21
460.8366855866157152
 31
0.0
  0
LINE
  5
1851E
  8
0
 10
5176.9932876388720615
 20
460.1717321709156749
 30
0.0
 11
5177.0884093900458538
 21
460.4846991626106956
 31
0.0
  0
LINE
  5
1851F
  8
0
 10
5177.1588330505719568
 20
458.6626368070157014
 30
0.0
 11
5177.2177587557725928
 21
459.8108053787390759
 31
0.0
  0
LINE
  5
18520
  8
0
 10
5177.1777059860596637
 20
458.6626368070157014
 30
0.0
 11
5177.2177587557725928
 21
459.6398831929149082
 31
0.0
  0
LINE
  5
18521
  8
0
 10
5177.2026425770736751
 20
458.6626368070157014
 30
0.0
 11
5177.2177587557725928
 21
459.4020169026234726
 31
0.0
  0
LINE
  5
18522
  8
0
 10
5177.211956876873046
 20
458.6626368070157014
 30
0.0
 11
5177.2177587557725928
 21
458.8998818061277234
 31
0.0
  0
LINE
  5
18523
  8
0
 10
5176.4629983725717466
 20
458.6626368070157014
 30
0.0
 11
5176.5836819756723344
 21
460.1485919707156995
 31
0.0
  0
ARC
  5
18524
  8
0
 10
5176.4299872440869876
 20
460.8426981570257226
 30
0.0
 40
0.0099481206599246
 50
92.5002988752246438
 51
180.3534101067589859
  0
ARC
  5
18525
  8
0
 10
5176.4498764806203326
 20
460.8429297725994047
 30
0.0
 40
0.0098166635321385
 50
98.5708448526748668
 51
177.623604374650597
  0
ARC
  5
18526
  8
0
 10
5176.4689411773069878
 20
460.8405977392163209
 30
0.0
 40
0.0155726376275828
 50
129.3677143377288132
 51
182.989100096455104
  0
ARC
  5
18527
  8
0
 10
5176.5005922966720391
 20
460.8426368070158219
 30
0.0
 40
0.0100000000000027
 50
90.0
 51
179.9996142002648867
  0
ARC
  5
18528
  8
0
 10
5176.5269313013368446
 20
460.8419996028703167
 30
0.0
 40
0.0125239081116859
 50
121.8587604290254944
 51
177.0836253718935041
  0
ARC
  5
18529
  8
0
 10
5176.5325673604756958
 20
460.8426952746062852
 30
0.0
 40
0.0238967810538212
 50
352.9811192664074042
 51
24.5835501860135111
  0
ARC
  5
1852A
  8
0
 10
5176.6081236278223514
 20
460.8425915073344186
 30
0.0
 40
0.0107371513470777
 50
110.6804330093800957
 51
179.7583482209549004
  0
ARC
  5
1852B
  8
0
 10
5176.6216352464889496
 20
460.8427190357328982
 30
0.0
 40
0.0144418601998041
 50
348.2382299795972926
 51
43.3724288903806823
  0
ARC
  5
1852C
  8
0
 10
5176.6670454483728463
 20
460.8427230079157084
 30
0.0
 40
0.0099137993999958
 50
90.0140888703516424
 51
172.0132323071817098
  0
ARC
  5
1852D
  8
0
 10
5176.6952189197209009
 20
460.8427330936451085
 30
0.0
 40
0.0116103864147586
 50
344.3854832775497812
 51
58.5399891171086466
  0
ARC
  5
1852E
  8
0
 10
5176.7174239251844483
 20
460.8427033065062233
 30
0.0
 40
0.0115643941367472
 50
345.3329027635043076
 51
59.2014486541907488
  0
ARC
  5
1852F
  8
0
 10
5176.7394352781193447
 20
460.8412044318712901
 30
0.0
 40
0.0302964171720696
 50
342.0787283787614115
 51
22.1696770347919205
  0
ARC
  5
18530
  8
0
 10
5176.8030902737582437
 20
460.8426694725865218
 30
0.0
 40
0.0105846158207357
 50
340.9170830393512119
 51
70.3358474643466565
  0
ARC
  5
18531
  8
0
 10
5176.8178237240617818
 20
460.8426302508985941
 30
0.0
 40
0.0104848943152149
 50
344.1985076865777842
 51
72.62646385962708
  0
ARC
  5
18532
  8
0
 10
5176.9580571557262374
 20
460.8408955691674009
 30
0.0
 40
0.0259862605203944
 50
358.0197709333759235
 51
26.8608238213388617
  0
ARC
  5
18533
  8
0
 10
5177.0005404778694356
 20
460.8433321494953816
 30
0.0
 40
0.014445752572126
 50
357.2410166997822216
 51
40.0989989473849278
  0
ARC
  5
18534
  8
0
 10
5177.0539312736009379
 20
460.8344927994924092
 30
0.0
 40
0.0187199552639944
 50
104.249400008645793
 51
170.1848357065647974
  0
ARC
  5
18535
  8
0
 10
5177.0566302191864452
 20
460.8399122669940198
 30
0.0
 40
0.0201194831658659
 50
336.4768825061661914
 51
39.2310116325311711
  0
ARC
  5
18536
  8
0
 10
5177.0907970390544506
 20
460.8431320121359249
 30
0.0
 40
0.0110011699614741
 50
357.4200240461590283
 51
59.7664798422383114
  0
ARC
  5
18537
  8
0
 10
5177.1320002788352213
 20
460.839221808125501
 30
0.0
 40
0.0179099144924391
 50
335.806317865978599
 51
48.5061124440146685
  0
ARC
  5
18538
  8
0
 10
5177.0978277071044431
 20
460.8424559296304892
 30
0.0
 40
0.0176567936177416
 50
341.9305253729825722
 51
35.2116399298302767
  0
ARC
  5
18539
  8
0
 10
5177.1491610970606416
 20
460.8386274466653845
 30
0.0
 40
0.0186660629768146
 50
354.0286253010684163
 51
48.6359378964575129
  0
ARC
  5
1853A
  8
0
 10
5177.1863645413195627
 20
460.8419671034711769
 30
0.0
 40
0.0112804866692301
 50
348.7543687701618751
 51
71.0592770900870647
  0
ARC
  5
1853B
  8
0
 10
5177.1965874911347782
 20
460.8423812199993108
 30
0.0
 40
0.0104441223985553
 50
359.1654018250819149
 51
79.0968100882791134
  0
ARC
  5
1853C
  8
0
 10
5176.6451458977653601
 20
460.1393678302011949
 30
0.0
 40
0.1499389670736419
 50
166.9391197845534123
 51
176.4554546814412106
  0
ARC
  5
1853D
  8
0
 10
5176.5878977510083132
 20
460.142106352234407
 30
0.0
 40
0.0529345311649675
 50
154.629092384773287
 51
181.7796532361790014
  0
LINE
  5
1853E
  8
0
 10
5176.5436102125722755
 20
460.1348745208156856
 30
0.0
 11
5176.512523032099125
 21
459.7642795999689724
 31
0.0
  0
ARC
  5
1853F
  8
0
 10
5176.624817159745362
 20
460.1303260042762986
 30
0.0
 40
0.0813342318575459
 50
162.4643836580289928
 51
176.7941317167075965
  0
ARC
  5
18540
  8
0
 10
5176.6598929847759791
 20
460.1446281023773963
 30
0.0
 40
0.0763140233570757
 50
161.6110305188275049
 51
177.0226288333147124
  0
ARC
  5
18541
  8
0
 10
5176.6719533751183917
 20
460.1447253840016742
 30
0.0
 40
0.0599297239082503
 50
160.4419631983973034
 51
179.0540450117898956
  0
ARC
  5
18542
  8
0
 10
5176.6741162548960347
 20
460.1358978527342174
 30
0.0
 40
0.0406014226106158
 50
154.7175192733207894
 51
181.4391418650411936
  0
ARC
  5
18543
  8
0
 10
5176.7711763278903163
 20
460.1344231509893916
 30
0.0
 40
0.1047126730551054
 50
159.1262863189598136
 51
181.6800341556252931
  0
ARC
  5
18544
  8
0
 10
5176.7585773038526895
 20
460.1441789774676749
 30
0.0
 40
0.0485829696819502
 50
157.8489427125662985
 51
179.0906006454073065
  0
ARC
  5
18545
  8
0
 10
5176.7831113147967699
 20
460.133819105489124
 30
0.0
 40
0.0461646356215373
 50
155.1324129195998864
 51
178.6963262857250072
  0
ARC
  5
18546
  8
0
 10
5176.8365182579818793
 20
460.1465908609557118
 30
0.0
 40
0.0618203725181443
 50
156.0031850801105122
 51
178.0612717322445064
  0
ARC
  5
18547
  8
0
 10
5176.8581028405442339
 20
460.1433094278114027
 30
0.0
 40
0.0508016095387472
 50
157.8087377836835117
 51
178.1493234973625874
  0
ARC
  5
18548
  8
0
 10
5176.8967346453109712
 20
460.1326756263767948
 30
0.0
 40
0.0505473106911406
 50
155.9967008799710868
 51
177.5082538094239908
  0
ARC
  5
18549
  8
0
 10
5176.9995583962681849
 20
460.1344722041287127
 30
0.0
 40
0.1162944646103366
 50
161.3100323731484025
 51
172.5240065118385928
  0
ARC
  5
1854A
  8
0
 10
5176.9809080281092974
 20
460.1375160457271249
 30
0.0
 40
0.0684166091141562
 50
159.4481060396242924
 51
177.3931441714647121
  0
ARC
  5
1854B
  8
0
 10
5177.0202922688858962
 20
460.1297697076669238
 30
0.0
 40
0.067203836599333
 50
159.5625510517319867
 51
175.6468009494618059
  0
ARC
  5
1854C
  8
0
 10
5177.0800812897241485
 20
460.1417180143516248
 30
0.0
 40
0.091836743313734
 50
160.9240767368752074
 51
175.07424657065161
  0
ARC
  5
1854D
  8
0
 10
5177.1281768970056874
 20
460.1287865250890263
 30
0.0
 40
0.1171346283284195
 50
164.9276427782544943
 51
174.5709000014396111
  0
ARC
  5
1854E
  8
0
 10
5177.2198288453209898
 20
460.1119373438360185
 30
0.0
 40
0.1713012197714883
 50
166.048538348339406
 51
172.3050016764148893
  0
ARC
  5
1854F
  8
0
 10
5177.282961198625344
 20
460.125128364922773
 30
0.0
 40
0.2043334033482643
 50
166.8157130684257936
 51
173.1205605907971119
  0
ARC
  5
18550
  8
0
 10
5177.3166670020691527
 20
460.1168056361589151
 30
0.0
 40
0.1880258241931021
 50
168.827398619589701
 51
174.4854861689607901
  0
ARC
  5
18551
  8
0
 10
5177.3150520810977468
 20
460.1380143017095747
 30
0.0
 40
0.1637173399198807
 50
168.1143095074147027
 51
179.6608050841163049
  0
ARC
  5
18552
  8
0
 10
5177.2794873234779516
 20
460.1356351506590272
 30
0.0
 40
0.0938073840101193
 50
169.1790683777938114
 51
180.4645833810039903
  0
ARC
  5
18553
  8
0
 10
5177.3175159614320364
 20
460.1427194620519003
 30
0.0
 40
0.118659810090794
 50
172.4909465263982895
 51
182.7835415000014052
  0
LINE
  5
18554
  8
0
 10
5176.9558166876449832
 20
458.6626368070157014
 30
0.0
 11
5177.0879265668909284
 21
460.1398690934748856
 31
0.0
  0
LINE
  5
18555
  8
0
 10
5177.0906901241532978
 20
460.1592460579929025
 30
0.0
 11
5177.2127351292447202
 21
460.8422608697276246
 31
0.0
  0
ARC
  5
18556
  8
0
 10
5177.2005862728456123
 20
460.8421204625500991
 30
0.0
 40
0.0121496677323722
 50
0.6621512573600318
 51
59.9474466591751778
  0
ARC
  5
18557
  8
0
 10
5177.1581903965816309
 20
460.1397335657766234
 30
0.0
 40
0.07026396039676
 50
163.8768570053456131
 51
179.8894857350485097
  0
LINE
  5
18558
  8
0
 10
5176.4297958777733584
 20
460.1479228461157049
 30
0.0
 11
5176.4141782040733233
 21
459.6152471175503251
 31
0.0
  0
ARC
  5
18559
  8
0
 10
5180.7371904071906101
 20
459.6636180937323957
 30
0.0
 40
4.3347253540987687
 50
171.5985336582727996
 51
173.3230353672626904
  0
ARC
  5
1855A
  8
0
 10
5179.5148706293193754
 20
460.0408161227443884
 30
0.0
 40
3.1011779435292568
 50
175.2031059651662019
 51
177.5805250663370032
  0
ARC
  5
1855B
  8
0
 10
5177.1020736969931022
 20
460.0872562562688017
 30
0.0
 40
0.6750095564794663
 50
173.162151482428186
 51
174.8435749937900141
  0
LINE
  5
1855C
  8
0
 10
5176.4158865837653138
 20
460.1496040024819081
 30
0.0
 11
5176.4141782040733233
 21
459.9908388943047726
 31
0.0
  0
ARC
  5
1855D
  8
0
 10
5176.6079945763967771
 20
460.155721712545585
 30
0.0
 40
0.1922053776813259
 50
175.2215094442875056
 51
181.8239769486681894
  0
ARC
  5
1855E
  8
0
 10
5176.4278539400438603
 20
458.6626673306197972
 30
0.0
 40
0.0104549541285085
 50
180.167277269033093
 51
253.6182554055475862
  0
ARC
  5
1855F
  8
0
 10
5176.4345665677774377
 20
458.6627150017205281
 30
0.0
 40
0.010498188620779
 50
180.4267658119291013
 51
253.7385016577761974
  0
ARC
  5
18560
  8
0
 10
5176.4490792755268558
 20
458.6610065819535862
 30
0.0
 40
0.0174104645786596
 50
174.6272516587640951
 51
208.7332490777081944
  0
ARC
  5
18561
  8
0
 10
5176.4567019044343397
 20
458.6623963040863146
 30
0.0
 40
0.0099721211515949
 50
178.6180333348100078
 51
258.1470956600468867
  0
ARC
  5
18562
  8
0
 10
5176.4729291096409725
 20
458.6622858004473073
 30
0.0
 40
0.0099369383786915
 50
177.9756964559622077
 51
256.1732407794245887
  0
ARC
  5
18563
  8
0
 10
5176.5118717025761725
 20
458.6622362366388188
 30
0.0
 40
0.0106745958680595
 50
177.8494378455708045
 51
244.0633301615467019
  0
ARC
  5
18564
  8
0
 10
5176.538339857255778
 20
458.6618750435550282
 30
0.0
 40
0.0102773678821651
 50
175.7493110276045059
 51
244.0127136316498024
  0
ARC
  5
18565
  8
0
 10
5176.5110709633918304
 20
458.6641144446614931
 30
0.0
 40
0.0275335886607782
 50
335.3635280613419241
 51
356.9236450004336234
  0
ARC
  5
18566
  8
0
 10
5176.5400412838989723
 20
458.6657329801258811
 30
0.0
 40
0.0293219232035273
 50
333.4720594134169005
 51
353.9386999750793734
  0
ARC
  5
18567
  8
0
 10
5176.5956094745206428
 20
458.6619740977959054
 30
0.0
 40
0.0123255987534311
 50
176.9178974100738913
 51
229.2489229332732066
  0
ARC
  5
18568
  8
0
 10
5176.6270516040813163
 20
458.6616587109409124
 30
0.0
 40
0.0125715006979415
 50
175.5377268695119994
 51
225.8605797948744964
  0
ARC
  5
18569
  8
0
 10
5176.6316144487909696
 20
458.6648365849410993
 30
0.0
 40
0.0194268594964351
 50
321.0983786141878795
 51
353.4982338146821803
  0
ARC
  5
1856A
  8
0
 10
5176.7021206777153566
 20
458.6633932192081033
 30
0.0
 40
0.0221051168856191
 50
181.960979838102503
 51
209.1175382220469885
  0
ARC
  5
1856B
  8
0
 10
5176.7369164752808501
 20
458.6613434226397885
 30
0.0
 40
0.0210853656197612
 50
176.4833632958643932
 51
204.3885357001049954
  0
ARC
  5
1856C
  8
0
 10
5176.7340937032286092
 20
458.6629099073240923
 30
0.0
 40
0.0116372847038055
 50
298.0210952298709799
 51
358.6552763747707786
  0
ARC
  5
1856D
  8
0
 10
5176.8086505469027543
 20
458.6594971349941261
 30
0.0
 40
0.0215169549983497
 50
171.609662878881494
 51
198.5923999331774894
  0
ARC
  5
1856E
  8
0
 10
5177.0259963647049517
 20
458.6550819050755194
 30
0.0
 40
0.2015063355809394
 50
177.8513555482533093
 51
180.695249789348992
  0
ARC
  5
1856F
  8
0
 10
5176.8812258713678602
 20
458.6652491403311274
 30
0.0
 40
0.0142958591315429
 50
190.5290229406645039
 51
241.9133783056323068
  0
ARC
  5
18570
  8
0
 10
5176.7572108643062165
 20
458.6828608942528263
 30
0.0
 40
0.1415435915194315
 50
347.6705823491356
 51
351.7853275083016911
  0
ARC
  5
18571
  8
0
 10
5176.9138958389348772
 20
458.6616399933657249
 30
0.0
 40
0.0188650944718538
 50
331.4946733776561132
 51
3.0287491520290351
  0
ARC
  5
18572
  8
0
 10
5176.9405041201525819
 20
458.6621539227925837
 30
0.0
 40
0.0153201795145173
 50
321.5951309340218813
 51
1.806232827242314
  0
ARC
  5
18573
  8
0
 10
5177.0014102865861787
 20
458.6627732033679195
 30
0.0
 40
0.0124258128980135
 50
180.6289401207205003
 51
234.6619025634801972
  0
ARC
  5
18574
  8
0
 10
5177.0185373219546818
 20
458.6619860143861729
 30
0.0
 40
0.013640169185344
 50
316.7315689830126075
 51
2.7347045230600888
  0
ARC
  5
18575
  8
0
 10
5177.0843323149483695
 20
458.6616969368536729
 30
0.0
 40
0.0095880635876478
 50
174.3745461210646965
 51
250.8981662094057015
  0
ARC
  5
18576
  8
0
 10
5177.1079077319891439
 20
458.6627580244713727
 30
0.0
 40
0.0101755166195235
 50
275.9217392556391815
 51
359.3174387943855095
  0
ARC
  5
18577
  8
0
 10
5177.1473810959632829
 20
458.6626625582858878
 30
0.0
 40
0.011451983561706
 50
298.9005600789429877
 51
359.8711629007012789
  0
ARC
  5
18578
  8
0
 10
5177.1677059831727092
 20
458.6626368070157014
 30
0.0
 40
0.009999999999998
 50
270.0
 51
0.0000000000065138
  0
ARC
  5
18579
  8
0
 10
5177.192574372654235
 20
458.6625680390829984
 30
0.0
 40
0.0100684391660463
 50
279.4697666324069019
 51
0.3913360235382709
  0
ARC
  5
1857A
  8
0
 10
5177.1967892525326533
 20
458.6618058094514936
 30
0.0
 40
0.015190371459194
 50
323.2099103044341177
 51
3.135962392552067
  0
LINE
  5
1857B
  8
0
 10
5178.2217595018728389
 20
460.5386368070156777
 30
0.0
 11
5179.4617595018717111
 21
460.5386368070156777
 31
0.0
  0
LINE
  5
1857C
  8
0
 10
5177.8467595018728389
 20
461.0366368070157819
 30
0.0
 11
5177.4017595018722204
 21
461.0366368070157819
 31
0.0
  0
LINE
  5
1857D
  8
0
 10
5177.9117595018724387
 20
461.0366368070157819
 30
0.0
 11
5178.191759501872184
 21
461.0366368070157819
 31
0.0
  0
LINE
  5
1857E
  8
0
 10
5180.1617595018724387
 20
459.5636368070158255
 30
0.0
 11
5179.5305378299299264
 21
459.5738006302157146
 31
0.0
  0
ARC
  5
1857F
  8
0
 10
5179.5317595018723296
 20
459.6437899688157245
 30
0.0
 40
0.07
 50
180.0
 51
269.0000000061742185
  0
ARC
  5
18580
  8
0
 10
5178.2230434759094351
 20
460.5699709283086918
 30
0.0
 40
0.0313604168743539
 50
184.0013208519424097
 51
267.6535113636894039
  0
ARC
  5
18581
  8
0
 10
5177.9116828988981069
 20
461.0665704761300958
 30
0.0
 40
0.0299337671312895
 50
181.5082074383616941
 51
270.1466247772729048
  0
ARC
  5
18582
  8
0
 10
5177.8465990993681771
 20
461.0518326855086002
 30
0.0
 40
0.0151967250463697
 50
270.6047722226172141
 51
356.0377918669586847
  0
LINE
  5
18583
  8
0
 10
5177.8617595018722568
 20
461.1377826150156807
 30
0.0
 11
5177.8817595018726934
 21
461.1377826150156807
 31
0.0
  0
ENDSEC
  0
EOF
