  0
SECTION
  2
HEADER
  9
$ACADVER
  1
AC1009
  9
$INSBASE
 10
5480.0115449027243812
 20
-23.34392633124979
 30
0.0
  9
$EXTMIN
 10
5478.1373990947231505
 20
-26.1307805232498005
 30
0.0
  9
$EXTMAX
 10
5481.885690710723793
 20
-21.4697805232497885
 30
0.0
  9
$LIMMIN
 10
0.0
 20
0.0
  9
$LIMMAX
 10
11.6929133858000007
 20
8.2677165353999982
  9
$ORTHOMODE
 70
     0
  9
$REGENMODE
 70
     1
  9
$FILLMODE
 70
     1
  9
$QTEXTMODE
 70
     0
  9
$MIRRTEXT
 70
     0
  9
$DRAGMODE
 70
     2
  9
$LTSCALE
 40
0.6431102362
  9
$OSMODE
 70
  4095
  9
$ATTMODE
 70
     1
  9
$TEXTSIZE
 40
0.2
  9
$TRACEWID
 40
0.05
  9
$TEXTSTYLE
  7
STANDARD
  9
$CLAYER
  8
0
  9
$CELTYPE
  6
BYLAYER
  9
$CECOLOR
 62
   256
  9
$DIMSCALE
 40
1.0
  9
$DIMASZ
 40
0.1875
  9
$DIMEXO
 40
0.0625
  9
$DIMDLI
 40
0.4443307087
  9
$DIMRND
 40
0.0
  9
$DIMDLE
 40
0.0
  9
$DIMEXE
 40
0.125
  9
$DIMTP
 40
0.01
  9
$DIMTM
 40
0.01
  9
$DIMTXT
 40
2.0
  9
$DIMCEN
 40
0.1052362205
  9
$DIMTSZ
 40
0.0
  9
$DIMTOL
 70
     1
  9
$DIMLIM
 70
     0
  9
$DIMTIH
 70
     1
  9
$DIMTOH
 70
     1
  9
$DIMSE1
 70
     0
  9
$DIMSE2
 70
     0
  9
$DIMTAD
 70
     0
  9
$DIMZIN
 70
     0
  9
$DIMBLK
  1

  9
$DIMASO
 70
     1
  9
$DIMSHO
 70
     1
  9
$DIMPOST
  1
\X
  9
$DIMAPOST
  1

  9
$DIMALT
 70
     1
  9
$DIMALTD
 70
     2
  9
$DIMALTF
 40
25.3999999999999986
  9
$DIMLFAC
 40
1.0
  9
$DIMTOFL
 70
     0
  9
$DIMTVP
 40
0.0
  9
$DIMTIX
 70
     0
  9
$DIMSOXD
 70
     0
  9
$DIMSAH
 70
     0
  9
$DIMBLK1
  1

  9
$DIMBLK2
  1

  9
$DIMSTYLE
  2
STANDARD
  9
$DIMCLRD
 70
     0
  9
$DIMCLRE
 70
     0
  9
$DIMCLRT
 70
     0
  9
$DIMTFAC
 40
1.0
  9
$DIMGAP
 40
0.09
  9
$LUNITS
 70
     2
  9
$LUPREC
 70
     4
  9
$SKETCHINC
 40
0.1
  9
$FILLETRAD
 40
0.0
  9
$AUNITS
 70
     0
  9
$AUPREC
 70
     0
  9
$MENU
  1
.
  9
$ELEVATION
 40
0.0
  9
$PELEVATION
 40
0.0
  9
$THICKNESS
 40
0.0
  9
$LIMCHECK
 70
     0
  9
$BLIPMODE
 70
     0
  9
$CHAMFERA
 40
0.0
  9
$CHAMFERB
 40
0.0
  9
$SKPOLY
 70
     0
  9
$TDCREATE
 40
2458060.468368056230247
  9
$TDUPDATE
 40
2460088.5138541669584811
  9
$TDINDWG
 40
0.5869052083
  9
$TDUSRTIMER
 40
0.5869052083
  9
$USRTIMER
 70
     1
  9
$ANGBASE
 50
0.0
  9
$ANGDIR
 70
     0
  9
$PDMODE
 70
     0
  9
$PDSIZE
 40
0.3125
  9
$PLINEWID
 40
0.0
  9
$COORDS
 70
     1
  9
$SPLFRAME
 70
     0
  9
$SPLINETYPE
 70
     6
  9
$SPLINESEGS
 70
     8
  9
$ATTDIA
 70
     1
  9
$ATTREQ
 70
     1
  9
$HANDLING
 70
     1
  9
$HANDSEED
  5
24CF0
  9
$SURFTAB1
 70
     6
  9
$SURFTAB2
 70
     6
  9
$SURFTYPE
 70
     6
  9
$SURFU
 70
     6
  9
$SURFV
 70
     6
  9
$UCSNAME
  2

  9
$UCSORG
 10
0.0
 20
0.0
 30
0.0
  9
$UCSXDIR
 10
1.0
 20
0.0
 30
0.0
  9
$UCSYDIR
 10
0.0
 20
1.0
 30
0.0
  9
$PUCSNAME
  2

  9
$PUCSORG
 10
0.0
 20
0.0
 30
0.0
  9
$PUCSXDIR
 10
1.0
 20
0.0
 30
0.0
  9
$PUCSYDIR
 10
0.0
 20
1.0
 30
0.0
  9
$USERI1
 70
     0
  9
$USERI2
 70
     0
  9
$USERI3
 70
     0
  9
$USERI4
 70
     0
  9
$USERI5
 70
     0
  9
$USERR1
 40
0.0
  9
$USERR2
 40
0.0
  9
$USERR3
 40
0.0
  9
$USERR4
 40
0.0
  9
$USERR5
 40
0.0
  9
$WORLDVIEW
 70
     1
  9
$SHADEDGE
 70
     3
  9
$SHADEDIF
 70
    70
  9
$TILEMODE
 70
     1
  9
$MAXACTVP
 70
    64
  9
$PLIMCHECK
 70
     0
  9
$PEXTMIN
 10
1.0000000000000000E+20
 20
1.0000000000000000E+20
 30
1.0000000000000000E+20
  9
$PEXTMAX
 10
-1.0000000000000000E+20
 20
-1.0000000000000000E+20
 30
-1.0000000000000000E+20
  9
$PLIMMIN
 10
0.0
 20
0.0
  9
$PLIMMAX
 10
12.0
 20
9.0
  9
$UNITMODE
 70
     0
  9
$VISRETAIN
 70
     1
  9
$PLINEGEN
 70
     0
  9
$PSLTSCALE
 70
     1
  0
ENDSEC
  0
SECTION
  2
TABLES
  0
TABLE
  2
VPORT
 70
     1
  0
VPORT
  2
*ACTIVE
 70
     0
 10
0.0
 20
0.0
 11
1.0
 21
1.0
 12
1687.653634746473017
 22
-143.9809369563552082
 13
0.0
 23
0.0
 14
1.0
 24
1.0
 15
0.0
 25
0.0
 16
0.0
 26
0.0
 36
5.1040778033513332
 17
3792.35791015625
 27
120.1806564331053977
 37
0.0
 40
4.6997877947295592
 41
2.6486111111111108
 42
50.0
 43
0.0
 44
0.0
 50
0.0
 51
0.0
 71
     0
 72
   100
 73
     1
 74
     1
 75
     0
 76
     0
 77
     0
 78
     0
  0
ENDTAB
  0
TABLE
  2
LTYPE
 70
     2
  0
LTYPE
  2
CONTINUOUS
 70
     0
  3
Solid line
 72
    65
 73
     0
 40
0.0
  0
LTYPE
  2
PHANTOM2
 70
     0
  3
___ _ _ ___ _ _ ___ _ _ ___ _ _
 72
    65
 73
     6
 40
1.25
 49
0.625
 49
-0.125
 49
0.125
 49
-0.125
 49
0.125
 49
-0.125
  0
ENDTAB
  0
TABLE
  2
LAYER
 70
     2
  0
LAYER
  2
0
 70
     0
 62
   255
  6
CONTINUOUS
  0
LAYER
  2
DEFPOINTS
 70
     0
 62
     7
  6
CONTINUOUS
  0
ENDTAB
  0
TABLE
  2
STYLE
 70
     1
  0
STYLE
  2
STANDARD
 70
     0
 40
0.0
 41
0.8
 50
0.0
 71
     0
 42
0.2
  3
txt
  4

  0
ENDTAB
  0
TABLE
  2
VIEW
 70
     0
  0
ENDTAB
  0
TABLE
  2
UCS
 70
     0
  0
ENDTAB
  0
TABLE
  2
APPID
 70
     9
  0
APPID
  2
ACAD
 70
     0
  0
APPID
  2
ACAD_MLEADERVER
 70
     0
  0
APPID
  2
ACAD_EXEMPT_FROM_CAD_STANDARDS
 70
     0
  0
APPID
  2
ACAD_NAV_VCDISPLAY
 70
     0
  0
APPID
  2
ACAECLAYERSTANDARD
 70
     0
  0
APPID
  2
ACCMTRANSPARENCY
 70
     0
  0
APPID
  2
ACAD_DSTYLE_DIMJAG
 70
     0
  0
APPID
  2
ACAD_DSTYLE_DIMTALN
 70
     0
  0
APPID
  2
ACDBATTR
 70
     0
  0
ENDTAB
  0
TABLE
  2
DIMSTYLE
 70
     1
  0
DIMSTYLE
  2
STANDARD
 70
     0
  3

  4

  5

  6

  7

 40
1.0
 41
0.1875
 42
0.0625
 43
0.38
 44
0.125
 45
0.0
 46
0.0
 47
0.01
 48
0.01
140
0.15625
141
0.09
142
0.0
143
25.3999999999999986
144
1.0
145
0.0
146
1.0
147
0.09
 71
     1
 72
     0
 73
     1
 74
     1
 75
     0
 76
     0
 77
     0
 78
     4
170
     0
171
     2
172
     0
173
     0
174
     0
175
     0
176
     0
177
     0
178
     0
  0
ENDTAB
  0
ENDSEC
  0
SECTION
  2
BLOCKS
  0
BLOCK
  8
0
  2
$MODEL_SPACE
 70
     0
 10
0.0
 20
0.0
 30
0.0
  3
$MODEL_SPACE
  1

  0
ENDBLK
  5
21
  8
0
  0
BLOCK
 67
     1
  8
0
  2
$PAPER_SPACE
 70
     0
 10
0.0
 20
0.0
 30
0.0
  3
$PAPER_SPACE
  1

  0
ENDBLK
  5
1D
 67
     1
  8
0
  0
BLOCK
  8
0
  2
_FILLED
 70
     0
 10
0.0
 20
0.0
 30
0.0
  3
_FILLED
  1

  0
SOLID
  5
1D213
  8
0
  6
BYBLOCK
 62
     0
 10
0.0
 20
0.0
 30
0.0
 11
-1.0
 21
0.1666666667
 31
0.0
 12
-1.0
 22
-0.1666666667
 32
0.0
 13
-1.0
 23
-0.1666666667
 33
0.0
  0
ENDBLK
  5
1D214
  8
0
  6
BYBLOCK
 62
     0
  0
ENDSEC
  0
SECTION
  2
ENTITIES
  0
ATTDEF
  5
3930
  8
DEFPOINTS
 10
5480.0114685990056387
 20
-23.3454138026988289
 30
0.0
 40
0.001
  1
P40879-LV
  3

  2
MODELNUMBER
 70
     0
1001
ACDBATTR
1070
     0
1070
     1
  0
ATTDEF
  5
3931
  8
DEFPOINTS
 10
5480.0114685990056387
 20
-23.3470804693654905
 30
0.0
 40
0.001
  1
ONE
  3

  2
TRADENAME
 70
     0
1001
ACDBATTR
1070
     0
1070
     1
  0
ATTDEF
  5
3932
  8
DEFPOINTS
 10
5480.0114685990056387
 20
-23.3487471360321592
 30
0.0
 40
0.001
  1
VALVE TRIM
  3

  2
PRODUCT
 70
     0
1001
ACDBATTR
1070
     0
1070
     1
  0
LINE
  5
244FC
  8
0
 10
5480.4026907107227089
 20
-23.9307805232498012
 30
0.0
 11
5479.6203990947242346
 21
-23.930780523249819
 31
0.0
  0
LINE
  5
244FD
  8
0
 10
5480.4026907107227089
 20
-26.1307805232497685
 30
0.0
 11
5479.6203990947242346
 21
-26.1307805232497898
 31
0.0
  0
ARC
  5
244FE
  8
0
 10
5479.6203990947242346
 20
-26.1207805232497883
 30
0.0
 40
0.01
 50
180.0
 51
270.0
  0
ARC
  5
244FF
  8
0
 10
5480.4026907107227089
 20
-26.1207805232497705
 30
0.0
 40
0.01
 50
270.0
 51
0.0
  0
ARC
  5
24500
  8
0
 10
5480.0115449027243812
 20
-23.34392633124979
 30
0.0
 40
1.874145808
 50
282.3593262161833195
 51
257.6406737838166805
  0
ARC
  5
24501
  8
0
 10
5480.0115449027243812
 20
-23.34392633124979
 30
0.0
 40
0.8991458080000001
 50
296.4963626129041927
 51
243.5036373870958073
  0
ARC
  5
24502
  8
0
 10
5480.0115449027243812
 20
-23.34392633124979
 30
0.0
 40
0.4011458079999999
 50
0.0
 51
180.0
  0
LINE
  5
24503
  8
0
 10
5479.6103990947240163
 20
-23.34392633124979
 30
0.0
 11
5479.6103990947240163
 21
-23.91578052324979
 31
0.0
  0
LINE
  5
24504
  8
0
 10
5479.6103990947240163
 20
-23.9407805232497992
 30
0.0
 11
5479.6103990947240163
 21
-26.1207805232497883
 31
0.0
  0
ARC
  5
24505
  8
0
 10
5479.6203990947242346
 20
-23.9407805232497992
 30
0.0
 40
0.01
 50
90.0
 51
180.0
  0
ARC
  5
24506
  8
0
 10
5479.6253990947234342
 20
-23.91578052324979
 30
0.0
 40
0.015
 50
180.0000000000048885
 51
270.0
  0
LINE
  5
24507
  8
0
 10
5480.4126907107238367
 20
-23.34392633124979
 30
0.0
 11
5480.4126907107238367
 21
-23.91578052324979
 31
0.0
  0
LINE
  5
24508
  8
0
 10
5480.4126907107238367
 20
-23.9407805232497992
 30
0.0
 11
5480.4126907107238367
 21
-26.1207805232497705
 31
0.0
  0
ARC
  5
24509
  8
0
 10
5480.4026907107227089
 20
-23.9407805232497992
 30
0.0
 40
0.01
 50
0.0
 51
90.0
  0
ARC
  5
2450A
  8
0
 10
5480.3976907107244188
 20
-23.91578052324979
 30
0.0
 40
0.015
 50
270.0
 51
359.9999999999951115
  0
ARC
  5
2450B
  8
0
 10
5483.7753741141932551
 20
-24.3464404885516004
 30
0.0
 40
4.1683688655337319
 50
174.4017406230784957
 51
177.687774963054494
  0
ARC
  5
2450C
  8
0
 10
5479.6368391542837344
 20
-23.9407805232497992
 30
0.0
 40
0.01
 50
90.0
 51
174.4017406230796894
  0
ARC
  5
2450D
  8
0
 10
5482.7801519449240004
 20
-24.3693187260498298
 30
0.0
 40
3.1707428044003829
 50
172.2077543229812875
 51
178.5682210477282013
  0
ARC
  5
2450E
  8
0
 10
5479.6485948107956574
 20
-23.9407805232497992
 30
0.0
 40
0.01
 50
90.0
 51
172.2077543229777064
  0
ARC
  5
2450F
  8
0
 10
5483.558717337780763
 20
-24.6573612728060603
 30
0.0
 40
3.9530035386008469
 50
169.5291797730548922
 51
177.2101206066043915
  0
ARC
  5
24510
  8
0
 10
5479.6813743126158442
 20
-23.9407805232497992
 30
0.0
 40
0.01
 50
90.0
 51
169.5291797730563985
  0
ARC
  5
24511
  8
0
 10
5483.4162135783353733
 20
-24.7840741059983891
 30
0.0
 40
3.8075709298349518
 50
167.2382207666929901
 51
178.2596052903984116
  0
ARC
  5
24512
  8
0
 10
5479.6929483799349327
 20
-23.9407805232497992
 30
0.0
 40
0.01
 50
347.2382207666947238
 51
90.0
  0
ARC
  5
24513
  8
0
 10
5483.7096026227191032
 20
-24.9963913064383512
 30
0.0
 40
4.1067513191855509
 50
165.0681344105541939
 51
174.7918307713792956
  0
ARC
  5
24514
  8
0
 10
5479.7781497286614467
 20
-24.6380358684555389
 30
0.0
 40
0.159
 50
174.7918307713792956
 51
178.464258386079905
  0
ARC
  5
24515
  8
0
 10
5479.7511866206214108
 20
-23.9407805232497992
 30
0.0
 40
0.01
 50
90.0
 51
165.0681344105580877
  0
ARC
  5
24516
  8
0
 10
5483.6615212255110237
 20
-25.1200482132574692
 30
0.0
 40
4.0549277323491726
 50
163.1355834351433884
 51
172.8687775565882134
  0
ARC
  5
24517
  8
0
 10
5479.7714100208622767
 20
-23.9407805232497992
 30
0.0
 40
0.01
 50
343.1355834351442127
 51
90.0
  0
ARC
  5
24518
  8
0
 10
5479.7957306920607152
 20
-24.6363991181664694
 30
0.0
 40
0.159
 50
172.8687775565882134
 51
177.9450975563347015
  0
ARC
  5
24519
  8
0
 10
5488.3592888672692425
 20
-26.2158810249503205
 30
0.0
 40
8.8459171538472212
 50
165.1136987120488016
 51
169.6293725667177057
  0
ARC
  5
2451A
  8
0
 10
5479.8005981763417367
 20
-23.9407805232497992
 30
0.0
 40
0.01
 50
345.1136987120506774
 51
90.0
  0
ARC
  5
2451B
  8
0
 10
5479.8142821967521741
 20
-24.6521065403684503
 30
0.0
 40
0.159
 50
169.6293725667173931
 51
177.1540089237199993
  0
ARC
  5
2451C
  8
0
 10
5488.0570998838293235
 20
-26.2540643150718687
 30
0.0
 40
8.5560996296121097
 50
164.2950872930022967
 51
168.9717898133417862
  0
ARC
  5
2451D
  8
0
 10
5479.8300386237106068
 20
-23.9407805232497992
 30
0.0
 40
0.01
 50
90.0
 51
164.2950872930105106
  0
ARC
  5
2451E
  8
0
 10
5485.5083245084251757
 20
-25.883622831139391
 30
0.0
 40
5.967062777008648
 50
161.0314154931243138
 51
167.6707922353596985
  0
ARC
  5
2451F
  8
0
 10
5479.8558345078172351
 20
-23.9407805232497992
 30
0.0
 40
0.01
 50
341.031415493128975
 51
90.0
  0
ARC
  5
24520
  8
0
 10
5479.8342139507631146
 20
-24.6434363124690599
 30
0.0
 40
0.159
 50
167.6707922353596985
 51
176.3061946195886094
  0
ARC
  5
24521
  8
0
 10
5486.4163852357351061
 20
-26.0457048288847695
 30
0.0
 40
6.8467532956804718
 50
162.1223396070990077
 51
167.9447700110212054
  0
ARC
  5
24522
  8
0
 10
5479.8907159654318093
 20
-23.9407805232497992
 30
0.0
 40
0.01
 50
342.1223396070952276
 51
90.0
  0
ARC
  5
24523
  8
0
 10
5479.8761187634563612
 20
-24.6489376272845391
 30
0.0
 40
0.159
 50
167.9447700110220012
 51
175.5583100148448068
  0
ARC
  5
24524
  8
0
 10
5487.5534351245396465
 20
-26.3806040250460114
 30
0.0
 40
8.0237909624013817
 50
162.2747358691437967
 51
167.4011065012037136
  0
ARC
  5
24525
  8
0
 10
5479.9200802350333106
 20
-23.9407805232497992
 30
0.0
 40
0.01
 50
90.0
 51
162.2747358691360091
  0
ARC
  5
24526
  8
0
 10
5479.8780206638139134
 20
-24.6651012595694894
 30
0.0
 40
0.159
 50
167.4011065012041115
 51
175.3973145552353969
  0
ARC
  5
24527
  8
0
 10
5489.2506042970117051
 20
-27.3755369676649813
 30
0.0
 40
9.8930638976236196
 50
159.7059804349684953
 51
163.7465446196200958
  0
ARC
  5
24528
  8
0
 10
5479.9622716841049623
 20
-23.9407805232497992
 30
0.0
 40
0.01
 50
339.7059804349613046
 51
90.0
  0
ARC
  5
24529
  8
0
 10
5479.9055819572322434
 20
-24.6510998823162417
 30
0.0
 40
0.159
 50
163.7465446196200958
 51
174.9053605432548864
  0
ARC
  5
2452A
  8
0
 10
5493.4553785886328114
 20
-28.427567389005759
 30
0.0
 40
14.1770274071043705
 50
161.5631147036596929
 51
164.3976906646441023
  0
ARC
  5
2452B
  8
0
 10
5479.9965342745317685
 20
-23.9407805232497992
 30
0.0
 40
0.01
 50
341.5631147036577886
 51
90.0
  0
ARC
  5
2452C
  8
0
 10
5479.9538912814223295
 20
-24.6572977859728617
 30
0.0
 40
0.159
 50
164.3976906646445002
 51
174.7120964787000048
  0
ARC
  5
2452D
  8
0
 10
5508.2351127200972769
 20
-34.3617406324801067
 30
0.0
 40
30.018831961528349
 50
159.6941251456682949
 51
161.0325633362170095
  0
ARC
  5
2452E
  8
0
 10
5480.072471874898838
 20
-23.9407805232498099
 30
0.0
 40
0.01
 50
339.6941251456481154
 51
90.0
  0
ARC
  5
2452F
  8
0
 10
5479.9965664548153654
 20
-24.6563777029295395
 30
0.0
 40
0.159
 50
161.0325633362189137
 51
173.9807592184725991
  0
ARC
  5
24530
  8
0
 10
5461.8622306238476085
 20
-18.2184048161270518
 30
0.0
 40
19.1270756228693095
 50
340.4797805971821845
 51
342.5824411188679051
  0
ARC
  5
24531
  8
0
 10
5480.1027623221571048
 20
-23.9407805232498099
 30
0.0
 40
0.01
 50
342.5824411188045815
 51
90.0
  0
ARC
  5
24532
  8
0
 10
5480.0398126973441322
 20
-24.6626443284640189
 30
0.0
 40
0.159
 50
160.479780597185993
 51
174.4958280391468861
  0
ARC
  5
24533
  8
0
 10
5459.7967057042742454
 20
-17.5324064318551009
 30
0.0
 40
21.3107690359777493
 50
340.5970239994215945
 51
342.5081847960324808
  0
ARC
  5
24534
  8
0
 10
5480.1316001910972773
 20
-23.9407805232498099
 30
0.0
 40
0.01
 50
90.0
 51
162.5081847960919106
  0
ARC
  5
24535
  8
0
 10
5480.0471078793007109
 20
-24.6648810520596804
 30
0.0
 40
0.159
 50
160.5970239994231008
 51
174.7018639151623063
  0
ARC
  5
24536
  8
0
 10
5439.556975506413437
 20
-9.942080078715211
 30
0.0
 40
42.9432698669328303
 50
340.0123335610306867
 51
340.9703644245968803
  0
ARC
  5
24537
  8
0
 10
5480.1439444414190802
 20
-23.9407805232498099
 30
0.0
 40
0.01
 50
340.9703644245872738
 51
90.0
  0
ARC
  5
24538
  8
0
 10
5480.0630328489269232
 20
-24.6752055531995289
 30
0.0
 40
0.159
 50
160.0123335610304025
 51
173.6016029287746107
  0
ARC
  5
24539
  8
0
 10
5420.9733341217242923
 20
-3.3212622517582551
 30
0.0
 40
62.7005761691371717
 50
340.1566538385790182
 51
340.7974075910623242
  0
ARC
  5
2453A
  8
0
 10
5480.175900000832371
 20
-23.9407805232497992
 30
0.0
 40
0.01
 50
340.7974075910257739
 51
90.0
  0
ARC
  5
2453B
  8
0
 10
5480.1005747570507083
 20
-24.6589221753698418
 30
0.0
 40
0.159
 50
160.1566538386024945
 51
173.3233329117431083
  0
ARC
  5
2453C
  8
0
 10
5531.1305638009362156
 20
-40.8515380389084228
 30
0.0
 40
53.6618326553195217
 50
161.6345405393990973
 51
162.3871690869210909
  0
ARC
  5
2453D
  8
0
 10
5480.1924454530108051
 20
-23.9407805232497992
 30
0.0
 40
0.01
 50
341.6345405394216073
 51
90.0
  0
ARC
  5
2453E
  8
0
 10
5480.1357871412856184
 20
-24.6624721123162587
 30
0.0
 40
0.159
 50
162.3871690869204087
 51
173.9914266696461027
  0
ARC
  5
2453F
  8
0
 10
5590.4216003095671113
 20
-60.0829923932197119
 30
0.0
 40
115.985095395021105
 50
161.8420464164562986
 51
162.1946867257360054
  0
ARC
  5
24540
  8
0
 10
5480.2219484361130526
 20
-23.9407805232497992
 30
0.0
 40
0.01
 50
90.0
 51
161.8420464164840951
  0
ARC
  5
24541
  8
0
 10
5480.1434543947107159
 20
-24.6652721385474187
 30
0.0
 40
0.159
 50
162.1946867257429972
 51
173.9522737876025928
  0
ARC
  5
24542
  8
0
 10
5471.5384799032508454
 20
-21.3938318191516501
 30
0.0
 40
9.0770045164868343
 50
339.1801353542966808
 51
343.6858944781544096
  0
ARC
  5
24543
  8
0
 10
5480.2404120565533958
 20
-23.9407805232497992
 30
0.0
 40
0.01
 50
343.6858944781209857
 51
90.0
  0
ARC
  5
24544
  8
0
 10
5480.1713964461978321
 20
-24.6765945871686796
 30
0.0
 40
0.159
 50
159.1801353542969935
 51
173.3221459358813092
  0
ARC
  5
24545
  8
0
 10
5471.8132019463919278
 20
-21.5417256992080191
 30
0.0
 40
8.7978399206131517
 50
339.6302212148934245
 51
344.1573100362011814
  0
ARC
  5
24546
  8
0
 10
5480.2672345002420116
 20
-23.9407805232497992
 30
0.0
 40
0.01
 50
344.1573100361703155
 51
90.0
  0
ARC
  5
24547
  8
0
 10
5480.2099323029224252
 20
-24.6594012248588506
 30
0.0
 40
0.159
 50
159.6302212148929129
 51
173.3043233127490907
  0
ARC
  5
24548
  8
0
 10
5463.0786147227154288
 20
-19.2320355717255502
 30
0.0
 40
17.8355636792113792
 50
342.4390323351009897
 51
344.6831406163345832
  0
ARC
  5
24549
  8
0
 10
5480.2710095955399083
 20
-23.9407805232497992
 30
0.0
 40
0.01
 50
344.6831406163004772
 51
90.0
  0
ARC
  5
2454A
  8
0
 10
5480.2345675639307956
 20
-24.6613637175640292
 30
0.0
 40
0.159
 50
162.4390323351003076
 51
175.25192423978541
  0
ARC
  5
2454B
  8
0
 10
5473.999835188187717
 20
-22.621108797842961
 30
0.0
 40
6.4091390104364683
 50
341.8747448843815278
 51
346.4592027196766253
  0
ARC
  5
2454C
  8
0
 10
5480.2420545879504061
 20
-24.6644264495161494
 30
0.0
 40
0.159
 50
161.8747448843822099
 51
175.1535445038055059
  0
ARC
  5
2454D
  8
0
 10
5598.8254048963663081
 20
-59.3887515695693509
 30
0.0
 40
123.6828455334745058
 50
163.3466476074279967
 51
163.6775499271574859
  0
ARC
  5
2454E
  8
0
 10
5480.3207156015232613
 20
-23.9407805232497992
 30
0.0
 40
0.01
 50
343.3466476073896843
 51
90.0
  0
ARC
  5
2454F
  8
0
 10
5480.2801576553229097
 20
-24.6732683965268293
 30
0.0
 40
0.159
 50
163.6775499271649039
 51
173.5739208530283975
  0
ARC
  5
24550
  8
0
 10
5474.8229321576118309
 20
-22.7777345866905598
 30
0.0
 40
5.6471920648368457
 50
341.116482132091221
 51
348.0934213557106887
  0
ARC
  5
24551
  8
0
 10
5480.3388417403830317
 20
-23.9407805232497992
 30
0.0
 40
0.01
 50
348.0934213556956252
 51
90.0
  0
ARC
  5
24552
  8
0
 10
5480.3166262573085987
 20
-24.65688105057135
 30
0.0
 40
0.159
 50
161.1164821320915905
 51
173.7920990662387908
  0
ARC
  5
24553
  8
0
 10
5469.83868471220012
 20
-21.6875060187730284
 30
0.0
 40
10.7507665560798795
 50
344.1790807502945881
 51
347.8901226507334741
  0
ARC
  5
24554
  8
0
 10
5480.3404379096282355
 20
-23.9407805232497992
 30
0.0
 40
0.01
 50
347.8901226507180127
 51
90.0
  0
ARC
  5
24555
  8
0
 10
5480.3351731342972926
 20
-24.6618525206039614
 30
0.0
 40
0.159
 50
164.179080750294986
 51
174.1899726093620018
  0
ARC
  5
24556
  8
0
 10
5476.2276083066290084
 20
-23.355296141793449
 30
0.0
 40
4.1973822072029581
 50
342.4213614046965972
 51
351.9625058561309743
  0
ARC
  5
24557
  8
0
 10
5480.3738569470597213
 20
-23.9407805232497992
 30
0.0
 40
0.01
 50
351.9625058561205151
 51
90.0
  0
ARC
  5
24558
  8
0
 10
5480.3805619852573727
 20
-24.6709867127127112
 30
0.0
 40
0.159
 50
162.421361404696512
 51
174.2498355377844916
  0
ARC
  5
24559
  8
0
 10
5476.8654536705416831
 20
-23.5708388668190914
 30
0.0
 40
3.5493324971781481
 50
343.0424436591829931
 51
354.0003146514358718
  0
ARC
  5
2455A
  8
0
 10
5480.3853993656366583
 20
-23.9407805232497992
 30
0.0
 40
0.01
 50
354.0003146514285959
 51
90.0
  0
ARC
  5
2455B
  8
0
 10
5480.4125518651080711
 20
-24.6524230326280112
 30
0.0
 40
0.159
 50
163.042443659183391
 51
174.6370442162177028
  0
ARC
  5
2455C
  8
0
 10
5476.9453197512120823
 20
-23.7871937057930189
 30
0.0
 40
3.468997137456999
 50
346.0059342198280774
 51
357.5506768864821083
  0
ARC
  5
2455D
  8
0
 10
5480.4656407537713676
 20
-24.6645210496816283
 30
0.0
 40
0.159
 50
166.0059342198285037
 51
175.3609578457408986
  0
ARC
  5
2455E
  8
0
 10
5477.2844774422756018
 20
-23.9178278084593714
 30
0.0
 40
3.1285396861402979
 50
347.2245350651455738
 51
359.1723296120158011
  0
ARC
  5
2455F
  8
0
 10
5480.4906312426483055
 20
-24.6448044217761009
 30
0.0
 40
0.159
 50
167.2245350651456022
 51
175.8492816755017998
  0
ARC
  5
24560
  8
0
 10
5477.143463290890395
 20
-24.1055266996468305
 30
0.0
 40
3.2707036075596871
 50
350.7698802500220268
 51
358.2785113408426128
  0
ARC
  5
24561
  8
0
 10
5480.528759373702087
 20
-24.6556514740446708
 30
0.0
 40
0.159
 50
170.7698802500223962
 51
175.9948838953546044
  0
ARC
  5
24562
  8
0
 10
5517.0696387274565495
 20
-37.1846884996908713
 30
0.0
 40
39.3188179299133225
 50
160.3106948306347874
 51
161.3653910468605091
  0
ARC
  5
24563
  8
0
 10
5480.0590717423556271
 20
-23.9407805232498099
 30
0.0
 40
0.01
 50
90.0
 51
160.3106948306140964
  0
ARC
  5
24564
  8
0
 10
5479.9627518187126043
 20
-24.671883688395301
 30
0.0
 40
0.159
 50
161.365391046857809
 51
174.3576737785635942
  0
ARC
  5
24565
  8
0
 10
5477.3235745329166093
 20
-24.2114254881030888
 30
0.0
 40
3.089929067325043
 50
352.6224054284996896
 51
358.6857177007271957
  0
ARC
  5
24566
  8
0
 10
5480.5456071846328996
 20
-24.6286133064696493
 30
0.0
 40
0.159
 50
172.6224054285005138
 51
177.6754719986167004
  0
ARC
  5
24567
  8
0
 10
5477.3369367312616305
 20
-24.4229158072795407
 30
0.0
 40
3.076628109099012
 50
356.0398368557183062
 51
358.6341646961166134
  0
ARC
  5
24568
  8
0
 10
5480.5648391625600198
 20
-24.6463775588420901
 30
0.0
 40
0.159
 50
176.0398368557187041
 51
178.6746136221076995
  0
ARC
  5
24569
  8
0
 10
5504.5548212735120615
 20
-25.3023026058912386
 30
0.0
 40
24.9445744968710912
 50
178.464258386079905
 51
179.7997716664054053
  0
ARC
  5
2456A
  8
0
 10
5517.5847092681306094
 20
-25.9922751827018317
 30
0.0
 40
37.972295303702829
 50
177.9450975563354973
 51
179.3072836290012901
  0
ARC
  5
2456B
  8
0
 10
5538.4593797700090363
 20
-27.5675189543027592
 30
0.0
 40
58.8765195228833207
 50
177.1540089237184077
 51
178.247506658221198
  0
ARC
  5
2456C
  8
0
 10
5511.263672817844963
 20
-26.6724760164346684
 30
0.0
 40
31.6538866770130909
 50
176.3061946195894052
 51
179.0010258461115882
  0
ARC
  5
2456D
  8
0
 10
5479.6245957751998503
 20
-26.1207805232497989
 30
0.0
 40
0.01
 50
179.0010258461119861
 51
270.0
  0
ARC
  5
2456E
  8
0
 10
5517.4278536841547975
 20
-27.5658731487476203
 30
0.0
 40
37.8238550825676825
 50
175.5583100148460005
 51
177.8098536818588116
  0
ARC
  5
2456F
  8
0
 10
5479.6416214889595722
 20
-26.1207805232497989
 30
0.0
 40
0.01
 50
177.8098536818864943
 51
270.0
  0
ARC
  5
24570
  8
0
 10
5514.7658004528157107
 20
-27.4737511489851194
 30
0.0
 40
35.1596527483010703
 50
175.3973145552369886
 51
177.7940418842329962
  0
ARC
  5
24571
  8
0
 10
5479.6421964405271865
 20
-26.1207805232497989
 30
0.0
 40
0.01
 50
177.7940418842403858
 51
270.0
  0
ARC
  5
24572
  8
0
 10
5514.826369550131858
 20
-27.7644039917481287
 30
0.0
 40
35.2182936121970585
 50
174.9053605432561085
 51
177.3242972980432057
  0
ARC
  5
24573
  8
0
 10
5479.6564613760046996
 20
-26.1207805232497989
 30
0.0
 40
0.01
 50
177.3242972980615093
 51
270.0
  0
ARC
  5
24574
  8
0
 10
5526.6340581848999136
 20
-28.9777460490952592
 30
0.0
 40
47.0386784900547497
 50
174.7120964786996069
 51
176.5171694428456988
  0
ARC
  5
24575
  8
0
 10
5479.6922394248103956
 20
-26.1207805232497883
 30
0.0
 40
0.01
 50
176.5171694427889122
 51
270.0
  0
ARC
  5
24576
  8
0
 10
5533.2239223402939388
 20
-29.9339139983160116
 30
0.0
 40
53.6794750381709491
 50
174.357673778560013
 51
175.6964025772902005
  0
ARC
  5
24577
  8
0
 10
5529.6634269961341488
 20
-29.8934388200948611
 30
0.0
 40
50.1012050491942773
 50
173.9807592184749865
 51
175.6806333811402112
  0
ARC
  5
24578
  8
0
 10
5479.7144943483208408
 20
-26.1207805232497989
 30
0.0
 40
0.01
 50
175.6806333810895921
 51
270.0
  0
ARC
  5
24579
  8
0
 10
5561.4556132154220904
 20
-32.5080775217611873
 30
0.0
 40
81.9519299878043626
 50
174.4958280391489893
 51
175.5293122610017917
  0
ARC
  5
2457A
  8
0
 10
5479.7630044482930316
 20
-26.1207805232497883
 30
0.0
 40
0.01
 50
175.5293122609274974
 51
270.0
  0
ARC
  5
2457B
  8
0
 10
-12112.328266977920066
 20
1606.7532114355569774
 30
0.0
 40
17667.698717402490729
 50
354.6970713734891092
 51
354.7018639120976218
  0
ARC
  5
2457C
  8
0
 10
5479.7423087506722368
 20
-26.1207805232497812
 30
0.0
 40
0.01
 50
270.0
 51
354.6970713431794024
  0
ARC
  5
2457D
  8
0
 10
5546.8094244998983413
 20
-32.1601221372647785
 30
0.0
 40
67.3237584280272046
 50
173.6016029287725928
 51
174.8525425926420951
  0
ARC
  5
2457E
  8
0
 10
5479.7671361545862965
 20
-26.1207805232497883
 30
0.0
 40
0.01
 50
174.8525425926254968
 51
270.0
  0
ARC
  5
2457F
  8
0
 10
5542.6713206588628964
 20
-31.9834640253418883
 30
0.0
 40
63.1569932697939507
 50
173.323332911738305
 51
174.6728822731940056
  0
ARC
  5
24580
  8
0
 10
5479.7970675724864122
 20
-26.1207805232497883
 30
0.0
 40
0.01
 50
174.6728822732681863
 51
270.0
  0
ARC
  5
24581
  8
0
 10
5575.9692021877735897
 20
-34.7494683787421934
 30
0.0
 40
96.5218088691440244
 50
173.99142666964201
 51
174.8705923346111035
  0
ARC
  5
24582
  8
0
 10
5479.8438933607703802
 20
-26.1207805232497812
 30
0.0
 40
0.01
 50
174.8705923345000031
 51
270.0
  0
ARC
  5
24583
  8
0
 10
5575.6864693805855495
 20
-34.7877192764549932
 30
0.0
 40
96.2367375287899307
 50
173.9522737875992959
 51
174.8324875101413909
  0
ARC
  5
24584
  8
0
 10
5479.8508330646382092
 20
-26.1207805232497883
 30
0.0
 40
0.01
 50
174.8324875102098872
 51
270.0
  0
ARC
  5
24585
  8
0
 10
5608.1110571334938868
 20
-39.6559192045399982
 30
0.0
 40
128.972574373095398
 50
173.3221459358832988
 51
173.9754833986538074
  0
ARC
  5
24586
  8
0
 10
5479.8607331190323748
 20
-26.1207805232497883
 30
0.0
 40
0.01
 50
173.9754833986393123
 51
270.0
  0
ARC
  5
24587
  8
0
 10
5637.6560894411859408
 20
-43.1430297584766009
 30
0.0
 40
158.6864011689328038
 50
173.3043233127438896
 51
173.8424376264586897
  0
ARC
  5
24588
  8
0
 10
5479.875257985191638
 20
-26.1207805232497812
 30
0.0
 40
0.01
 50
270.0
 51
353.8424376262798887
  0
ARC
  5
24589
  8
0
 10
5441.3193109529065623
 20
-21.4290712151207501
 30
0.0
 40
38.8902626296980003
 50
353.0727675068907843
 51
355.2519242397768835
  0
ARC
  5
2458A
  8
0
 10
5479.9356066896498305
 20
-26.1207805232497812
 30
0.0
 40
0.01
 50
173.0727675070087912
 51
270.0
  0
ARC
  5
2458B
  8
0
 10
5437.7114015955030482
 20
-21.0582982916914787
 30
0.0
 40
42.5242590631809279
 50
353.1643783828462801
 51
355.1535445038039143
  0
ARC
  5
2458C
  8
0
 10
5479.9433145016100752
 20
-26.1207805232497812
 30
0.0
 40
0.01
 50
173.1643783829424876
 51
270.0
  0
ARC
  5
2458D
  8
0
 10
4739.2179037149408032
 20
58.7917502235101708
 30
0.0
 40
745.5887278198324566
 50
353.4606807377413134
 51
353.5739208529034272
  0
ARC
  5
2458E
  8
0
 10
5479.9657184594279897
 20
-26.1207805232497883
 30
0.0
 40
0.01
 50
173.4606807395817896
 51
270.0
  0
ARC
  5
2458F
  8
0
 10
5251.5517733086671797
 20
0.2268536695887491
 30
0.0
 40
229.9552285871027948
 50
353.421046159697994
 51
353.7920990662221925
  0
ARC
  5
24590
  8
0
 10
5480.0026619730770108
 20
-26.1207805232497812
 30
0.0
 40
0.01
 50
173.421046160348908
 51
270.0
  0
ARC
  5
24591
  8
0
 10
5373.9984748583656256
 20
-13.8417621616936497
 30
0.0
 40
106.7267696590213006
 50
353.3928132455292825
 51
354.1899726093527079
  0
ARC
  5
24592
  8
0
 10
5480.0064681161065892
 20
-26.1207805232497812
 30
0.0
 40
0.01
 50
270.0
 51
353.3928132456364892
  0
ARC
  5
24593
  8
0
 10
5362.773464906576919
 20
-12.8282337416675798
 30
0.0
 40
118.0428615809720014
 50
353.5348843492291735
 51
354.2498355377795747
  0
ARC
  5
24594
  8
0
 10
5480.0755805205581055
 20
-26.1207805232497812
 30
0.0
 40
0.01
 50
173.5348843491402135
 51
270.0
  0
ARC
  5
24595
  8
0
 10
5394.808911427970088
 20
-16.6163341861823604
 30
0.0
 40
85.8210091884085386
 50
353.6408591814561078
 51
354.6370442162026961
  0
ARC
  5
24596
  8
0
 10
5480.0919390346325599
 20
-26.1207805232497705
 30
0.0
 40
0.01
 50
270.0
 51
353.640859181526082
  0
ARC
  5
24597
  8
0
 10
5416.1312114538122842
 20
-19.4441711680350195
 30
0.0
 40
64.3868817140048719
 50
354.047076536480688
 51
355.36095784573439
  0
ARC
  5
24598
  8
0
 10
5480.1609372593848093
 20
-26.1207805232497812
 30
0.0
 40
0.01
 50
270.0
 51
354.0470765364685235
  0
ARC
  5
24599
  8
0
 10
5423.9806134570608265
 20
-20.5438329848842116
 30
0.0
 40
56.4996275588594798
 50
354.3342357255958746
 51
355.8492816754965133
  0
ARC
  5
2459A
  8
0
 10
5480.1942744114321613
 20
-26.1207805232497705
 30
0.0
 40
0.01
 50
270.0
 51
354.3342357254426815
  0
ARC
  5
2459B
  8
0
 10
5403.1126993402558583
 20
-19.2352466555552795
 30
0.0
 40
77.4465870379085572
 50
354.89861614109941
 51
355.9948838953363861
  0
ARC
  5
2459C
  8
0
 10
5480.2425537121944217
 20
-26.1207805232497705
 30
0.0
 40
0.01
 50
270.0
 51
354.8986161408432736
  0
ARC
  5
2459D
  8
0
 10
5446.7401755911323562
 20
-23.2563514050451694
 30
0.0
 40
33.674272202802193
 50
355.118908747771286
 51
357.6754719986175246
  0
ARC
  5
2459E
  8
0
 10
5480.2823619952887384
 20
-26.1207805232497705
 30
0.0
 40
0.01
 50
270.0
 51
355.1189087477014255
  0
ARC
  5
2459F
  8
0
 10
5446.3757787646190991
 20
-23.8553629398669784
 30
0.0
 40
34.0392098218822667
 50
356.1828401151875028
 51
358.6746136220996277
  0
ARC
  5
245A0
  8
0
 10
5480.3294973278998441
 20
-26.1207805232497705
 30
0.0
 40
0.01
 50
270.0
 51
356.1828401150779086
  0
ARC
  5
245A1
  8
0
 10
5441.1343252231499719
 20
-23.8730561285820002
 30
0.0
 40
39.2895704139542019
 50
356.7195285117074945
 51
358.631597636423578
  0
ARC
  5
245A2
  8
0
 10
5480.3495312910818029
 20
-26.1207805232497705
 30
0.0
 40
0.01
 50
270.0
 51
356.7195285117139747
  0
ARC
  5
245A3
  8
0
 10
5534.6711746602459243
 20
-26.7000803742147816
 30
0.0
 40
54.2841920518341965
 50
178.2365908418350955
 51
179.3886626714482873
  0
ARC
  5
245A4
  8
0
 10
5480.3800731587662085
 20
-26.1207805232497705
 30
0.0
 40
0.01
 50
270.0
 51
359.3886626715045054
  0
ARC
  5
245A5
  8
0
 10
5420.0859872565242767
 20
-24.6474262060899214
 30
0.0
 40
60.3332564955686479
 50
358.6004505661824737
 51
359.1555292091006777
  0
ARC
  5
245A6
  8
0
 10
5480.3912482317191461
 20
-26.1207805232497705
 30
0.0
 40
0.01
 50
270.0
 51
358.6004505662061206
  0
ENDSEC
  0
EOF
