  0
SECTION
  2
HEADER
  9
$ACADVER
  1
AC1009
  9
$INSBASE
 10
5417.9948384294157222
 20
-13.4671700987580998
 30
0.0
  9
$EXTMIN
 10
5410.5794117238601757
 20
-21.1979213290919084
 30
-0.0000000000112498
  9
$EXTMAX
 10
5425.4816178818327899
 20
-12.09134964882149
 30
0.0000000000002956
  9
$LIMMIN
 10
0.0
 20
0.0
  9
$LIMMAX
 10
11.6929133858000007
 20
8.2677165353999982
  9
$ORTHOMODE
 70
     0
  9
$REGENMODE
 70
     1
  9
$FILLMODE
 70
     1
  9
$QTEXTMODE
 70
     0
  9
$MIRRTEXT
 70
     0
  9
$DRAGMODE
 70
     2
  9
$LTSCALE
 40
0.6431102362
  9
$OSMODE
 70
  4095
  9
$ATTMODE
 70
     1
  9
$TEXTSIZE
 40
0.2
  9
$TRACEWID
 40
0.05
  9
$TEXTSTYLE
  7
STANDARD
  9
$CLAYER
  8
0
  9
$CELTYPE
  6
BYLAYER
  9
$CECOLOR
 62
   256
  9
$DIMSCALE
 40
1.0
  9
$DIMASZ
 40
0.1875
  9
$DIMEXO
 40
0.0625
  9
$DIMDLI
 40
0.4443307087
  9
$DIMRND
 40
0.0
  9
$DIMDLE
 40
0.0
  9
$DIMEXE
 40
0.125
  9
$DIMTP
 40
0.01
  9
$DIMTM
 40
0.01
  9
$DIMTXT
 40
2.0
  9
$DIMCEN
 40
0.1052362205
  9
$DIMTSZ
 40
0.0
  9
$DIMTOL
 70
     1
  9
$DIMLIM
 70
     0
  9
$DIMTIH
 70
     1
  9
$DIMTOH
 70
     1
  9
$DIMSE1
 70
     0
  9
$DIMSE2
 70
     0
  9
$DIMTAD
 70
     0
  9
$DIMZIN
 70
     0
  9
$DIMBLK
  1

  9
$DIMASO
 70
     1
  9
$DIMSHO
 70
     1
  9
$DIMPOST
  1
\X
  9
$DIMAPOST
  1

  9
$DIMALT
 70
     1
  9
$DIMALTD
 70
     2
  9
$DIMALTF
 40
25.3999999999999986
  9
$DIMLFAC
 40
1.0
  9
$DIMTOFL
 70
     0
  9
$DIMTVP
 40
0.0
  9
$DIMTIX
 70
     0
  9
$DIMSOXD
 70
     0
  9
$DIMSAH
 70
     0
  9
$DIMBLK1
  1

  9
$DIMBLK2
  1

  9
$DIMSTYLE
  2
STANDARD
  9
$DIMCLRD
 70
     0
  9
$DIMCLRE
 70
     0
  9
$DIMCLRT
 70
     0
  9
$DIMTFAC
 40
1.0
  9
$DIMGAP
 40
0.09
  9
$LUNITS
 70
     2
  9
$LUPREC
 70
     4
  9
$SKETCHINC
 40
0.1
  9
$FILLETRAD
 40
0.0
  9
$AUNITS
 70
     0
  9
$AUPREC
 70
     0
  9
$MENU
  1
.
  9
$ELEVATION
 40
0.0
  9
$PELEVATION
 40
0.0
  9
$THICKNESS
 40
0.0
  9
$LIMCHECK
 70
     0
  9
$BLIPMODE
 70
     0
  9
$CHAMFERA
 40
0.0
  9
$CHAMFERB
 40
0.0
  9
$SKPOLY
 70
     0
  9
$TDCREATE
 40
2458060.468368056230247
  9
$TDUPDATE
 40
2460111.6797569449990988
  9
$TDINDWG
 40
0.608571875
  9
$TDUSRTIMER
 40
0.608571875
  9
$USRTIMER
 70
     1
  9
$ANGBASE
 50
0.0
  9
$ANGDIR
 70
     0
  9
$PDMODE
 70
     0
  9
$PDSIZE
 40
0.3125
  9
$PLINEWID
 40
0.0
  9
$COORDS
 70
     1
  9
$SPLFRAME
 70
     0
  9
$SPLINETYPE
 70
     6
  9
$SPLINESEGS
 70
     8
  9
$ATTDIA
 70
     1
  9
$ATTREQ
 70
     1
  9
$HANDLING
 70
     1
  9
$HANDSEED
  5
2348A
  9
$SURFTAB1
 70
     6
  9
$SURFTAB2
 70
     6
  9
$SURFTYPE
 70
     6
  9
$SURFU
 70
     6
  9
$SURFV
 70
     6
  9
$UCSNAME
  2

  9
$UCSORG
 10
0.0
 20
0.0
 30
0.0
  9
$UCSXDIR
 10
1.0
 20
0.0
 30
0.0
  9
$UCSYDIR
 10
0.0
 20
1.0
 30
0.0
  9
$PUCSNAME
  2

  9
$PUCSORG
 10
0.0
 20
0.0
 30
0.0
  9
$PUCSXDIR
 10
1.0
 20
0.0
 30
0.0
  9
$PUCSYDIR
 10
0.0
 20
1.0
 30
0.0
  9
$USERI1
 70
     0
  9
$USERI2
 70
     0
  9
$USERI3
 70
     0
  9
$USERI4
 70
     0
  9
$USERI5
 70
     0
  9
$USERR1
 40
0.0
  9
$USERR2
 40
0.0
  9
$USERR3
 40
0.0
  9
$USERR4
 40
0.0
  9
$USERR5
 40
0.0
  9
$WORLDVIEW
 70
     1
  9
$SHADEDGE
 70
     3
  9
$SHADEDIF
 70
    70
  9
$TILEMODE
 70
     1
  9
$MAXACTVP
 70
    64
  9
$PLIMCHECK
 70
     0
  9
$PEXTMIN
 10
1.0000000000000000E+20
 20
1.0000000000000000E+20
 30
1.0000000000000000E+20
  9
$PEXTMAX
 10
-1.0000000000000000E+20
 20
-1.0000000000000000E+20
 30
-1.0000000000000000E+20
  9
$PLIMMIN
 10
0.0
 20
0.0
  9
$PLIMMAX
 10
12.0
 20
9.0
  9
$UNITMODE
 70
     0
  9
$VISRETAIN
 70
     1
  9
$PLINEGEN
 70
     0
  9
$PSLTSCALE
 70
     1
  0
ENDSEC
  0
SECTION
  2
TABLES
  0
TABLE
  2
VPORT
 70
     1
  0
VPORT
  2
*ACTIVE
 70
     0
 10
0.0
 20
0.0
 11
1.0
 21
1.0
 12
1625.672604646596028
 22
-136.8252919220622061
 13
0.0
 23
0.0
 14
1.0
 24
1.0
 15
0.0
 25
0.0
 16
0.0
 26
0.0
 36
5.1040778033513332
 17
3792.35791015625
 27
120.1806564331053977
 37
0.0
 40
9.1882449688827137
 41
2.8398203592814371
 42
50.0
 43
0.0
 44
0.0
 50
0.0
 51
0.0
 71
     0
 72
   100
 73
     1
 74
     1
 75
     0
 76
     0
 77
     0
 78
     0
  0
ENDTAB
  0
TABLE
  2
LTYPE
 70
     2
  0
LTYPE
  2
CONTINUOUS
 70
     0
  3
Solid line
 72
    65
 73
     0
 40
0.0
  0
LTYPE
  2
PHANTOM2
 70
     0
  3
___ _ _ ___ _ _ ___ _ _ ___ _ _
 72
    65
 73
     6
 40
1.25
 49
0.625
 49
-0.125
 49
0.125
 49
-0.125
 49
0.125
 49
-0.125
  0
ENDTAB
  0
TABLE
  2
LAYER
 70
     2
  0
LAYER
  2
0
 70
     0
 62
   255
  6
CONTINUOUS
  0
LAYER
  2
DEFPOINTS
 70
     0
 62
     7
  6
CONTINUOUS
  0
ENDTAB
  0
TABLE
  2
STYLE
 70
     1
  0
STYLE
  2
STANDARD
 70
     0
 40
0.0
 41
0.8
 50
0.0
 71
     0
 42
0.2
  3
txt
  4

  0
ENDTAB
  0
TABLE
  2
VIEW
 70
     0
  0
ENDTAB
  0
TABLE
  2
UCS
 70
     0
  0
ENDTAB
  0
TABLE
  2
APPID
 70
     9
  0
APPID
  2
ACAD
 70
     0
  0
APPID
  2
ACAD_MLEADERVER
 70
     0
  0
APPID
  2
ACAD_EXEMPT_FROM_CAD_STANDARDS
 70
     0
  0
APPID
  2
ACAD_NAV_VCDISPLAY
 70
     0
  0
APPID
  2
ACAECLAYERSTANDARD
 70
     0
  0
APPID
  2
ACCMTRANSPARENCY
 70
     0
  0
APPID
  2
ACAD_DSTYLE_DIMJAG
 70
     0
  0
APPID
  2
ACAD_DSTYLE_DIMTALN
 70
     0
  0
APPID
  2
ACDBATTR
 70
     0
  0
ENDTAB
  0
TABLE
  2
DIMSTYLE
 70
     1
  0
DIMSTYLE
  2
STANDARD
 70
     0
  3

  4

  5

  6

  7

 40
1.0
 41
0.1875
 42
0.0625
 43
0.38
 44
0.125
 45
0.0
 46
0.0
 47
0.01
 48
0.01
140
0.15625
141
0.09
142
0.0
143
25.3999999999999986
144
1.0
145
0.0
146
1.0
147
0.09
 71
     1
 72
     0
 73
     1
 74
     1
 75
     0
 76
     0
 77
     0
 78
     4
170
     0
171
     2
172
     0
173
     0
174
     0
175
     0
176
     0
177
     0
178
     0
  0
ENDTAB
  0
ENDSEC
  0
SECTION
  2
BLOCKS
  0
BLOCK
  8
0
  2
$MODEL_SPACE
 70
     0
 10
0.0
 20
0.0
 30
0.0
  3
$MODEL_SPACE
  1

  0
ENDBLK
  5
21
  8
0
  0
BLOCK
 67
     1
  8
0
  2
$PAPER_SPACE
 70
     0
 10
0.0
 20
0.0
 30
0.0
  3
$PAPER_SPACE
  1

  0
ENDBLK
  5
1D
 67
     1
  8
0
  0
BLOCK
  8
0
  2
_FILLED
 70
     0
 10
0.0
 20
0.0
 30
0.0
  3
_FILLED
  1

  0
SOLID
  5
1CA7B
  8
0
  6
BYBLOCK
 62
     0
 10
0.0
 20
0.0
 30
0.0
 11
-1.0
 21
0.1666666667
 31
0.0
 12
-1.0
 22
-0.1666666667
 32
0.0
 13
-1.0
 23
-0.1666666667
 33
0.0
  0
ENDBLK
  5
1CA7C
  8
0
  6
BYBLOCK
 62
     0
  0
ENDSEC
  0
SECTION
  2
ENTITIES
  0
ATTDEF
  5
3930
  8
DEFPOINTS
 10
5417.9859145621394418
 20
-13.4627815457303104
 30
0.0
 40
0.001
  1
P40882-LV
  3

  2
MODELNUMBER
 70
     0
1001
ACDBATTR
1070
     0
1070
     1
  0
ATTDEF
  5
3931
  8
DEFPOINTS
 10
5417.9859145621394418
 20
-13.4644482123969702
 30
0.0
 40
0.001
  1
ONE
  3

  2
TRADENAME
 70
     0
1001
ACDBATTR
1070
     0
1070
     1
  0
ATTDEF
  5
3932
  8
DEFPOINTS
 10
5417.9859145621394418
 20
-13.4661148790636407
 30
0.0
 40
0.001
  1
BATHROOM SINK FAUCET
  3

  2
PRODUCT
 70
     0
1001
ACDBATTR
1070
     0
1070
     1
  0
LINE
  5
22C9E
  8
0
 10
5417.4648384294168864
 20
-20.6659340972581091
 30
0.0
 11
5417.4648384294168864
 21
-13.4671700987580998
 31
0.0
  0
LINE
  5
22C9F
  8
0
 10
5413.2678384294158604
 20
-12.9759108339581104
 30
0.0
 11
5410.6029544294160587
 21
-12.9759108339581104
 31
0.0
  0
LINE
  5
22CA0
  8
0
 10
5413.2678384294158604
 20
-13.9584293635581105
 30
0.0
 11
5410.6029544294160587
 21
-13.9584293635581105
 31
0.0
  0
ARC
  5
22CA1
  8
0
 10
5413.2678384294158604
 20
-13.94642936355811
 30
0.0
 40
0.012
 50
270.0
 51
0.0
  0
LINE
  5
22CA2
  8
0
 10
5410.5909544294163425
 20
-12.9879108339581109
 30
0.0
 11
5410.5909544294163425
 21
-13.94642936355811
 31
0.0
  0
ARC
  5
22CA3
  8
0
 10
5410.6029544294160587
 20
-12.9879108339581109
 30
0.0
 40
0.012
 50
90.0
 51
180.0
  0
ARC
  5
22CA4
  8
0
 10
5410.6029544294160587
 20
-13.94642936355811
 30
0.0
 40
0.012
 50
180.0
 51
270.0
  0
LINE
  5
22CA5
  8
0
 10
5413.2798384294173957
 20
-12.9879108339581109
 30
0.0
 11
5413.2798384294173957
 21
-13.94642936355811
 31
0.0
  0
ARC
  5
22CA6
  8
0
 10
5413.2678384294158604
 20
-12.9879108339581109
 30
0.0
 40
0.012
 50
0.0
 51
90.0
  0
ARC
  5
22CA7
  8
0
 10
5412.5119051221481641
 20
-17.0256422698898788
 30
0.0
 40
4.0429040300050421
 50
79.1675651275666468
 51
89.830695077455843
  0
ARC
  5
22CA8
  8
0
 10
5413.2698384294171774
 20
-13.0646004855906206
 30
0.0
 40
0.01
 50
0.0
 51
79.1675651275666468
  0
ARC
  5
22CA9
  8
0
 10
5412.5878674167370264
 20
-17.9420931879611985
 30
0.0
 40
4.9676789655620937
 50
82.0934067831039727
 51
88.5935433989361769
  0
ARC
  5
22CAA
  8
0
 10
5413.2698384294171774
 20
-13.0315437010460897
 30
0.0
 40
0.01
 50
0.0
 51
82.0934067831039158
  0
ARC
  5
22CAB
  8
0
 10
5412.9259563672821969
 20
-16.7557608917448917
 30
0.0
 40
3.7798811563119998
 50
84.7663024814601016
 51
89.7675825390919471
  0
ARC
  5
22CAC
  8
0
 10
5413.2698384294171774
 20
-13.0015966625111101
 30
0.0
 40
0.01
 50
0.0
 51
84.7663024814601016
  0
ARC
  5
22CAD
  8
0
 10
5413.5400211173291609
 20
-5.4378876027913634
 30
0.0
 40
7.5495986858796229
 50
266.8267796333797151
 51
267.9517926883542032
  0
ARC
  5
22CAE
  8
0
 10
5413.2698384294171774
 20
-12.9926565341820108
 30
0.0
 40
0.01
 50
0.0
 51
87.9517926884063002
  0
ARC
  5
22CAF
  8
0
 10
5412.1121248561375978
 20
-18.3430236359466612
 30
0.0
 40
5.3766001430769581
 50
77.541893990569605
 51
85.2742750447323914
  0
ARC
  5
22CB0
  8
0
 10
5413.2698384294171774
 20
-13.1027854373606907
 30
0.0
 40
0.01
 50
0.0
 51
77.5418939905697187
  0
ARC
  5
22CB1
  8
0
 10
5412.051295673558343
 20
-17.6724009704066205
 30
0.0
 40
4.6951838808000002
 50
74.9905251207169528
 51
85.3198714017229634
  0
ARC
  5
22CB2
  8
0
 10
5413.2698384294171774
 20
-13.1277437881446808
 30
0.0
 40
0.01
 50
254.9905251207169954
 51
0.0
  0
ARC
  5
22CB3
  8
0
 10
5411.24435159710265
 20
-20.4857324199065616
 30
0.0
 40
7.5711902750183313
 50
74.461884537592212
 51
81.0293509476452272
  0
ARC
  5
22CB4
  8
0
 10
5413.2698384294171774
 20
-13.2008850318582596
 30
0.0
 40
0.01
 50
0.0000000000024427
 51
74.4618845375919847
  0
ARC
  5
22CB5
  8
0
 10
5411.3817409353850962
 20
-19.0140695688943708
 30
0.0
 40
6.0690390167129351
 50
71.9051228639218607
 51
80.0177680948440724
  0
ARC
  5
22CB6
  8
0
 10
5413.2698384294171774
 20
-13.2356785108445099
 30
0.0
 40
0.01
 50
251.9051228639220028
 51
359.9999999999976126
  0
ARC
  5
22CB7
  8
0
 10
5411.1126972428546651
 20
-20.3277287892992291
 30
0.0
 40
7.3717773619011924
 50
73.0087788938871682
 51
79.6453093197964819
  0
ARC
  5
22CB8
  8
0
 10
5413.2698384294171774
 20
-13.2681693893143606
 30
0.0
 40
0.01
 50
253.0087788938870972
 51
0.0
  0
ARC
  5
22CB9
  8
0
 10
5409.4142969703498238
 20
-25.5196028378603401
 30
0.0
 40
12.8056260544552494
 50
72.4632691586384539
 51
76.4408245084907207
  0
ARC
  5
22CBA
  8
0
 10
5413.2698384294171774
 20
-13.3186665548173
 30
0.0
 40
0.01
 50
0.0
 51
72.4632691586376154
  0
ARC
  5
22CBB
  8
0
 10
5410.0762847401420004
 20
-39.0146859517254398
 30
0.0
 40
26.0214568254180811
 50
84.7974375665719577
 51
88.844224763802913
  0
ARC
  5
22CBC
  8
0
 10
5410.6009544294156512
 20
-13.0085211460924199
 30
0.0
 40
0.01
 50
88.844224763802913
 51
180.0
  0
ARC
  5
22CBD
  8
0
 10
5412.434928704655249
 20
-13.1103873735115393
 30
0.0
 40
0.01
 50
75.7009730709003179
 51
84.7974375665719577
  0
ARC
  5
22CBE
  8
0
 10
5410.2761304930318147
 20
-21.5802911623228617
 30
0.0
 40
8.7506910430599731
 50
70.0182675803632435
 51
75.7009730709004032
  0
ARC
  5
22CBF
  8
0
 10
5413.2698384294171774
 20
-13.3469795355483303
 30
0.0
 40
0.01
 50
250.0182675803631867
 51
359.9999999999976126
  0
ARC
  5
22CC0
  8
0
 10
5409.839807479065712
 20
-48.9053113443389194
 30
0.0
 40
35.9270803711498417
 50
85.8897030641500976
 51
88.7857094106837934
  0
ARC
  5
22CC1
  8
0
 10
5410.6009544294156512
 20
-12.9962969091360208
 30
0.0
 40
0.01
 50
88.7857094106837934
 51
180.0
  0
ARC
  5
22CC2
  8
0
 10
5412.4142252262709007
 20
-13.0806126624167707
 30
0.0
 40
0.01
 50
76.4408245084908202
 51
85.8897030642021804
  0
ARC
  5
22CC3
  8
0
 10
5410.3920406396109684
 20
-51.457322528805193
 30
0.0
 40
38.4744162833175594
 50
87.6499447630111206
 51
89.6888049151112057
  0
ARC
  5
22CC4
  8
0
 10
5410.6009544294156512
 20
-12.9934735918517497
 30
0.0
 40
0.01
 50
89.6888049151112057
 51
180.0
  0
ARC
  5
22CC5
  8
0
 10
5410.2124196474151177
 20
-55.8341357682804329
 30
0.0
 40
42.8549137247143079
 50
87.0304211891479014
 51
87.6499447630111206
  0
ARC
  5
22CC6
  8
0
 10
5412.4320315351687896
 20
-13.0467549750378105
 30
0.0
 40
0.01
 50
80.0177680948440724
 51
87.0304211890958186
  0
ARC
  5
22CC7
  8
0
 10
5410.7980922934511909
 20
-54.4341707339352965
 30
0.0
 40
41.459019246023999
 50
87.7527897927212166
 51
89.6532243062944048
  0
ARC
  5
22CC8
  8
0
 10
5412.4233565094509686
 20
-13.0170279946605891
 30
0.0
 40
0.01
 50
81.0293509476451561
 51
87.7527897927211882
  0
ARC
  5
22CC9
  8
0
 10
5411.5626164441191577
 20
-50.9690556982809184
 30
0.0
 40
37.9862057044506116
 50
88.6858476413337939
 51
89.946828384519705
  0
ARC
  5
22CCA
  8
0
 10
5412.4335731723631397
 20
-13.0028386878349806
 30
0.0
 40
0.01
 50
85.3198714017229634
 51
88.6858476413337939
  0
ARC
  5
22CCB
  8
0
 10
5412.2808422852958756
 20
-17.135513719842919
 30
0.0
 40
4.1598619106201991
 50
86.220032630675135
 51
89.3606023348126257
  0
ARC
  5
22CCC
  8
0
 10
5409.9565225167643803
 20
-23.2166986735054799
 30
0.0
 40
10.36523189649035
 50
71.3764636755544188
 51
76.199766895303668
  0
ARC
  5
22CCD
  8
0
 10
5413.2698384294171774
 20
-13.3847418708689592
 30
0.0
 40
0.01
 50
251.3764636755537936
 51
0.0
  0
ARC
  5
22CCE
  8
0
 10
5412.4266326986216882
 20
-13.1603880518325997
 30
0.0
 40
0.01
 50
76.1997668953040659
 51
85.8537033653182959
  0
ARC
  5
22CCF
  8
0
 10
5407.7218573810905582
 20
-28.6743132686343714
 30
0.0
 40
16.205222237337459
 50
69.9922973101645738
 51
73.1604270869465552
  0
ARC
  5
22CD0
  8
0
 10
5413.2698384294171774
 20
-13.4377343057020404
 30
0.0
 40
0.01
 50
249.9922973101654122
 51
0.0
  0
ARC
  5
22CD1
  8
0
 10
5412.413498716250615
 20
-13.1735479682056393
 30
0.0
 40
0.01
 50
73.1604270869459725
 51
84.2968466545296309
  0
ARC
  5
22CD2
  8
0
 10
5402.6377229686167993
 20
-148.1926485731175092
 30
0.0
 40
135.3966098814439931
 50
85.8537033653705492
 51
86.628004461553644
  0
ARC
  5
22CD3
  8
0
 10
5410.6009544294156512
 20
-13.0404340892546298
 30
0.0
 40
0.01
 50
86.628004461501618
 51
180.0
  0
ARC
  5
22CD4
  8
0
 10
5409.0696478979070889
 20
-46.6559668885548717
 30
0.0
 40
33.6589779198878603
 50
84.2968466545294177
 51
85.559615210417661
  0
ARC
  5
22CD5
  8
0
 10
5407.4998903627038089
 20
-63.1787520936726423
 30
0.0
 40
50.2199315208421169
 50
84.3612460403033566
 51
86.4590464099364056
  0
ARC
  5
22CD6
  8
0
 10
5410.6009544294156512
 20
-13.0646759774576395
 30
0.0
 40
0.01
 50
86.4590464099884741
 51
180.0
  0
ARC
  5
22CD7
  8
0
 10
5406.7058003485863082
 20
-31.0967908401586683
 30
0.0
 40
18.7897272776589794
 50
69.564297363779346
 51
72.242791057774383
  0
ARC
  5
22CD8
  8
0
 10
5413.2698384294171774
 20
-13.4802318745784895
 30
0.0
 40
0.01
 50
249.5642973637785076
 51
0.0
  0
ARC
  5
22CD9
  8
0
 10
5412.4333190747001936
 20
-13.2117779560356894
 30
0.0
 40
0.01
 50
72.2427910577740136
 51
84.3612460403032003
  0
ARC
  5
22CDA
  8
0
 10
5421.212715158330866
 20
103.4517361504945967
 30
0.0
 40
117.0398346765690007
 50
264.7984113006108942
 51
265.6938293309373194
  0
ARC
  5
22CDB
  8
0
 10
5410.6009544294156512
 20
-13.1160738660121599
 30
0.0
 40
0.01
 50
84.7984113009774916
 51
180.0
  0
ARC
  5
22CDC
  8
0
 10
5402.6055400518062015
 20
-45.6651914647663801
 30
0.0
 40
33.8626119520794475
 50
71.6491208070787593
 51
73.1400994854589328
  0
ARC
  5
22CDD
  8
0
 10
5413.2698384294171774
 20
-13.5151280034067298
 30
0.0
 40
0.01
 50
251.6491208070792993
 51
0.0
  0
ARC
  5
22CDE
  8
0
 10
5412.4238970236892783
 20
-13.2676730050025196
 30
0.0
 40
0.01
 50
73.1400994854584638
 51
85.6938293310419965
  0
ARC
  5
22CDF
  8
0
 10
5468.6702117256636484
 20
144.3228578938015119
 30
0.0
 40
167.3409609069854014
 50
250.3566273979513994
 51
250.6655005849451072
  0
ARC
  5
22CE0
  8
0
 10
5413.2698384294171774
 20
-13.57093272727246
 30
0.0
 40
0.01
 50
250.6655005847223094
 51
0.0
  0
ARC
  5
22CE1
  8
0
 10
5412.4127418756934276
 20
-13.2888206156637096
 30
0.0
 40
0.01
 50
70.3566273982808923
 51
83.9018697777956675
  0
ARC
  5
22CE2
  8
0
 10
5404.3009068462652067
 20
-89.2166217680818079
 30
0.0
 40
76.3698903573453123
 50
83.9018697777955822
 51
84.8130436783977188
  0
ARC
  5
22CE3
  8
0
 10
5404.2410856881133441
 20
-86.8235073878727661
 30
0.0
 40
73.9555407025904543
 50
83.6395490590367103
 51
85.0660392816539854
  0
ARC
  5
22CE4
  8
0
 10
5410.6009544294156512
 20
-13.1519724548210792
 30
0.0
 40
0.01
 50
85.0660392816019169
 51
180.0
  0
ARC
  5
22CE5
  8
0
 10
5450.5048654355823601
 20
91.582236649794595
 30
0.0
 40
111.5995947999801956
 50
250.0550878202280956
 51
250.5078135285899066
  0
ARC
  5
22CE6
  8
0
 10
5413.2698384294171774
 20
-13.6118241686466899
 30
0.0
 40
0.01
 50
250.507813528312596
 51
359.9999999999976126
  0
ARC
  5
22CE7
  8
0
 10
5412.4329905435506589
 20
-13.3331292106045201
 30
0.0
 40
0.01
 50
70.0550878204542471
 51
83.6395490589843575
  0
ARC
  5
22CE8
  8
0
 10
5407.8803349676363723
 20
-50.1287408266479773
 30
0.0
 40
37.0375923995075169
 50
82.9500503944429255
 51
85.7886478124237044
  0
ARC
  5
22CE9
  8
0
 10
5410.6009544294156512
 20
-13.1811788997193293
 30
0.0
 40
0.01
 50
180.0000000000023874
 51
265.788647812423676
  0
ARC
  5
22CEA
  8
0
 10
5401.3790413765618723
 20
-48.0063111954537831
 30
0.0
 40
36.3544171096956106
 50
70.9138239541155144
 51
72.3066929646924024
  0
ARC
  5
22CEB
  8
0
 10
5413.2698384294171774
 20
-13.6409248717741995
 30
0.0
 40
0.01
 50
250.9138239541146902
 51
0.0
  0
ARC
  5
22CEC
  8
0
 10
5412.4249011138972492
 20
-13.3810944061447703
 30
0.0
 40
0.01
 50
72.3066929646922745
 51
82.9500503944430818
  0
ARC
  5
22CED
  8
0
 10
5408.5204048453397263
 20
-41.0772963752511018
 30
0.0
 40
27.94132527274515
 50
81.9880539609200838
 51
85.7281933104569163
  0
ARC
  5
22CEE
  8
0
 10
5410.6009544294156512
 20
-13.2235669136495506
 30
0.0
 40
0.01
 50
85.7281933104569589
 51
180.0000000000023874
  0
ARC
  5
22CEF
  8
0
 10
5419.5921865476248058
 20
5.6539017466808721
 30
0.0
 40
20.3687813181304485
 50
249.3741017868645997
 51
251.9078322910671943
  0
ARC
  5
22CF0
  8
0
 10
5413.2698384294171774
 20
-13.6983046141357203
 30
0.0
 40
0.01
 50
251.9078322910168026
 51
0.0
  0
ARC
  5
22CF1
  8
0
 10
5412.4134608553822545
 20
-13.4186079321132503
 30
0.0
 40
0.01
 50
69.3741017869233474
 51
81.9880539609199133
  0
ARC
  5
22CF2
  8
0
 10
5399.7673404446277345
 20
-120.0126214370381064
 30
0.0
 40
107.3075483671210009
 50
83.2208476356141773
 51
84.2061713362866016
  0
ARC
  5
22CF3
  8
0
 10
5410.6009544294156512
 20
-13.2432953383970595
 30
0.0
 40
0.01
 50
180.0
 51
264.2061713362862747
  0
ARC
  5
22CF4
  8
0
 10
5417.3854798767351895
 20
-0.4201445731811973
 30
0.0
 40
13.9435415293427507
 50
249.2111931186084064
 51
252.8198815840399902
  0
ARC
  5
22CF5
  8
0
 10
5413.2698384294171774
 20
-13.7319842291803997
 30
0.0
 40
0.01
 50
252.8198815839853069
 51
0.0
  0
ARC
  5
22CF6
  8
0
 10
5412.4330284828829463
 20
-13.4652412153157996
 30
0.0
 40
0.01
 50
69.2111931186079516
 51
83.2208476356146036
  0
ARC
  5
22CF7
  8
0
 10
5391.8281792875486644
 20
-206.003065078926511
 30
0.0
 40
193.6193552622692096
 50
83.8929656251739146
 51
84.4363136057818338
  0
ARC
  5
22CF8
  8
0
 10
5410.6009544294156512
 20
-13.2858885409880507
 30
0.0
 40
0.01
 50
180.0
 51
264.4363136058343002
  0
ARC
  5
22CF9
  8
0
 10
5423.8341965881372744
 20
21.2717803909266507
 30
0.0
 40
36.5783903172291218
 50
251.8315944374529067
 51
253.2082967397801099
  0
ARC
  5
22CFA
  8
0
 10
5413.2698384294171774
 20
-13.7373827965519393
 30
0.0
 40
0.01
 50
253.2082967398322069
 51
0.0
  0
ARC
  5
22CFB
  8
0
 10
5412.4255328860526788
 20
-13.4924641505366001
 30
0.0
 40
0.01
 50
71.8315944375638651
 51
83.8929656251215476
  0
ARC
  5
22CFC
  8
0
 10
5407.767372521661855
 20
-46.308730308215992
 30
0.0
 40
33.094152157368292
 50
81.9268077296282655
 51
85.0867281847280452
  0
ARC
  5
22CFD
  8
0
 10
5410.6009544294156512
 20
-13.3461464054946592
 30
0.0
 40
0.01
 50
85.0867281846759766
 51
180.0
  0
ARC
  5
22CFE
  8
0
 10
5415.5603140735356646
 20
-5.1552664246494251
 30
0.0
 40
8.9574064931217681
 50
249.4575832190357971
 51
255.1675523104422041
  0
ARC
  5
22CFF
  8
0
 10
5413.2698384294171774
 20
-13.8045325366878195
 30
0.0
 40
0.01
 50
255.1675523103899934
 51
0.0
  0
ARC
  5
22D00
  8
0
 10
5412.4136447203045464
 20
-13.5524594791363295
 30
0.0
 40
0.01
 50
69.4575832190354134
 51
81.9268077295764954
  0
ARC
  5
22D01
  8
0
 10
5340.7922982419768232
 20
-637.883252706096755
 30
0.0
 40
628.3922277016532689
 50
83.453577371140625
 51
83.6218971148847459
  0
ARC
  5
22D02
  8
0
 10
5410.6009544294156512
 20
-13.3705536344888802
 30
0.0
 40
0.01
 50
180.0
 51
263.621897115146794
  0
ARC
  5
22D03
  8
0
 10
5415.0880943404536083
 20
-6.3610283526783169
 30
0.0
 40
7.6988272466519554
 50
249.853624164241495
 51
256.3211045513186832
  0
ARC
  5
22D04
  8
0
 10
5413.2698384294171774
 20
-13.8317719482540404
 30
0.0
 40
0.01
 50
256.3211045512665009
 51
0.0
  0
ARC
  5
22D05
  8
0
 10
5412.433022410024023
 20
-13.5981970368371599
 30
0.0
 40
0.01
 50
69.8536241642958657
 51
83.4535773710880449
  0
ARC
  5
22D06
  8
0
 10
5406.712313690443807
 20
-61.7439698729153577
 30
0.0
 40
48.4853516452780582
 50
83.2251567632096254
 51
85.4007518249830468
  0
ARC
  5
22D07
  8
0
 10
5410.6009544294156512
 20
-13.4047766193826394
 30
0.0
 40
0.01
 50
179.9999999999974989
 51
265.4007518250351723
  0
ARC
  5
22D08
  8
0
 10
5414.7616045081558696
 20
-7.1432088871346187
 30
0.0
 40
6.8612677369705342
 50
250.1717025259945899
 51
256.6926062475189951
  0
ARC
  5
22D09
  8
0
 10
5412.430852867262729
 20
-13.6071022264165098
 30
0.0
 40
0.01
 50
70.1717025259974605
 51
83.225156763209327
  0
ARC
  5
22D0A
  8
0
 10
5443.7198940928537922
 20
301.3201692773890841
 30
0.0
 40
316.4998199176104094
 50
263.9936921083261154
 51
264.32458067751719
  0
ARC
  5
22D0B
  8
0
 10
5410.6009544294156512
 20
-13.4521324580840602
 30
0.0
 40
0.01
 50
83.9936921097933009
 51
180.0
  0
ARC
  5
22D0C
  8
0
 10
5414.7238469265448657
 20
-6.3857349366146181
 30
0.0
 40
7.5997472775618027
 50
252.3719411633809102
 51
258.9552658399086909
  0
ARC
  5
22D0D
  8
0
 10
5413.2698384294171774
 20
-13.8349042210070596
 30
0.0
 40
0.01
 50
258.9552658399081793
 51
0.0
  0
ARC
  5
22D0E
  8
0
 10
5412.4193365526452908
 20
-13.6381473328413492
 30
0.0
 40
0.01
 50
72.3719411633814644
 51
84.3245806774650646
  0
ARC
  5
22D0F
  8
0
 10
5435.8142860796597233
 20
205.3281654933419986
 30
0.0
 40
220.2451502374831023
 50
263.4267538451426276
 51
263.9009256408476745
  0
ARC
  5
22D10
  8
0
 10
5410.6009544294156512
 20
-13.4790992700360999
 30
0.0
 40
0.01
 50
83.4267538451422155
 51
180.0
  0
ARC
  5
22D11
  8
0
 10
5414.3074612983537008
 20
-8.1911153111491188
 30
0.0
 40
5.7969971043449453
 50
250.9554075007634992
 51
259.6708667567609155
  0
ARC
  5
22D12
  8
0
 10
5413.2698384294171774
 20
-13.8843283115167502
 30
0.0
 40
0.01
 50
259.6708667567605744
 51
0.0
  0
ARC
  5
22D13
  8
0
 10
5412.4126152660373918
 20
-13.6802658723636998
 30
0.0
 40
0.01
 50
70.955407500762206
 51
83.9009256410576256
  0
ARC
  5
22D14
  8
0
 10
5432.4485345357361439
 20
180.2322291747676957
 30
0.0
 40
194.974457426897601
 50
263.5659613083188901
 51
264.1081892401111872
  0
ARC
  5
22D15
  8
0
 10
5410.6009544294156512
 20
-13.5042488134070293
 30
0.0
 40
0.01
 50
180.0
 51
263.5659613077418726
  0
ARC
  5
22D16
  8
0
 10
5414.0991176898351114
 20
-8.6509636236391216
 30
0.0
 40
5.3278447516165039
 50
251.8156677082891122
 51
261.0285240652552261
  0
ARC
  5
22D17
  8
0
 10
5413.2698384294171774
 20
-13.9037503802603197
 30
0.0
 40
0.01
 50
261.0285240652034986
 51
0.0
  0
ARC
  5
22D18
  8
0
 10
5412.4333090734935467
 20
-13.7222226631761401
 30
0.0
 40
0.01
 50
71.8156677083400865
 51
84.1081892403206837
  0
ARC
  5
22D19
  8
0
 10
5418.8589736874127993
 20
60.5230456155196279
 30
0.0
 40
74.5187703534410133
 50
263.6366721487423206
 51
265.0513516874491984
  0
ARC
  5
22D1A
  8
0
 10
5410.6009544294156512
 20
-13.5266807682851393
 30
0.0
 40
0.01
 50
180.0
 51
263.6366721487423774
  0
ARC
  5
22D1B
  8
0
 10
5413.9382138929822759
 20
-8.9439341644419414
 30
0.0
 40
5.0061170620849929
 50
252.500841079867314
 51
257.4660441413860781
  0
ARC
  5
22D1C
  8
0
 10
5412.429908628200792
 20
-13.7279121753423006
 30
0.0
 40
0.01
 50
72.5008410798680956
 51
85.0513516875014659
  0
ARC
  5
22D1D
  8
0
 10
5422.8520170504089037
 20
106.7717953151783945
 30
0.0
 40
120.9575249107130048
 50
264.187368194075475
 51
265.0527449158408899
  0
ARC
  5
22D1E
  8
0
 10
5410.6009544294156512
 20
-13.5737635878425902
 30
0.0
 40
0.01
 50
84.1873681940751055
 51
180.0
  0
ARC
  5
22D1F
  8
0
 10
5414.3093296283714153
 20
-6.9239490946324329
 30
0.0
 40
7.0679532073047211
 50
254.5177555723554121
 51
261.530702736495698
  0
ARC
  5
22D20
  8
0
 10
5413.2698384294171774
 20
-13.9049348075384405
 30
0.0
 40
0.01
 50
261.5307027364959254
 51
0.0
  0
ARC
  5
22D21
  8
0
 10
5412.4199426343257073
 20
-13.7450661872739293
 30
0.0
 40
0.01
 50
74.5177555723556679
 51
85.0527449159977067
  0
ARC
  5
22D22
  8
0
 10
5420.8836108123923623
 20
79.8585610614906187
 30
0.0
 40
94.0113006273899856
 50
263.7212777690954226
 51
264.838800156410116
  0
ARC
  5
22D23
  8
0
 10
5410.6009544294156512
 20
-13.5987658282493307
 30
0.0
 40
0.01
 50
83.72127776909538
 51
180.0
  0
ARC
  5
22D24
  8
0
 10
5413.6853964902693406
 20
-9.5321012286085818
 30
0.0
 40
4.422234186814503
 50
253.4872454902275933
 51
264.5956937408427052
  0
ARC
  5
22D25
  8
0
 10
5413.2698384294171774
 20
-13.9247225436498905
 30
0.0
 40
0.01
 50
264.5956937408425915
 51
0.0
  0
ARC
  5
22D26
  8
0
 10
5412.4256279800338234
 20
-13.7815345069868798
 30
0.0
 40
0.01
 50
73.4872454902282612
 51
84.8388001565668191
  0
ARC
  5
22D27
  8
0
 10
5417.3095089728840321
 20
50.3530871461892033
 30
0.0
 40
64.3559963368309127
 50
264.0156087059124843
 51
265.655308579980499
  0
ARC
  5
22D28
  8
0
 10
5410.6009544294156512
 20
-13.6422450313749106
 30
0.0
 40
0.01
 50
180.0
 51
264.0156087058605863
  0
ARC
  5
22D29
  8
0
 10
5413.5038352209858203
 20
-9.8425844402134999
 30
0.0
 40
4.116620150662575
 50
254.965178523154691
 51
266.7334952796908283
  0
ARC
  5
22D2A
  8
0
 10
5413.2698384294171774
 20
-13.9425325573685104
 30
0.0
 40
0.01
 50
266.7334952796908283
 51
0.0
  0
ARC
  5
22D2B
  8
0
 10
5412.4333650368371309
 20
-13.8279435774434791
 30
0.0
 40
0.01
 50
74.9651785231542647
 51
85.6553085801893843
  0
ARC
  5
22D2C
  8
0
 10
5416.9960652325898991
 20
55.6231928002440128
 30
0.0
 40
69.5958254708115334
 50
264.7284538463799208
 51
266.2249886671160084
  0
ARC
  5
22D2D
  8
0
 10
5410.6009544294156512
 20
-13.6882312025003703
 30
0.0
 40
0.01
 50
84.7284538464324157
 51
180.0
  0
ARC
  5
22D2E
  8
0
 10
5415.7679166903908481
 20
1.831496129790039
 30
0.0
 40
16.0083088337038895
 50
257.9114317960620042
 51
259.1828894280286022
  0
ARC
  5
22D2F
  8
0
 10
5412.4133068869850831
 20
-13.8316073608597101
 30
0.0
 40
0.01
 50
77.9114317960624732
 51
86.2249886673771044
  0
ARC
  5
22D30
  8
0
 10
5416.5725157171391402
 20
47.348905697835967
 30
0.0
 40
61.3511312715433377
 50
264.4152326654515264
 51
266.1226218317639791
  0
ARC
  5
22D31
  8
0
 10
5410.6009544294156512
 20
-13.7209631960019305
 30
0.0
 40
0.01
 50
84.4152326654512848
 51
180.0
  0
ARC
  5
22D32
  8
0
 10
5413.2640708194940089
 20
-9.9904948261153663
 30
0.0
 40
3.9613222677384532
 50
257.7757875387947024
 51
269.9009689685573221
  0
ARC
  5
22D33
  8
0
 10
5412.4231916960779927
 20
-13.8717733337774298
 30
0.0
 40
0.01
 50
77.7757875387948729
 51
86.1226218319205969
  0
ARC
  5
22D34
  8
0
 10
5418.8722068084189232
 20
88.7052767366160282
 30
0.0
 40
102.8050435614013054
 50
265.384789884691827
 51
266.410307737961773
  0
ARC
  5
22D35
  8
0
 10
5410.6009544294156512
 20
-13.7564593645902509
 30
0.0
 40
0.01
 50
180.0
 51
265.3847898843260964
  0
ARC
  5
22D36
  8
0
 10
5413.1206076468679385
 20
-10.0641837781539003
 30
0.0
 40
3.894551130697768
 50
259.8847658803480272
 51
269.2822890637656883
  0
ARC
  5
22D37
  8
0
 10
5412.4348572469589271
 20
-13.9080445874519594
 30
0.0
 40
0.01
 50
79.8847658803480982
 51
86.4103077378571953
  0
ARC
  5
22D38
  8
0
 10
5414.2353820838770844
 20
33.1043038222739767
 30
0.0
 40
47.0724118433606975
 50
265.5708835110984865
 51
267.7825598958975206
  0
ARC
  5
22D39
  8
0
 10
5410.6009544294156512
 20
-13.8175625529949997
 30
0.0
 40
0.01
 50
180.0
 51
265.5708835108895869
  0
ARC
  5
22D3A
  8
0
 10
5412.8577172371606139
 20
-10.1350596276478608
 30
0.0
 40
3.823596242136905
 50
263.3484848356525276
 51
269.3763458253756085
  0
ARC
  5
22D3B
  8
0
 10
5412.4136708086289218
 20
-13.9428520218094008
 30
0.0
 40
0.01
 50
83.3484848356526271
 51
87.782559895845381
  0
ARC
  5
22D3C
  8
0
 10
5413.6507663213433261
 20
31.2083017072249511
 30
0.0
 40
45.1707350764446289
 50
266.1277325469121138
 51
268.4476004475571926
  0
ARC
  5
22D3D
  8
0
 10
5410.6009544294156512
 20
-13.84933516011065
 30
0.0
 40
0.01
 50
180.0
 51
266.1277325468075787
  0
ARC
  5
22D3E
  8
0
 10
5412.8182054527778746
 20
-8.6174801220256043
 30
0.0
 40
5.3427023566920733
 50
265.806270455077879
 51
268.5321751397980847
  0
ARC
  5
22D3F
  8
0
 10
5412.4267674117900242
 20
-13.9558505456103408
 30
0.0
 40
0.01
 50
85.8062704550779358
 51
88.4476004476094175
  0
ARC
  5
22D40
  8
0
 10
5412.7574035293109773
 20
27.8798089689773683
 30
0.0
 40
41.8397312912245383
 50
267.0449194132526145
 51
269.5159743535484722
  0
ARC
  5
22D41
  8
0
 10
5410.6009544294156512
 20
-13.89429960530118
 30
0.0
 40
0.01
 50
180.0000000000023874
 51
267.0449194132526145
  0
ARC
  5
22D42
  8
0
 10
5412.4057520378692061
 20
31.3671471970423603
 30
0.0
 40
45.3271153614543394
 50
267.7175369530735907
 51
269.5278814902778777
  0
ARC
  5
22D43
  8
0
 10
5410.6009544294156512
 20
-13.9140150039865294
 30
0.0
 40
0.01
 50
180.0000000000023874
 51
267.7175369529172144
  0
ARC
  5
22D44
  8
0
 10
5411.5014413309254451
 20
26.4568264649114901
 30
0.0
 40
40.4155211204896716
 50
268.7229871212044259
 51
269.7924007072518862
  0
ARC
  5
22D45
  8
0
 10
5410.6009544294156512
 20
-13.9386591783945999
 30
0.0
 40
0.01
 50
179.9999999999974989
 51
268.7229871211521868
  0
ARC
  5
22D46
  8
0
 10
5413.9948384294166317
 20
-13.4671700987580998
 30
0.0
 40
1.375
 50
200.9332123774831871
 51
159.0667876225168129
  0
ARC
  5
22D47
  8
0
 10
5413.9948384294166317
 20
-13.4671700987580998
 30
0.0
 40
0.4909999999999997
 50
270.0
 51
90.0
  0
LINE
  5
22D48
  8
0
 10
5413.2938384294157004
 20
-12.9761700987581001
 30
0.0
 11
5413.9948384294166317
 21
-12.9761700987581001
 31
0.0
  0
LINE
  5
22D49
  8
0
 10
5413.2938384294157004
 20
-13.9581700987580994
 30
0.0
 11
5413.9948384294166317
 21
-13.9581700987580994
 31
0.0
  0
ARC
  5
22D4A
  8
0
 10
5413.2938384294157004
 20
-12.9901700987580995
 30
0.0
 40
0.014
 50
90.0
 51
180.0000000000146088
  0
ARC
  5
22D4B
  8
0
 10
5413.2938384294157004
 20
-13.9441700987581108
 30
0.0
 40
0.014
 50
180.0
 51
270.0
  0
ARC
  5
22D4C
  8
0
 10
5413.9948384294166317
 20
-13.4671700987580998
 30
0.0
 40
0.5109999999999997
 50
253.9169305022024901
 51
106.0830694977974957
  0
ARC
  5
22D4D
  8
0
 10
5417.9948384294157222
 20
-13.4671700987580998
 30
0.0
 40
1.375
 50
292.6719618962014806
 51
247.328038103798491
  0
ARC
  5
22D4E
  8
0
 10
5417.9948384294157222
 20
-13.4671700987580998
 30
0.0
 40
0.5299999999999994
 50
0.0
 51
180.0
  0
ARC
  5
22D4F
  8
0
 10
5417.9948384294157222
 20
-20.6261450658581111
 30
0.0
 40
0.5300000000000012
 50
180.0
 51
0.0
  0
ARC
  5
22D50
  8
0
 10
5417.9948384294157222
 20
-20.6659340972581091
 30
0.0
 40
0.5299999999999994
 50
180.0
 51
0.0
  0
LINE
  5
22D51
  8
0
 10
5418.524838429416377
 20
-20.6659340972581091
 30
0.0
 11
5418.524838429416377
 21
-13.4671700987580998
 31
0.0
  0
LINE
  5
22D52
  8
0
 10
5422.7218384294174029
 20
-12.9759108339581104
 30
0.0
 11
5425.3867224294162952
 21
-12.9759108339581104
 31
0.0
  0
LINE
  5
22D53
  8
0
 10
5422.7218384294174029
 20
-13.9584293635581105
 30
0.0
 11
5425.3867224294162952
 21
-13.9584293635581105
 31
0.0
  0
ARC
  5
22D54
  8
0
 10
5422.7218384294174029
 20
-13.94642936355811
 30
0.0
 40
0.012
 50
180.0
 51
270.0
  0
LINE
  5
22D55
  8
0
 10
5425.3987224294169209
 20
-12.9879108339581109
 30
0.0
 11
5425.3987224294169209
 21
-13.94642936355811
 31
0.0
  0
ARC
  5
22D56
  8
0
 10
5425.3867224294162952
 20
-12.9879108339581109
 30
0.0
 40
0.012
 50
0.0
 51
90.0
  0
ARC
  5
22D57
  8
0
 10
5425.3867224294162952
 20
-13.94642936355811
 30
0.0
 40
0.012
 50
270.0
 51
0.0
  0
LINE
  5
22D58
  8
0
 10
5422.7098384294158677
 20
-12.9879108339581109
 30
0.0
 11
5422.7098384294158677
 21
-13.94642936355811
 31
0.0
  0
ARC
  5
22D59
  8
0
 10
5422.7218384294174029
 20
-12.9879108339581109
 30
0.0
 40
0.012
 50
90.0
 51
180.0
  0
ARC
  5
22D5A
  8
0
 10
5423.4777717366850993
 20
-17.0256422698898788
 30
0.0
 40
4.0429040300050421
 50
90.169304922544157
 51
100.8324348724332964
  0
ARC
  5
22D5B
  8
0
 10
5422.719838429416086
 20
-13.0646004855906206
 30
0.0
 40
0.01
 50
100.8324348724331969
 51
180.0
  0
ARC
  5
22D5C
  8
0
 10
5423.4018094420953275
 20
-17.9420931879611985
 30
0.0
 40
4.9676789655620937
 50
91.4064566010638373
 51
97.9065932168960416
  0
ARC
  5
22D5D
  8
0
 10
5422.719838429416086
 20
-13.0315437010460897
 30
0.0
 40
0.01
 50
97.9065932168960842
 51
180.0
  0
ARC
  5
22D5E
  8
0
 10
5423.0637204915510665
 20
-16.7557608917448917
 30
0.0
 40
3.7798811563119998
 50
90.2324174609080529
 51
95.2336975185399268
  0
ARC
  5
22D5F
  8
0
 10
5422.719838429416086
 20
-13.0015966625111101
 30
0.0
 40
0.01
 50
95.2336975185398842
 51
180.0
  0
ARC
  5
22D60
  8
0
 10
5422.4496557415041025
 20
-5.4378876027913634
 30
0.0
 40
7.5495986858796229
 50
272.0482073116457968
 51
273.1732203666202849
  0
ARC
  5
22D61
  8
0
 10
5422.719838429416086
 20
-12.9926565341820108
 30
0.0
 40
0.01
 50
92.0482073115937141
 51
180.0
  0
ARC
  5
22D62
  8
0
 10
5423.8775520026956656
 20
-18.3430236359466612
 30
0.0
 40
5.3766001430769581
 50
94.7257249552676512
 51
102.458106009430395
  0
ARC
  5
22D63
  8
0
 10
5422.719838429416086
 20
-13.1027854373606907
 30
0.0
 40
0.01
 50
102.4581060094302956
 51
180.0
  0
ARC
  5
22D64
  8
0
 10
5423.9383811852749204
 20
-17.6724009704066205
 30
0.0
 40
4.6951838808000002
 50
94.6801285982770224
 51
105.0094748792830046
  0
ARC
  5
22D65
  8
0
 10
5422.719838429416086
 20
-13.1277437881446808
 30
0.0
 40
0.01
 50
180.0
 51
285.0094748792828909
  0
ARC
  5
22D66
  8
0
 10
5424.7453252617306134
 20
-20.4857324199065616
 30
0.0
 40
7.5711902750183313
 50
98.9706490523547728
 51
105.5381154624078022
  0
ARC
  5
22D67
  8
0
 10
5422.719838429416086
 20
-13.2008850318582596
 30
0.0
 40
0.01
 50
105.5381154624080011
 51
179.9999999999974989
  0
ARC
  5
22D68
  8
0
 10
5424.6079359234481672
 20
-19.0140695688943708
 30
0.0
 40
6.0690390167129351
 50
99.9822319051559276
 51
108.0948771360780967
  0
ARC
  5
22D69
  8
0
 10
5422.719838429416086
 20
-13.2356785108445099
 30
0.0
 40
0.01
 50
180.0000000000023874
 51
288.0948771360779119
  0
ARC
  5
22D6A
  8
0
 10
5424.8769796159776888
 20
-20.3277287892992291
 30
0.0
 40
7.3717773619011924
 50
100.3546906802035039
 51
106.9912211061128033
  0
ARC
  5
22D6B
  8
0
 10
5422.719838429416086
 20
-13.2681693893143606
 30
0.0
 40
0.01
 50
180.0
 51
286.9912211061130165
  0
ARC
  5
22D6C
  8
0
 10
5426.5753798884834396
 20
-25.5196028378603401
 30
0.0
 40
12.8056260544552494
 50
103.5591754915092935
 51
107.5367308413615035
  0
ARC
  5
22D6D
  8
0
 10
5422.719838429416086
 20
-13.3186665548173
 30
0.0
 40
0.01
 50
107.5367308413623988
 51
180.0
  0
ARC
  5
22D6E
  8
0
 10
5425.9133921186903535
 20
-39.0146859517254398
 30
0.0
 40
26.0214568254180811
 50
91.155775236197087
 51
95.2025624334280565
  0
ARC
  5
22D6F
  8
0
 10
5425.3887224294167027
 20
-13.0085211460924199
 30
0.0
 40
0.01
 50
0.0
 51
91.155775236197087
  0
ARC
  5
22D70
  8
0
 10
5423.5547481541771049
 20
-13.1103873735115393
 30
0.0
 40
0.01
 50
95.2025624334280565
 51
104.2990269290996963
  0
ARC
  5
22D71
  8
0
 10
5425.7135463658014487
 20
-21.5802911623228617
 30
0.0
 40
8.7506910430599731
 50
104.2990269290995968
 51
109.9817324196367991
  0
ARC
  5
22D72
  8
0
 10
5422.719838429416086
 20
-13.3469795355483303
 30
0.0
 40
0.01
 50
180.0000000000023874
 51
289.9817324196367281
  0
ARC
  5
22D73
  8
0
 10
5426.1498693797657324
 20
-48.9053113443389194
 30
0.0
 40
35.9270803711498417
 50
91.2142905893162066
 51
94.1102969358499166
  0
ARC
  5
22D74
  8
0
 10
5425.3887224294167027
 20
-12.9962969091360208
 30
0.0
 40
0.01
 50
0.0
 51
91.2142905893162066
  0
ARC
  5
22D75
  8
0
 10
5423.5754516325623626
 20
-13.0806126624167707
 30
0.0
 40
0.01
 50
94.1102969357978338
 51
103.559175491509194
  0
ARC
  5
22D76
  8
0
 10
5425.5976362192213855
 20
-51.457322528805193
 30
0.0
 40
38.4744162833175594
 50
90.3111950848887943
 51
92.3500552369888652
  0
ARC
  5
22D77
  8
0
 10
5425.3887224294167027
 20
-12.9934735918517497
 30
0.0
 40
0.01
 50
0.0
 51
90.3111950848887943
  0
ARC
  5
22D78
  8
0
 10
5425.7772572114190552
 20
-55.8341357682804329
 30
0.0
 40
42.8549137247143079
 50
92.3500552369888652
 51
92.9695788108520844
  0
ARC
  5
22D79
  8
0
 10
5423.5576453236617454
 20
-13.0467549750378105
 30
0.0
 40
0.01
 50
92.9695788109041956
 51
99.9822319051559276
  0
ARC
  5
22D7A
  8
0
 10
5425.1915845653820725
 20
-54.4341707339352965
 30
0.0
 40
41.459019246023999
 50
90.3467756937056237
 51
92.247210207278826
  0
ARC
  5
22D7B
  8
0
 10
5423.5663203493813853
 20
-13.0170279946605891
 30
0.0
 40
0.01
 50
92.247210207278826
 51
98.9706490523548297
  0
ARC
  5
22D7C
  8
0
 10
5424.4270604147131962
 20
-50.9690556982809184
 30
0.0
 40
37.9862057044506116
 50
90.0531716154789166
 51
91.3141523586662203
  0
ARC
  5
22D7D
  8
0
 10
5423.5561036864701236
 20
-13.0028386878349806
 30
0.0
 40
0.01
 50
91.3141523586662203
 51
94.6801285982770224
  0
ARC
  5
22D7E
  8
0
 10
5423.7088345735373878
 20
-17.135513719842919
 30
0.0
 40
4.1598619106201991
 50
90.6393976651873743
 51
93.779967369324865
  0
ARC
  5
22D7F
  8
0
 10
5426.0331543420697926
 20
-23.2166986735054799
 30
0.0
 40
10.36523189649035
 50
103.8002331046963036
 51
108.6235363244454959
  0
ARC
  5
22D80
  8
0
 10
5422.719838429416086
 20
-13.3847418708689592
 30
0.0
 40
0.01
 50
180.0
 51
288.6235363244463201
  0
ARC
  5
22D81
  8
0
 10
5423.5630441602115752
 20
-13.1603880518325997
 30
0.0
 40
0.01
 50
94.1462966346817183
 51
103.8002331046959057
  0
ARC
  5
22D82
  8
0
 10
5428.2678194777408862
 20
-28.6743132686343714
 30
0.0
 40
16.205222237337459
 50
106.8395729130534022
 51
110.0077026898353978
  0
ARC
  5
22D83
  8
0
 10
5422.719838429416086
 20
-13.4377343057020404
 30
0.0
 40
0.01
 50
180.0
 51
290.0077026898346162
  0
ARC
  5
22D84
  8
0
 10
5423.5761781425817389
 20
-13.1735479682056393
 30
0.0
 40
0.01
 50
95.7031533454703691
 51
106.8395729130539991
  0
ARC
  5
22D85
  8
0
 10
5433.3519538902155546
 20
-148.1926485731175092
 30
0.0
 40
135.3966098814439931
 50
93.3719955384463702
 51
94.146296634629465
  0
ARC
  5
22D86
  8
0
 10
5425.3887224294167027
 20
-13.0404340892546298
 30
0.0
 40
0.01
 50
0.0
 51
93.3719955384983962
  0
ARC
  5
22D87
  8
0
 10
5426.9200289609261745
 20
-46.6559668885548717
 30
0.0
 40
33.6589779198878603
 50
94.4403847895823532
 51
95.7031533454705965
  0
ARC
  5
22D88
  8
0
 10
5428.489786496130364
 20
-63.1787520936726423
 30
0.0
 40
50.2199315208421169
 50
93.5409535900636087
 51
95.6387539596966434
  0
ARC
  5
22D89
  8
0
 10
5425.3887224294167027
 20
-13.0646759774576395
 30
0.0
 40
0.01
 50
0.0
 51
93.5409535900115259
  0
ARC
  5
22D8A
  8
0
 10
5429.2838765102469551
 20
-31.0967908401586683
 30
0.0
 40
18.7897272776589794
 50
107.7572089422256028
 51
110.4357026362205971
  0
ARC
  5
22D8B
  8
0
 10
5422.719838429416086
 20
-13.4802318745784895
 30
0.0
 40
0.01
 50
180.0
 51
290.4357026362214924
  0
ARC
  5
22D8C
  8
0
 10
5423.5563577841312508
 20
-13.2117779560356894
 30
0.0
 40
0.01
 50
95.6387539596967855
 51
107.7572089422260007
  0
ARC
  5
22D8D
  8
0
 10
5414.7769617005033069
 20
103.4517361504945967
 30
0.0
 40
117.0398346765690007
 50
274.3061706690626806
 51
275.2015886993889922
  0
ARC
  5
22D8E
  8
0
 10
5425.3887224294167027
 20
-13.1160738660121599
 30
0.0
 40
0.01
 50
0.0
 51
95.2015886990225084
  0
ARC
  5
22D8F
  8
0
 10
5433.3841368070279714
 20
-45.6651914647663801
 30
0.0
 40
33.8626119520794475
 50
106.8599005145410956
 51
108.3508791929211981
  0
ARC
  5
22D90
  8
0
 10
5422.719838429416086
 20
-13.5151280034067298
 30
0.0
 40
0.01
 50
180.0
 51
288.3508791929206723
  0
ARC
  5
22D91
  8
0
 10
5423.5657798351430756
 20
-13.2676730050025196
 30
0.0
 40
0.01
 50
94.3061706689579751
 51
106.8599005145414935
  0
ARC
  5
22D92
  8
0
 10
5367.3194651331687055
 20
144.3228578938015119
 30
0.0
 40
167.3409609069854014
 50
289.3344994150548928
 51
289.6433726020486006
  0
ARC
  5
22D93
  8
0
 10
5422.719838429416086
 20
-13.57093272727246
 30
0.0
 40
0.01
 50
180.0
 51
289.334499415277719
  0
ARC
  5
22D94
  8
0
 10
5423.5769349831398358
 20
-13.2888206156637096
 30
0.0
 40
0.01
 50
96.0981302222043468
 51
109.6433726017190935
  0
ARC
  5
22D95
  8
0
 10
5431.6887700125680567
 20
-89.2166217680818079
 30
0.0
 40
76.3698903573453123
 50
95.1869563216022954
 51
96.098130222204432
  0
ARC
  5
22D96
  8
0
 10
5431.7485911707199193
 20
-86.8235073878727661
 30
0.0
 40
73.9555407025904543
 50
94.9339607183460146
 51
96.3604509409633039
  0
ARC
  5
22D97
  8
0
 10
5425.3887224294167027
 20
-13.1519724548210792
 30
0.0
 40
0.01
 50
0.0
 51
94.9339607183980831
  0
ARC
  5
22D98
  8
0
 10
5385.4848114232509033
 20
91.582236649794595
 30
0.0
 40
111.5995947999801956
 50
289.4921864714100934
 51
289.9449121797720181
  0
ARC
  5
22D99
  8
0
 10
5422.719838429416086
 20
-13.6118241686466899
 30
0.0
 40
0.01
 50
180.0000000000023874
 51
289.4921864716873756
  0
ARC
  5
22D9A
  8
0
 10
5423.5566863152807855
 20
-13.3331292106045201
 30
0.0
 40
0.01
 50
96.3604509410156851
 51
109.9449121795456961
  0
ARC
  5
22D9B
  8
0
 10
5428.1093418911968911
 20
-50.1287408266479773
 30
0.0
 40
37.0375923995075169
 50
94.211352187576324
 51
97.0499496055570745
  0
ARC
  5
22D9C
  8
0
 10
5425.3887224294167027
 20
-13.1811788997193293
 30
0.0
 40
0.01
 50
274.211352187576324
 51
359.9999999999976126
  0
ARC
  5
22D9D
  8
0
 10
5434.6106354822723006
 20
-48.0063111954537831
 30
0.0
 40
36.3544171096956106
 50
107.6933070353075976
 51
109.0861760458844998
  0
ARC
  5
22D9E
  8
0
 10
5422.719838429416086
 20
-13.6409248717741995
 30
0.0
 40
0.01
 50
180.0
 51
289.0861760458852814
  0
ARC
  5
22D9F
  8
0
 10
5423.5647757449360142
 20
-13.3810944061447703
 30
0.0
 40
0.01
 50
97.0499496055569182
 51
107.6933070353076971
  0
ARC
  5
22DA0
  8
0
 10
5427.4692720134926276
 20
-41.0772963752511018
 30
0.0
 40
27.94132527274515
 50
94.2718066895430979
 51
98.0119460390799162
  0
ARC
  5
22DA1
  8
0
 10
5425.3887224294167027
 20
-13.2235669136495506
 30
0.0
 40
0.01
 50
359.9999999999976126
 51
94.2718066895430553
  0
ARC
  5
22DA2
  8
0
 10
5416.3974903112066386
 20
5.6539017466808721
 30
0.0
 40
20.3687813181304485
 50
288.0921677089327773
 51
290.625898213135315
  0
ARC
  5
22DA3
  8
0
 10
5422.719838429416086
 20
-13.6983046141357203
 30
0.0
 40
0.01
 50
180.0
 51
288.0921677089831974
  0
ARC
  5
22DA4
  8
0
 10
5423.5762160034510089
 20
-13.4186079321132503
 30
0.0
 40
0.01
 50
98.0119460390801009
 51
110.6258982130765958
  0
ARC
  5
22DA5
  8
0
 10
5436.2223364142046194
 20
-120.0126214370381064
 30
0.0
 40
107.3075483671210009
 50
95.7938286637134127
 51
96.7791523643858369
  0
ARC
  5
22DA6
  8
0
 10
5425.3887224294167027
 20
-13.2432953383970595
 30
0.0
 40
0.01
 50
275.7938286637137253
 51
0.0
  0
ARC
  5
22DA7
  8
0
 10
5418.6041969820980739
 20
-0.4201445731811973
 30
0.0
 40
13.9435415293427507
 50
287.1801184159600098
 51
290.788806881391622
  0
ARC
  5
22DA8
  8
0
 10
5422.719838429416086
 20
-13.7319842291803997
 30
0.0
 40
0.01
 50
180.0
 51
287.1801184160148068
  0
ARC
  5
22DA9
  8
0
 10
5423.5566483759494076
 20
-13.4652412153157996
 30
0.0
 40
0.01
 50
96.7791523643853964
 51
110.7888068813920057
  0
ARC
  5
22DAA
  8
0
 10
5444.16149757128278
 20
-206.003065078926511
 30
0.0
 40
193.6193552622692096
 50
95.5636863942181662
 51
96.1070343748260854
  0
ARC
  5
22DAB
  8
0
 10
5425.3887224294167027
 20
-13.2858885409880507
 30
0.0
 40
0.01
 50
275.5636863941656998
 51
0.0
  0
ARC
  5
22DAC
  8
0
 10
5412.1554802706968985
 20
21.2717803909266507
 30
0.0
 40
36.5783903172291218
 50
286.7917032602198901
 51
288.1684055625469796
  0
ARC
  5
22DAD
  8
0
 10
5422.719838429416086
 20
-13.7373827965519393
 30
0.0
 40
0.01
 50
180.0
 51
286.7917032601678216
  0
ARC
  5
22DAE
  8
0
 10
5423.5641439727805846
 20
-13.4924641505366001
 30
0.0
 40
0.01
 50
96.1070343748784666
 51
108.1684055624361065
  0
ARC
  5
22DAF
  8
0
 10
5428.2223043371714084
 20
-46.308730308215992
 30
0.0
 40
33.094152157368292
 50
94.9132718152719548
 51
98.0731922703717345
  0
ARC
  5
22DB0
  8
0
 10
5425.3887224294167027
 20
-13.3461464054946592
 30
0.0
 40
0.01
 50
0.0
 51
94.9132718153240234
  0
ARC
  5
22DB1
  8
0
 10
5420.4293627852975987
 20
-5.1552664246494251
 30
0.0
 40
8.9574064931217681
 50
284.8324476895577959
 51
290.5424167809640039
  0
ARC
  5
22DB2
  8
0
 10
5422.719838429416086
 20
-13.8045325366878195
 30
0.0
 40
0.01
 50
180.0
 51
284.8324476896099782
  0
ARC
  5
22DB3
  8
0
 10
5423.5760321385278075
 20
-13.5524594791363295
 30
0.0
 40
0.01
 50
98.0731922704234904
 51
110.5424167809646008
  0
ARC
  5
22DB4
  8
0
 10
5495.1973786168564402
 20
-637.883252706096755
 30
0.0
 40
628.3922277016532689
 50
96.3781028851152684
 51
96.546422628859375
  0
ARC
  5
22DB5
  8
0
 10
5425.3887224294167027
 20
-13.3705536344888802
 30
0.0
 40
0.01
 50
276.378102884853206
 51
0.0
  0
ARC
  5
22DB6
  8
0
 10
5420.9015825183787456
 20
-6.3610283526783169
 30
0.0
 40
7.6988272466519554
 50
283.6788954486813168
 51
290.1463758357584766
  0
ARC
  5
22DB7
  8
0
 10
5422.719838429416086
 20
-13.8317719482540404
 30
0.0
 40
0.01
 50
180.0
 51
283.6788954487336127
  0
ARC
  5
22DB8
  8
0
 10
5423.5566544488092404
 20
-13.5981970368371599
 30
0.0
 40
0.01
 50
96.5464226289119836
 51
110.1463758357041058
  0
ARC
  5
22DB9
  8
0
 10
5429.2773631683876374
 20
-61.7439698729153577
 30
0.0
 40
48.4853516452780582
 50
94.5992481750169674
 51
96.7748432367903746
  0
ARC
  5
22DBA
  8
0
 10
5425.3887224294167027
 20
-13.4047766193826394
 30
0.0
 40
0.01
 50
274.5992481749648277
 51
0.0000000000024427
  0
ARC
  5
22DBB
  8
0
 10
5421.2280723506773938
 20
-7.1432088871346187
 30
0.0
 40
6.8612677369705342
 50
283.3073937524810049
 51
289.8282974740052964
  0
ARC
  5
22DBC
  8
0
 10
5423.5588239915687154
 20
-13.6071022264165098
 30
0.0
 40
0.01
 50
96.7748432367906872
 51
109.8282974740024969
  0
ARC
  5
22DBD
  8
0
 10
5392.2697827659776522
 20
301.3201692773890841
 30
0.0
 40
316.4998199176104094
 50
275.67541932248281
 51
276.0063078916738846
  0
ARC
  5
22DBE
  8
0
 10
5425.3887224294167027
 20
-13.4521324580840602
 30
0.0
 40
0.01
 50
0.0
 51
96.0063078902067133
  0
ARC
  5
22DBF
  8
0
 10
5421.2658299322883977
 20
-6.3857349366146181
 30
0.0
 40
7.5997472775618027
 50
281.0447341600911955
 51
287.6280588366191182
  0
ARC
  5
22DC0
  8
0
 10
5422.719838429416086
 20
-13.8349042210070596
 30
0.0
 40
0.01
 50
180.0
 51
281.0447341600917071
  0
ARC
  5
22DC1
  8
0
 10
5423.5703403061888821
 20
-13.6381473328413492
 30
0.0
 40
0.01
 50
95.6754193225349212
 51
107.6280588366184929
  0
ARC
  5
22DC2
  8
0
 10
5400.1753907791708116
 20
205.3281654933419986
 30
0.0
 40
220.2451502374831023
 50
276.0990743591523255
 51
276.5732461548573724
  0
ARC
  5
22DC3
  8
0
 10
5425.3887224294167027
 20
-13.4790992700360999
 30
0.0
 40
0.01
 50
0.0
 51
96.5732461548577703
  0
ARC
  5
22DC4
  8
0
 10
5421.6822155604795626
 20
-8.1911153111491188
 30
0.0
 40
5.7969971043449453
 50
280.3291332432391982
 51
289.0445924992365008
  0
ARC
  5
22DC5
  8
0
 10
5422.719838429416086
 20
-13.8843283115167502
 30
0.0
 40
0.01
 50
180.0
 51
280.3291332432394256
  0
ARC
  5
22DC6
  8
0
 10
5423.5770615927958715
 20
-13.6802658723636998
 30
0.0
 40
0.01
 50
96.099074358942417
 51
109.044592499237595
  0
ARC
  5
22DC7
  8
0
 10
5403.5411423230971195
 20
180.2322291747676957
 30
0.0
 40
194.974457426897601
 50
275.8918107598888128
 51
276.4340386916811099
  0
ARC
  5
22DC8
  8
0
 10
5425.3887224294167027
 20
-13.5042488134070293
 30
0.0
 40
0.01
 50
276.4340386922581274
 51
0.0
  0
ARC
  5
22DC9
  8
0
 10
5421.890559168998152
 20
-8.6509636236391216
 30
0.0
 40
5.3278447516165039
 50
278.9714759347447739
 51
288.1843322917109163
  0
ARC
  5
22DCA
  8
0
 10
5422.719838429416086
 20
-13.9037503802603197
 30
0.0
 40
0.01
 50
180.0
 51
278.9714759347965014
  0
ARC
  5
22DCB
  8
0
 10
5423.5563677853388072
 20
-13.7222226631761401
 30
0.0
 40
0.01
 50
95.8918107596793163
 51
108.1843322916598993
  0
ARC
  5
22DCC
  8
0
 10
5417.1307031714186451
 20
60.5230456155196279
 30
0.0
 40
74.5187703534410133
 50
274.9486483125508016
 51
276.3633278512576794
  0
ARC
  5
22DCD
  8
0
 10
5425.3887224294167027
 20
-13.5266807682851393
 30
0.0
 40
0.01
 50
276.3633278512576226
 51
0.0
  0
ARC
  5
22DCE
  8
0
 10
5422.051462965851897
 20
-8.9439341644419414
 30
0.0
 40
5.0061170620849929
 50
282.5339558586139219
 51
287.499158920132686
  0
ARC
  5
22DCF
  8
0
 10
5423.5597682306315619
 20
-13.7279121753423006
 30
0.0
 40
0.01
 50
94.9486483124985341
 51
107.4991589201319044
  0
ARC
  5
22DD0
  8
0
 10
5413.1376598084243597
 20
106.7717953151783945
 30
0.0
 40
120.9575249107130048
 50
274.9472550841591101
 51
275.8126318059244113
  0
ARC
  5
22DD1
  8
0
 10
5425.3887224294167027
 20
-13.5737635878425902
 30
0.0
 40
0.01
 50
0.0
 51
95.8126318059248945
  0
ARC
  5
22DD2
  8
0
 10
5421.6803472304609386
 20
-6.9239490946324329
 30
0.0
 40
7.0679532073047211
 50
278.4692972635041883
 51
285.4822444276446163
  0
ARC
  5
22DD3
  8
0
 10
5422.719838429416086
 20
-13.9049348075384405
 30
0.0
 40
0.01
 50
180.0
 51
278.4692972635040746
  0
ARC
  5
22DD4
  8
0
 10
5423.5697342245066466
 20
-13.7450661872739293
 30
0.0
 40
0.01
 50
94.9472550840022933
 51
105.4822444276443036
  0
ARC
  5
22DD5
  8
0
 10
5415.1060660464409011
 20
79.8585610614906187
 30
0.0
 40
94.0113006273899856
 50
275.1611998435898272
 51
276.2787222309046911
  0
ARC
  5
22DD6
  8
0
 10
5425.3887224294167027
 20
-13.5987658282493307
 30
0.0
 40
0.01
 50
0.0
 51
96.2787222309046342
  0
ARC
  5
22DD7
  8
0
 10
5422.3042803685639228
 20
-9.5321012286085818
 30
0.0
 40
4.422234186814503
 50
275.4043062591572948
 51
286.5127545097723782
  0
ARC
  5
22DD8
  8
0
 10
5422.719838429416086
 20
-13.9247225436498905
 30
0.0
 40
0.01
 50
180.0
 51
275.4043062591572948
  0
ARC
  5
22DD9
  8
0
 10
5423.564048878797621
 20
-13.7815345069868798
 30
0.0
 40
0.01
 50
95.1611998434331667
 51
106.5127545097716961
  0
ARC
  5
22DDA
  8
0
 10
5418.6801678859483218
 20
50.3530871461892033
 30
0.0
 40
64.3559963368309127
 50
274.344691420019501
 51
275.9843912940875157
  0
ARC
  5
22DDB
  8
0
 10
5425.3887224294167027
 20
-13.6422450313749106
 30
0.0
 40
0.01
 50
275.9843912941394137
 51
0.0
  0
ARC
  5
22DDC
  8
0
 10
5422.4858416378474431
 20
-9.8425844402134999
 30
0.0
 40
4.116620150662575
 50
273.2665047203091149
 51
285.034821476845309
  0
ARC
  5
22DDD
  8
0
 10
5422.719838429416086
 20
-13.9425325573685104
 30
0.0
 40
0.01
 50
180.0
 51
273.2665047203091717
  0
ARC
  5
22DDE
  8
0
 10
5423.556311821995223
 20
-13.8279435774434791
 30
0.0
 40
0.01
 50
94.3446914198106299
 51
105.0348214768457069
  0
ARC
  5
22DDF
  8
0
 10
5418.9936116262442738
 20
55.6231928002440128
 30
0.0
 40
69.5958254708115334
 50
273.7750113328841053
 51
275.2715461536200792
  0
ARC
  5
22DE0
  8
0
 10
5425.3887224294167027
 20
-13.6882312025003703
 30
0.0
 40
0.01
 50
0.0
 51
95.2715461535675985
  0
ARC
  5
22DE1
  8
0
 10
5420.2217601684424153
 20
1.831496129790039
 30
0.0
 40
16.0083088337038895
 50
280.8171105719713978
 51
282.0885682039381095
  0
ARC
  5
22DE2
  8
0
 10
5423.5763699718490898
 20
-13.8316073608597101
 30
0.0
 40
0.01
 50
93.7750113326228956
 51
102.0885682039374984
  0
ARC
  5
22DE3
  8
0
 10
5419.4171611416941232
 20
47.348905697835967
 30
0.0
 40
61.3511312715433377
 50
273.8773781682360209
 51
275.5847673345484736
  0
ARC
  5
22DE4
  8
0
 10
5425.3887224294167027
 20
-13.7209631960019305
 30
0.0
 40
0.01
 50
0.0
 51
95.5847673345487152
  0
ARC
  5
22DE5
  8
0
 10
5422.7256060393392545
 20
-9.9904948261153663
 30
0.0
 40
3.9613222677384532
 50
270.0990310314426779
 51
282.2242124612052976
  0
ARC
  5
22DE6
  8
0
 10
5423.5664851627552707
 20
-13.8717733337774298
 30
0.0
 40
0.01
 50
93.8773781680794031
 51
102.2242124612050986
  0
ARC
  5
22DE7
  8
0
 10
5417.1174700504143402
 20
88.7052767366160282
 30
0.0
 40
102.8050435614013054
 50
273.589692262038227
 51
274.6152101153081162
  0
ARC
  5
22DE8
  8
0
 10
5425.3887224294167027
 20
-13.7564593645902509
 30
0.0
 40
0.01
 50
274.6152101156737899
 51
0.0
  0
ARC
  5
22DE9
  8
0
 10
5422.8690692119644154
 20
-10.0641837781539003
 30
0.0
 40
3.894551130697768
 50
270.7177109362344254
 51
280.1152341196519728
  0
ARC
  5
22DEA
  8
0
 10
5423.5548196118734268
 20
-13.9080445874519594
 30
0.0
 40
0.01
 50
93.5896922621427763
 51
100.1152341196519018
  0
ARC
  5
22DEB
  8
0
 10
5421.7542947749570885
 20
33.1043038222739767
 30
0.0
 40
47.0724118433606975
 50
272.2174401041024794
 51
274.4291164889013999
  0
ARC
  5
22DEC
  8
0
 10
5425.3887224294167027
 20
-13.8175625529949997
 30
0.0
 40
0.01
 50
274.4291164891104131
 51
0.0
  0
ARC
  5
22DED
  8
0
 10
5423.1319596216726495
 20
-10.1350596276478608
 30
0.0
 40
3.823596242136905
 50
270.6236541746243915
 51
276.6515151643474724
  0
ARC
  5
22DEE
  8
0
 10
5423.5760060502043416
 20
-13.9428520218094008
 30
0.0
 40
0.01
 50
92.2174401041546048
 51
96.6515151643474013
  0
ARC
  5
22DEF
  8
0
 10
5422.3389105374899373
 20
31.2083017072249511
 30
0.0
 40
45.1707350764446289
 50
271.5523995524426937
 51
273.8722674530879999
  0
ARC
  5
22DF0
  8
0
 10
5425.3887224294167027
 20
-13.84933516011065
 30
0.0
 40
0.01
 50
273.8722674531924213
 51
0.0
  0
ARC
  5
22DF1
  8
0
 10
5423.1714714060535698
 20
-8.6174801220256043
 30
0.0
 40
5.3427023566920733
 50
271.4678248602019153
 51
274.193729544922121
  0
ARC
  5
22DF2
  8
0
 10
5423.5629094470432392
 20
-13.9558505456103408
 30
0.0
 40
0.01
 50
91.5523995523905967
 51
94.19372954492205
  0
ARC
  5
22DF3
  8
0
 10
5423.2322733295213766
 20
27.8798089689773683
 30
0.0
 40
41.8397312912245383
 50
270.4840256464515278
 51
272.9550805867473855
  0
ARC
  5
22DF4
  8
0
 10
5425.3887224294167027
 20
-13.89429960530118
 30
0.0
 40
0.01
 50
272.9550805867474992
 51
359.9999999999976126
  0
ARC
  5
22DF5
  8
0
 10
5423.5839248209640573
 20
31.3671471970423603
 30
0.0
 40
45.3271153614543394
 50
270.4721185097220086
 51
272.2824630469264093
  0
ARC
  5
22DF6
  8
0
 10
5425.3887224294167027
 20
-13.9140150039865294
 30
0.0
 40
0.01
 50
272.2824630470827856
 51
359.9999999999976126
  0
ARC
  5
22DF7
  8
0
 10
5424.4882355279078183
 20
26.4568264649114901
 30
0.0
 40
40.4155211204896716
 50
270.2075992927480002
 51
271.2770128787955741
  0
ARC
  5
22DF8
  8
0
 10
5425.3887224294167027
 20
-13.9386591783945999
 30
0.0
 40
0.01
 50
271.2770128788476995
 51
0.0000000000024427
  0
ARC
  5
22DF9
  8
0
 10
5421.9948384294166317
 20
-13.4671700987580998
 30
0.0
 40
1.375
 50
20.9332123774831587
 51
339.0667876225169266
  0
ARC
  5
22DFA
  8
0
 10
5421.9948384294166317
 20
-13.4671700987580998
 30
0.0
 40
0.4909999999999997
 50
90.0
 51
270.0
  0
LINE
  5
22DFB
  8
0
 10
5422.695838429415744
 20
-12.9761700987581001
 30
0.0
 11
5421.9948384294166317
 21
-12.9761700987581001
 31
0.0
  0
LINE
  5
22DFC
  8
0
 10
5422.695838429415744
 20
-13.9581700987580994
 30
0.0
 11
5421.9948384294166317
 21
-13.9581700987580994
 31
0.0
  0
ARC
  5
22DFD
  8
0
 10
5422.695838429415744
 20
-12.9901700987580995
 30
0.0
 40
0.014
 50
359.9999999999852776
 51
90.0
  0
ARC
  5
22DFE
  8
0
 10
5422.695838429415744
 20
-13.9441700987581108
 30
0.0
 40
0.014
 50
270.0
 51
0.0
  0
ARC
  5
22DFF
  8
0
 10
5421.9948384294166317
 20
-13.4671700987580998
 30
0.0
 40
0.5109999999999997
 50
73.9169305022025185
 51
286.0830694977975099
  0
ARC
  5
22E00
  8
0
 10
5417.9948384294157222
 20
-13.4671700987580998
 30
0.0
 40
0.5599999999999988
 50
341.1608030293069191
 51
198.8391969706927114
  0
ENDSEC
  0
EOF
