  0
SECTION
  2
HEADER
  9
$ACADVER
  1
AC1009
  9
$INSBASE
 10
5265.71374607281723
 20
477.456547725038206
 30
0.0
  9
$EXTMIN
 10
5252.5873834882877418
 20
477.4280673852031214
 30
-0.0000000349181948
  9
$EXTMAX
 10
5268.2624234565728329
 20
515.3310410908057975
 30
0.0000000814935746
  9
$LIMMIN
 10
0.0
 20
0.0
  9
$LIMMAX
 10
11.6929133858000007
 20
8.2677165353999982
  9
$ORTHOMODE
 70
     0
  9
$REGENMODE
 70
     1
  9
$FILLMODE
 70
     1
  9
$QTEXTMODE
 70
     0
  9
$MIRRTEXT
 70
     0
  9
$DRAGMODE
 70
     2
  9
$LTSCALE
 40
0.6431102362
  9
$OSMODE
 70
  4095
  9
$ATTMODE
 70
     1
  9
$TEXTSIZE
 40
0.2
  9
$TRACEWID
 40
0.05
  9
$TEXTSTYLE
  7
STANDARD
  9
$CLAYER
  8
0
  9
$CELTYPE
  6
BYLAYER
  9
$CECOLOR
 62
   256
  9
$DIMSCALE
 40
1.0
  9
$DIMASZ
 40
0.1875
  9
$DIMEXO
 40
0.0625
  9
$DIMDLI
 40
0.4443307087
  9
$DIMRND
 40
0.0
  9
$DIMDLE
 40
0.0
  9
$DIMEXE
 40
0.125
  9
$DIMTP
 40
0.01
  9
$DIMTM
 40
0.01
  9
$DIMTXT
 40
2.0
  9
$DIMCEN
 40
0.1052362205
  9
$DIMTSZ
 40
0.0
  9
$DIMTOL
 70
     1
  9
$DIMLIM
 70
     0
  9
$DIMTIH
 70
     1
  9
$DIMTOH
 70
     1
  9
$DIMSE1
 70
     0
  9
$DIMSE2
 70
     0
  9
$DIMTAD
 70
     0
  9
$DIMZIN
 70
     0
  9
$DIMBLK
  1

  9
$DIMASO
 70
     1
  9
$DIMSHO
 70
     1
  9
$DIMPOST
  1
\X
  9
$DIMAPOST
  1

  9
$DIMALT
 70
     1
  9
$DIMALTD
 70
     2
  9
$DIMALTF
 40
25.3999999999999986
  9
$DIMLFAC
 40
1.0
  9
$DIMTOFL
 70
     0
  9
$DIMTVP
 40
0.0
  9
$DIMTIX
 70
     0
  9
$DIMSOXD
 70
     0
  9
$DIMSAH
 70
     0
  9
$DIMBLK1
  1

  9
$DIMBLK2
  1

  9
$DIMSTYLE
  2
STANDARD
  9
$DIMCLRD
 70
     0
  9
$DIMCLRE
 70
     0
  9
$DIMCLRT
 70
     0
  9
$DIMTFAC
 40
1.0
  9
$DIMGAP
 40
0.09
  9
$LUNITS
 70
     2
  9
$LUPREC
 70
     4
  9
$SKETCHINC
 40
0.1
  9
$FILLETRAD
 40
0.0
  9
$AUNITS
 70
     0
  9
$AUPREC
 70
     0
  9
$MENU
  1
.
  9
$ELEVATION
 40
0.0
  9
$PELEVATION
 40
0.0
  9
$THICKNESS
 40
0.0
  9
$LIMCHECK
 70
     0
  9
$BLIPMODE
 70
     0
  9
$CHAMFERA
 40
0.0
  9
$CHAMFERB
 40
0.0
  9
$SKPOLY
 70
     0
  9
$TDCREATE
 40
2458060.468368056230247
  9
$TDUPDATE
 40
2460104.5413310178555548
  9
$TDINDWG
 40
0.6605278935
  9
$TDUSRTIMER
 40
0.6605278935
  9
$USRTIMER
 70
     1
  9
$ANGBASE
 50
0.0
  9
$ANGDIR
 70
     0
  9
$PDMODE
 70
     0
  9
$PDSIZE
 40
0.3125
  9
$PLINEWID
 40
0.0
  9
$COORDS
 70
     1
  9
$SPLFRAME
 70
     0
  9
$SPLINETYPE
 70
     6
  9
$SPLINESEGS
 70
     8
  9
$ATTDIA
 70
     1
  9
$ATTREQ
 70
     1
  9
$HANDLING
 70
     1
  9
$HANDSEED
  5
18A8E
  9
$SURFTAB1
 70
     6
  9
$SURFTAB2
 70
     6
  9
$SURFTYPE
 70
     6
  9
$SURFU
 70
     6
  9
$SURFV
 70
     6
  9
$UCSNAME
  2

  9
$UCSORG
 10
0.0
 20
0.0
 30
0.0
  9
$UCSXDIR
 10
1.0
 20
0.0
 30
0.0
  9
$UCSYDIR
 10
0.0
 20
1.0
 30
0.0
  9
$PUCSNAME
  2

  9
$PUCSORG
 10
0.0
 20
0.0
 30
0.0
  9
$PUCSXDIR
 10
1.0
 20
0.0
 30
0.0
  9
$PUCSYDIR
 10
0.0
 20
1.0
 30
0.0
  9
$USERI1
 70
     0
  9
$USERI2
 70
     0
  9
$USERI3
 70
     0
  9
$USERI4
 70
     0
  9
$USERI5
 70
     0
  9
$USERR1
 40
0.0
  9
$USERR2
 40
0.0
  9
$USERR3
 40
0.0
  9
$USERR4
 40
0.0
  9
$USERR5
 40
0.0
  9
$WORLDVIEW
 70
     1
  9
$SHADEDGE
 70
     3
  9
$SHADEDIF
 70
    70
  9
$TILEMODE
 70
     1
  9
$MAXACTVP
 70
    64
  9
$PLIMCHECK
 70
     0
  9
$PEXTMIN
 10
1.0000000000000000E+20
 20
1.0000000000000000E+20
 30
1.0000000000000000E+20
  9
$PEXTMAX
 10
-1.0000000000000000E+20
 20
-1.0000000000000000E+20
 30
-1.0000000000000000E+20
  9
$PLIMMIN
 10
0.0
 20
0.0
  9
$PLIMMAX
 10
12.0
 20
9.0
  9
$UNITMODE
 70
     0
  9
$VISRETAIN
 70
     1
  9
$PLINEGEN
 70
     0
  9
$PSLTSCALE
 70
     1
  0
ENDSEC
  0
SECTION
  2
TABLES
  0
TABLE
  2
VPORT
 70
     1
  0
VPORT
  2
*ACTIVE
 70
     0
 10
0.0
 20
0.0
 11
1.0
 21
1.0
 12
1456.8808360896180147
 22
370.3842920412545823
 13
0.0
 23
0.0
 14
1.0
 24
1.0
 15
0.0
 25
0.0
 16
0.0
 26
0.0
 36
17.1152628219792007
 17
3803.5440673828129547
 27
125.9952621967499056
 37
0.0
 40
38.2069390310027117
 41
2.5251322751322749
 42
50.0
 43
0.0
 44
0.0
 50
0.0
 51
0.0
 71
     0
 72
   100
 73
     1
 74
     1
 75
     0
 76
     0
 77
     0
 78
     0
  0
ENDTAB
  0
TABLE
  2
LTYPE
 70
     2
  0
LTYPE
  2
CONTINUOUS
 70
     0
  3
Solid line
 72
    65
 73
     0
 40
0.0
  0
LTYPE
  2
PHANTOM2
 70
     0
  3
___ _ _ ___ _ _ ___ _ _ ___ _ _
 72
    65
 73
     6
 40
1.25
 49
0.625
 49
-0.125
 49
0.125
 49
-0.125
 49
0.125
 49
-0.125
  0
ENDTAB
  0
TABLE
  2
LAYER
 70
     2
  0
LAYER
  2
0
 70
     0
 62
   255
  6
CONTINUOUS
  0
LAYER
  2
DEFPOINTS
 70
     0
 62
     7
  6
CONTINUOUS
  0
ENDTAB
  0
TABLE
  2
STYLE
 70
     1
  0
STYLE
  2
STANDARD
 70
     0
 40
0.0
 41
0.8
 50
0.0
 71
     0
 42
0.2
  3
txt
  4

  0
ENDTAB
  0
TABLE
  2
VIEW
 70
     0
  0
ENDTAB
  0
TABLE
  2
UCS
 70
     0
  0
ENDTAB
  0
TABLE
  2
APPID
 70
    10
  0
APPID
  2
ACAD
 70
     0
  0
APPID
  2
ACAD_MLEADERVER
 70
     0
  0
APPID
  2
ACAD_EXEMPT_FROM_CAD_STANDARDS
 70
     0
  0
APPID
  2
ACAD_NAV_VCDISPLAY
 70
     0
  0
APPID
  2
ACAECLAYERSTANDARD
 70
     0
  0
APPID
  2
ACCMTRANSPARENCY
 70
     0
  0
APPID
  2
ACAD_DSTYLE_DIMJAG
 70
     0
  0
APPID
  2
ACAD_DSTYLE_DIMTALN
 70
     0
  0
APPID
  2
ACDBATTR
 70
     0
  0
APPID
  2
ACADANNOTATIVE
 70
     0
  0
ENDTAB
  0
TABLE
  2
DIMSTYLE
 70
     2
  0
DIMSTYLE
  2
STANDARD
 70
     0
  3

  4

  5

  6

  7

 40
1.0
 41
0.1875
 42
0.0625
 43
0.38
 44
0.125
 45
0.0
 46
0.0
 47
0.01
 48
0.01
140
0.15625
141
0.09
142
0.0
143
25.3999999999999986
144
1.0
145
0.0
146
1.0
147
0.09
 71
     1
 72
     0
 73
     1
 74
     1
 75
     0
 76
     0
 77
     0
 78
     4
170
     0
171
     2
172
     0
173
     0
174
     0
175
     0
176
     0
177
     0
178
     0
  0
DIMSTYLE
  2
ANNOTATIVE
 70
     0
  3

  4

  5

  6

  7

 40
0.0
 41
0.18
 42
0.0625
 43
0.38
 44
0.18
 45
0.0
 46
0.0
 47
0.0
 48
0.0
140
0.18
141
0.09
142
0.0
143
25.3999999999999986
144
1.0
145
0.0
146
1.0
147
0.09
 71
     0
 72
     0
 73
     1
 74
     1
 75
     0
 76
     0
 77
     0
 78
     0
170
     0
171
     2
172
     0
173
     0
174
     0
175
     0
176
     0
177
     0
178
     0
  0
ENDTAB
  0
ENDSEC
  0
SECTION
  2
BLOCKS
  0
BLOCK
  8
0
  2
$MODEL_SPACE
 70
     0
 10
0.0
 20
0.0
 30
0.0
  3
$MODEL_SPACE
  1

  0
ENDBLK
  5
21
  8
0
  0
BLOCK
 67
     1
  8
0
  2
$PAPER_SPACE
 70
     0
 10
0.0
 20
0.0
 30
0.0
  3
$PAPER_SPACE
  1

  0
ENDBLK
  5
1D
 67
     1
  8
0
  0
BLOCK
  8
0
  2
_FILLED
 70
     0
 10
0.0
 20
0.0
 30
0.0
  3
_FILLED
  1

  0
SOLID
  5
13053
  8
0
  6
BYBLOCK
 62
     0
 10
0.0
 20
0.0
 30
0.0
 11
-1.0
 21
0.1666666667
 31
0.0
 12
-1.0
 22
-0.1666666667
 32
0.0
 13
-1.0
 23
-0.1666666667
 33
0.0
  0
ENDBLK
  5
13054
  8
0
  6
BYBLOCK
 62
     0
  0
ENDSEC
  0
SECTION
  2
ENTITIES
  0
ATTDEF
  5
3930
  8
DEFPOINTS
 10
5265.7093094521633247
 20
477.4549207264710162
 30
0.0
 40
0.001
  1
P40883-00
  3

  2
MODELNUMBER
 70
     0
1001
ACDBATTR
1070
     0
1070
     1
  0
ATTDEF
  5
3931
  8
DEFPOINTS
 10
5265.7093094521633247
 20
477.4532540598044079
 30
0.0
 40
0.001
  1
ONE
  3

  2
TRADENAME
 70
     0
1001
ACDBATTR
1070
     0
1070
     1
  0
ATTDEF
  5
3932
  8
DEFPOINTS
 10
5265.7093094521633247
 20
477.4515873931376859
 30
0.0
 40
0.001
  1
BATH FAUCET
  3

  2
PRODUCT
 70
     0
1001
ACDBATTR
1070
     0
1070
     1
  0
LINE
  5
188D5
  8
0
 10
5263.3615413483657903
 20
477.456547725038206
 30
0.0
 11
5268.0659507972668507
 21
477.456547725038206
 31
0.0
  0
LINE
  5
188D6
  8
0
 10
5263.3715413483669181
 20
478.2439492998382207
 30
0.0
 11
5268.0559507972666324
 21
478.2439492998382207
 31
0.0
  0
LINE
  5
188D7
  8
0
 10
5264.9263460728670907
 20
507.3974927722381949
 30
0.0
 11
5265.2231116361353997
 21
507.3974927722381949
 31
0.0
  0
LINE
  5
188D8
  8
0
 10
5266.2030042330534343
 20
507.3974927722381949
 30
0.0
 11
5266.5011460728655948
 21
507.3974927722381949
 31
0.0
  0
LINE
  5
188D9
  8
0
 10
5254.9481460728657112
 20
515.31875698483816
 30
0.0
 11
5264.2297460728668739
 21
515.31875698483816
 31
0.0
  0
LINE
  5
188DA
  8
0
 10
5254.9481460728657112
 20
514.1317569848381481
 30
0.0
 11
5264.2293460728669743
 21
514.1317569848381481
 31
0.0
  0
LINE
  5
188DB
  8
0
 10
5252.8702460728663937
 20
512.6812569848381145
 30
0.0
 11
5254.0572460728681108
 21
512.6812569848381145
 31
0.0
  0
LINE
  5
188DC
  8
0
 10
5252.8702460728663937
 20
512.6812569848381145
 30
0.0
 11
5252.8702460728663937
 21
513.2408569848381603
 31
0.0
  0
LINE
  5
188DD
  8
0
 10
5254.0572460728681108
 20
512.6812569848381145
 30
0.0
 11
5254.0572460728681108
 21
513.2408569848381603
 31
0.0
  0
ARC
  5
188DE
  8
0
 10
5254.9481460728657112
 20
513.2408569848381603
 30
0.0
 40
2.0779000000000001
 50
90.0
 51
180.0
  0
ARC
  5
188DF
  8
0
 10
5254.9481460728657112
 20
513.2408569848381603
 30
0.0
 40
0.8909
 50
90.0
 51
180.0
  0
LINE
  5
188E0
  8
0
 10
5265.1202460728663937
 20
513.2408569848381603
 30
0.0
 11
5265.1202460728663937
 21
507.3974927722381949
 31
0.0
  0
LINE
  5
188E1
  8
0
 10
5266.3072460728672013
 20
513.2412569848381736
 30
0.0
 11
5266.3072460728672013
 21
507.3974927722381949
 31
0.0
  0
ARC
  5
188E2
  8
0
 10
5264.2293460728669743
 20
513.2408569848380466
 30
0.0
 40
0.8909
 50
0.0
 51
90.0
  0
ARC
  5
188E3
  8
0
 10
5264.2297460728668739
 20
513.2412569848381736
 30
0.0
 40
2.0775000000000001
 50
0.0
 51
90.0
  0
LINE
  5
188E4
  8
0
 10
5264.9263460728670907
 20
507.3974927722381949
 30
0.0
 11
5264.9263460728670907
 21
504.6753621788171813
 31
0.0
  0
LINE
  5
188E5
  8
0
 10
5264.9263460728670907
 20
503.7810403578591263
 30
0.0
 11
5264.9263460728670907
 21
478.2439492998382207
 31
0.0
  0
LINE
  5
188E6
  8
0
 10
5266.5011460728655948
 20
507.3974927722381949
 30
0.0
 11
5266.5011460728655948
 21
504.6753621788171813
 31
0.0
  0
LINE
  5
188E7
  8
0
 10
5266.5011460728655948
 20
503.7810403578591263
 30
0.0
 11
5266.5011460728655948
 21
478.2439492998382207
 31
0.0
  0
ARC
  5
188E8
  8
0
 10
5265.7137460728681617
 20
504.2282012683381822
 30
0.0
 40
0.9055118109999986
 50
122.8083751631268967
 51
57.295174889058849
  0
LINE
  5
188E9
  8
0
 10
5263.351541348367391
 20
478.223949299838182
 30
0.0
 11
5263.351541348367391
 21
477.4665477250381969
 31
0.0
  0
LINE
  5
188EA
  8
0
 10
5268.0759507972679785
 20
478.223949299838182
 30
0.0
 11
5268.0759507972679785
 21
477.4665477250381969
 31
0.0
  0
ARC
  5
188EB
  8
0
 10
5263.3715413483669181
 20
478.223949299838182
 30
0.0
 40
0.02
 50
90.0
 51
179.9999999999901945
  0
ARC
  5
188EC
  8
0
 10
5268.0559507972666324
 20
478.223949299838182
 30
0.0
 40
0.02
 50
0.0000000000162844
 51
90.0
  0
ARC
  5
188ED
  8
0
 10
5263.3615413483657903
 20
477.4665477250381969
 30
0.0
 40
0.01
 50
180.0
 51
269.9999999999478746
  0
ARC
  5
188EE
  8
0
 10
5268.0659507972668507
 20
477.4665477250381969
 30
0.0
 40
0.01
 50
269.9999999999478746
 51
0.0000000000097707
  0
LINE
  5
188F0
  8
0
 10
5265.23531163613643
 20
504.9432012683381004
 30
0.0
 11
5266.190804233054223
 21
504.9432012683381004
 31
0.0
  0
LINE
  5
188F1
  8
0
 10
5265.2231116361353997
 20
507.6198852683381801
 30
0.0
 11
5265.2231116361353997
 21
504.9554012683381075
 31
0.0
  0
LINE
  5
188F2
  8
0
 10
5266.2030042330534343
 20
507.6198852683381801
 30
0.0
 11
5266.2030042330534343
 21
504.9554012683381075
 31
0.0
  0
LINE
  5
188F3
  8
0
 10
5265.23531163613643
 20
507.6320852683380735
 30
0.0
 11
5266.190804233054223
 21
507.6320852683380735
 31
0.0
  0
ARC
  5
188F4
  8
0
 10
5265.23531163613643
 20
507.6198852683381801
 30
0.0
 40
0.0122
 50
90.0
 51
179.9999999999901945
  0
ARC
  5
188F5
  8
0
 10
5266.190804233054223
 20
507.6198852683381801
 30
0.0
 40
0.0122
 50
0.0
 51
90.0
  0
ARC
  5
188F6
  8
0
 10
5265.23531163613643
 20
504.9554012683381075
 30
0.0
 40
0.0122
 50
180.0
 51
270.0
  0
ARC
  5
188F7
  8
0
 10
5266.190804233054223
 20
504.9554012683381075
 30
0.0
 40
0.0122
 50
270.0
 51
0.0
  0
LINE
  5
188F8
  8
0
 10
5265.4475931304814367
 20
505.7848745083766744
 30
0.0
 11
5265.6510082720069477
 21
507.6320852683380735
 31
0.0
  0
ARC
  5
188F9
  8
0
 10
5270.3725564594897151
 20
504.2396993522090725
 30
0.0
 40
5.1616693089850951
 50
162.5810905938866995
 51
172.1665772967390922
  0
LINE
  5
188FA
  8
0
 10
5265.4838191537110106
 20
505.7811637797129833
 30
0.0
 11
5265.6876429212643416
 21
507.6320852683380735
 31
0.0
  0
ARC
  5
188FB
  8
0
 10
5270.408782482721108
 20
504.2359886235453814
 30
0.0
 40
5.1616693089850951
 50
162.5810905938866995
 51
172.1249972458035131
  0
LINE
  5
188FC
  8
0
 10
5265.2231116361353997
 20
507.320509749774601
 30
0.0
 11
5265.2574223816000085
 21
507.6320852683380735
 31
0.0
  0
LINE
  5
188FD
  8
0
 10
5265.2231116361353997
 20
506.9878308853162139
 30
0.0
 11
5265.2940570308574024
 21
507.6320852683380735
 31
0.0
  0
LINE
  5
188FE
  8
0
 10
5265.2231116361353997
 20
506.7029697375004957
 30
0.0
 11
5265.3254259855830242
 21
507.6320852683380735
 31
0.0
  0
LINE
  5
188FF
  8
0
 10
5265.2231116361353997
 20
506.3702908730421086
 30
0.0
 11
5265.3620606348404181
 21
507.6320852683380735
 31
0.0
  0
LINE
  5
18900
  8
0
 10
5265.2231116361353997
 20
506.2035610150909974
 30
0.0
 11
5265.3804209532117966
 21
507.6320852683380735
 31
0.0
  0
LINE
  5
18901
  8
0
 10
5265.2231116361353997
 20
505.870882150632724
 30
0.0
 11
5265.4170556024691905
 21
507.6320852683380735
 31
0.0
  0
LINE
  5
18902
  8
0
 10
5265.2609470234756373
 20
505.8071069371478075
 30
0.0
 11
5265.4619139264223122
 21
507.6320852683380735
 31
0.0
  0
ARC
  5
18903
  8
0
 10
5270.1859103524839156
 20
504.2619317809800918
 30
0.0
 40
5.1616693089850951
 50
162.5810905938866995
 51
164.0437009123091912
  0
LINE
  5
18904
  8
0
 10
5265.2971730467052112
 20
505.8033962084841164
 30
0.0
 11
5265.4985485756797061
 21
507.6320852683380735
 31
0.0
  0
ARC
  5
18905
  8
0
 10
5270.22213637571258
 20
504.2582210523164008
 30
0.0
 40
5.1616693089850951
 50
162.5810905938866995
 51
165.5785357305529999
  0
LINE
  5
18906
  8
0
 10
5265.3228754172423578
 20
505.8070696316844987
 30
0.0
 11
5265.5238464282720088
 21
507.6320852683380735
 31
0.0
  0
ARC
  5
18907
  8
0
 10
5270.2478387462497267
 20
504.2618944755168968
 30
0.0
 40
5.1616693089850951
 50
162.5810905938866995
 51
166.772551804354606
  0
LINE
  5
18908
  8
0
 10
5265.3591014404710222
 20
505.8033589030208077
 30
0.0
 11
5265.5604810775303122
 21
507.6320852683380735
 31
0.0
  0
ARC
  5
18909
  8
0
 10
5270.2840647694802101
 20
504.2581837468530921
 30
0.0
 40
5.1616693089850951
 50
162.5810905938866995
 51
168.662928925249588
  0
LINE
  5
1890A
  8
0
 10
5265.3766932444741542
 20
505.8076563584580185
 30
0.0
 11
5265.5775996450593084
 21
507.6320852683380735
 31
0.0
  0
ARC
  5
1890B
  8
0
 10
5270.3016565734833421
 20
504.2624812022904166
 30
0.0
 40
5.1616693089850951
 50
162.5810905938866995
 51
169.7034605718289129
  0
LINE
  5
1890C
  8
0
 10
5265.4129192677028186
 20
505.8039456297943275
 30
0.0
 11
5265.6142342943167023
 21
507.6320852683380735
 31
0.0
  0
ARC
  5
1890D
  8
0
 10
5270.3378825967120065
 20
504.2587704736266119
 30
0.0
 40
5.1616693089850951
 50
162.5810905938866995
 51
172.2616541199718938
  0
LINE
  5
1890E
  8
0
 10
5265.5114938995329794
 20
505.8026197589965136
 30
0.0
 11
5265.7129549312494419
 21
507.6320852683380735
 31
0.0
  0
ARC
  5
1890F
  8
0
 10
5270.4364572285421673
 20
504.2574446028289117
 30
0.0
 40
5.1616693089850951
 50
162.5810905938866995
 51
172.3653622334715863
  0
LINE
  5
18910
  8
0
 10
5265.5477199227616438
 20
505.7989090303327089
 30
0.0
 11
5265.7495895805059263
 21
507.6320852683380735
 31
0.0
  0
ARC
  5
18911
  8
0
 10
5270.4726832517708317
 20
504.2537338741649933
 30
0.0
 40
5.1616693089850951
 50
162.5810905938866995
 51
172.3238018241513032
  0
LINE
  5
18912
  8
0
 10
5265.5829423971199503
 20
505.7996182243796852
 30
0.0
 11
5265.7847339583031498
 21
507.6320852683380735
 31
0.0
  0
ARC
  5
18913
  8
0
 10
5270.5079057261291382
 20
504.2544430682120264
 30
0.0
 40
5.1616693089850951
 50
162.5810905938866995
 51
172.3317451583259015
  0
LINE
  5
18914
  8
0
 10
5265.6191684203504337
 20
505.7959074957158805
 30
0.0
 11
5265.8213686075614532
 21
507.6320852683380735
 31
0.0
  0
ARC
  5
18915
  8
0
 10
5270.5441317493587121
 20
504.2507323395482217
 30
0.0
 40
5.1616693089850951
 50
162.5810905938866995
 51
172.2901814638049132
  0
LINE
  5
18916
  8
0
 10
5265.6394101192290691
 20
505.7848745083766744
 30
0.0
 11
5265.8428252607536706
 21
507.6320852683380735
 31
0.0
  0
ARC
  5
18917
  8
0
 10
5270.5643734482373475
 20
504.2396993522090725
 30
0.0
 40
5.1616693089850951
 50
162.5810905938866995
 51
172.1665772967390922
  0
LINE
  5
18918
  8
0
 10
5265.6756361424577335
 20
505.7811637797129833
 30
0.0
 11
5265.879459910011974
 21
507.6320852683380735
 31
0.0
  0
ARC
  5
18919
  8
0
 10
5270.6005994714669214
 20
504.2359886235453814
 30
0.0
 40
5.1616693089850951
 50
162.5810905938866995
 51
172.1249972458035131
  0
LINE
  5
1891A
  8
0
 10
5265.7118601155234501
 20
505.7868776488219282
 30
0.0
 11
5265.9150546709051923
 21
507.6320852683380735
 31
0.0
  0
ARC
  5
1891B
  8
0
 10
5270.636823444532638
 20
504.2417024926542126
 30
0.0
 40
5.1616693089850951
 50
162.5810905938866995
 51
172.1890214800862964
  0
LINE
  5
1891C
  8
0
 10
5265.748086138753024
 20
505.7831669201581803
 30
0.0
 11
5265.9515012802776255
 21
507.6303776801195795
 31
0.0
  0
ARC
  5
1891D
  8
0
 10
5270.6730494677613024
 20
504.2379917639904079
 30
0.0
 40
5.1616693089850951
 50
162.5810905938866995
 51
172.1474436728150863
  0
LINE
  5
1891E
  8
0
 10
5265.7787925489992631
 20
505.7855429290103189
 30
0.0
 11
5265.9822076905238646
 21
507.632753688971718
 31
0.0
  0
ARC
  5
1891F
  8
0
 10
5270.703755878008451
 20
504.2403677728426032
 30
0.0
 40
5.1616693089850951
 50
162.5810905938866995
 51
172.1665772967390922
  0
LINE
  5
18920
  8
0
 10
5265.8150185722279275
 20
505.7818322003465141
 30
0.0
 11
5266.0187687331963389
 21
507.6320852683380735
 31
0.0
  0
ARC
  5
18921
  8
0
 10
5270.7399819012371154
 20
504.2366570441789122
 30
0.0
 40
5.1616693089850951
 50
162.5810905938866995
 51
172.132487447260786
  0
LINE
  5
18922
  8
0
 10
5265.8450788080690472
 20
505.7828374230571171
 30
0.0
 11
5266.0487182737515468
 21
507.6320852683380735
 31
0.0
  0
ARC
  5
18923
  8
0
 10
5270.7700421370773256
 20
504.2376622668895152
 30
0.0
 40
5.1616693089850951
 50
162.5810905938866995
 51
172.1437515375380087
  0
LINE
  5
18924
  8
0
 10
5265.8813048312977116
 20
505.7791266943934261
 30
0.0
 11
5266.0853529230089407
 21
507.6320852683380735
 31
0.0
  0
ARC
  5
18925
  8
0
 10
5270.80626816030599
 20
504.2339515382257105
 30
0.0
 40
5.1616693089850951
 50
162.5810905938866995
 51
172.1021691979806008
  0
LINE
  5
18926
  8
0
 10
5265.9243487972944422
 20
505.777023919488272
 30
0.0
 11
5266.1286284469097154
 21
507.6320852683380735
 31
0.0
  0
ARC
  5
18927
  8
0
 10
5270.8493121263009016
 20
504.2318487633206132
 30
0.0
 40
5.1616693089850951
 50
162.5810905938866995
 51
172.0786036940035899
  0
LINE
  5
18928
  8
0
 10
5265.9605748205221971
 20
505.7733131908245241
 30
0.0
 11
5266.1652630961680188
 21
507.6320852683380735
 31
0.0
  0
ARC
  5
18929
  8
0
 10
5270.885538149531385
 20
504.2281380346568085
 30
0.0
 40
5.1616693089850951
 50
162.5810905938866995
 51
172.0370147847293083
  0
LINE
  5
1892A
  8
0
 10
5265.9915319537985852
 20
505.775169976886616
 30
0.0
 11
5266.1958932948618894
 21
507.6309731648887009
 31
0.0
  0
ARC
  5
1892B
  8
0
 10
5270.9164952828086825
 20
504.2299948207189004
 30
0.0
 40
5.1616693089850951
 50
162.5810905938866995
 51
172.0578257002011071
  0
LINE
  5
1892C
  8
0
 10
5266.0277579770290686
 20
505.7714592482228113
 30
0.0
 11
5266.2030042330534343
 21
507.3628686553336138
 31
0.0
  0
ARC
  5
1892D
  8
0
 10
5270.9527213060382564
 20
504.2262840920552094
 30
0.0
 40
5.1616693089850951
 50
162.5810905938866995
 51
172.016234683862308
  0
LINE
  5
1892E
  8
0
 10
5266.0686960023949723
 20
505.7733658006512201
 30
0.0
 11
5266.2030042330534343
 21
506.9930174301434249
 31
0.0
  0
ARC
  5
1892F
  8
0
 10
5270.9936593314032507
 20
504.2281906444835045
 30
0.0
 40
5.1616693089850951
 50
162.5810905938866995
 51
172.0376044518284004
  0
LINE
  5
18930
  8
0
 10
5266.1049220256245462
 20
505.7696550719874722
 30
0.0
 11
5266.2030042330534343
 21
506.6603385656850946
 31
0.0
  0
ARC
  5
18931
  8
0
 10
5271.0298853546319151
 20
504.2244799158198134
 30
0.0
 40
5.1616693089850951
 50
162.5810905938866995
 51
171.9960113794219012
  0
LINE
  5
18932
  8
0
 10
5266.1358791589009343
 20
505.7715118580495073
 30
0.0
 11
5266.2030042330534343
 21
506.3810739501728904
 31
0.0
  0
ARC
  5
18933
  8
0
 10
5271.0608424879101221
 20
504.2263367018819054
 30
0.0
 40
5.1616693089850951
 50
162.5810905938866995
 51
172.016824380921804
  0
LINE
  5
18934
  8
0
 10
5266.1721051821295987
 20
505.7678011293858162
 30
0.0
 11
5266.2030042330534343
 21
506.0483950857145032
 31
0.0
  0
ARC
  5
18935
  8
0
 10
5271.0970685111396961
 20
504.2226259732181006
 30
0.0
 40
5.1616693089850951
 50
162.5810905938866995
 51
171.9752291900157104
  0
LINE
  5
18936
  8
0
 10
5266.1912607366339216
 20
505.7755519260418851
 30
0.0
 11
5266.2030042330534343
 21
505.8821944934671819
 31
0.0
  0
ARC
  5
18937
  8
0
 10
5271.1162240656431095
 20
504.2303767698742831
 30
0.0
 40
5.1616693089850951
 50
162.5810905938866995
 51
172.0621064672575073
  0
ARC
  5
18938
  8
0
 10
5271.1524500888726834
 20
504.2266660412105921
 30
0.0
 40
5.1616693089850951
 50
163.513115836837386
 51
172.0205158854867022
  0
ARC
  5
18939
  8
0
 10
5271.1834072221490715
 20
504.2285228272726272
 30
0.0
 40
5.1616693089850951
 50
164.7706868173183921
 51
172.041327639006596
  0
ARC
  5
1893A
  8
0
 10
5271.2196332453786454
 20
504.2248120986088793
 30
0.0
 40
5.1616693089850951
 50
166.3852674077961922
 51
171.9997349455678943
  0
ARC
  5
1893B
  8
0
 10
5271.2410774290683548
 20
504.2213928898647168
 30
0.0
 40
5.1616693089850951
 50
167.4363631252049061
 51
171.9614060746064013
  0
ARC
  5
1893C
  8
0
 10
5271.2650481588407274
 20
504.2197333853832788
 30
0.0
 40
5.1616693089850951
 50
168.7246883269444879
 51
171.9428019479015859
  0
ARC
  5
1893D
  8
0
 10
5271.2881324225054414
 20
504.1891225892803732
 30
0.0
 40
5.1616693089850951
 50
170.1206565856564907
 51
171.5994794309324902
  0
ARC
  5
1893E
  8
0
 10
5265.7137460727672078
 20
504.2282012683381822
 30
0.0
 40
0.4909999999999997
 50
180.0
 51
0.0
  0
ARC
  5
1893F
  8
0
 10
5265.7137460727672078
 20
504.2282012683381822
 30
0.0
 40
0.5310000000000005
 50
157.6187114863830914
 51
22.3812885136168589
  0
LINE
  5
18940
  8
0
 10
5265.2227460727672224
 20
504.2282012683381822
 30
0.0
 11
5265.2227460727672224
 21
504.9232012683381754
 31
0.0
  0
ARC
  5
18941
  8
0
 10
5265.2427460727658399
 20
504.9232012683381754
 30
0.0
 40
0.02
 50
90.0
 51
180.0
  0
LINE
  5
18942
  8
0
 10
5266.2047460727671933
 20
504.2282012683381822
 30
0.0
 11
5266.2047460727671933
 21
504.9232012683381754
 31
0.0
  0
ARC
  5
18943
  8
0
 10
5266.1847460727667567
 20
504.9232012683381754
 30
0.0
 40
0.02
 50
0.0
 51
90.0
  0
ENDSEC
  0
EOF
