  0
SECTION
  2
HEADER
  9
$ACADVER
  1
AC1009
  9
$INSBASE
 10
6013.5446891084247909
 20
-37.4813536060099324
 30
0.0
  9
$EXTMIN
 10
5978.7359388969271095
 20
-55.9852748186939095
 30
-0.0000000349181948
  9
$EXTMAX
 10
6048.4138662404257047
 20
-18.9803439049046787
 30
0.0000000814935746
  9
$LIMMIN
 10
0.0
 20
0.0
  9
$LIMMAX
 10
11.6929133858000007
 20
8.2677165353999982
  9
$ORTHOMODE
 70
     0
  9
$REGENMODE
 70
     1
  9
$FILLMODE
 70
     1
  9
$QTEXTMODE
 70
     0
  9
$MIRRTEXT
 70
     0
  9
$DRAGMODE
 70
     2
  9
$LTSCALE
 40
0.6431102362
  9
$OSMODE
 70
  4095
  9
$ATTMODE
 70
     1
  9
$TEXTSIZE
 40
0.2
  9
$TRACEWID
 40
0.05
  9
$TEXTSTYLE
  7
STANDARD
  9
$CLAYER
  8
0
  9
$CELTYPE
  6
BYLAYER
  9
$CECOLOR
 62
   256
  9
$DIMSCALE
 40
1.0
  9
$DIMASZ
 40
0.1875
  9
$DIMEXO
 40
0.0625
  9
$DIMDLI
 40
0.4443307087
  9
$DIMRND
 40
0.0
  9
$DIMDLE
 40
0.0
  9
$DIMEXE
 40
0.125
  9
$DIMTP
 40
0.01
  9
$DIMTM
 40
0.01
  9
$DIMTXT
 40
2.0
  9
$DIMCEN
 40
0.1052362205
  9
$DIMTSZ
 40
0.0
  9
$DIMTOL
 70
     1
  9
$DIMLIM
 70
     0
  9
$DIMTIH
 70
     1
  9
$DIMTOH
 70
     1
  9
$DIMSE1
 70
     0
  9
$DIMSE2
 70
     0
  9
$DIMTAD
 70
     0
  9
$DIMZIN
 70
     0
  9
$DIMBLK
  1

  9
$DIMASO
 70
     1
  9
$DIMSHO
 70
     1
  9
$DIMPOST
  1
\X
  9
$DIMAPOST
  1

  9
$DIMALT
 70
     1
  9
$DIMALTD
 70
     2
  9
$DIMALTF
 40
25.3999999999999986
  9
$DIMLFAC
 40
1.0
  9
$DIMTOFL
 70
     0
  9
$DIMTVP
 40
0.0
  9
$DIMTIX
 70
     0
  9
$DIMSOXD
 70
     0
  9
$DIMSAH
 70
     0
  9
$DIMBLK1
  1

  9
$DIMBLK2
  1

  9
$DIMSTYLE
  2
STANDARD
  9
$DIMCLRD
 70
     0
  9
$DIMCLRE
 70
     0
  9
$DIMCLRT
 70
     0
  9
$DIMTFAC
 40
1.0
  9
$DIMGAP
 40
0.09
  9
$LUNITS
 70
     2
  9
$LUPREC
 70
     4
  9
$SKETCHINC
 40
0.1
  9
$FILLETRAD
 40
0.0
  9
$AUNITS
 70
     0
  9
$AUPREC
 70
     0
  9
$MENU
  1
.
  9
$ELEVATION
 40
0.0
  9
$PELEVATION
 40
0.0
  9
$THICKNESS
 40
0.0
  9
$LIMCHECK
 70
     0
  9
$BLIPMODE
 70
     0
  9
$CHAMFERA
 40
0.0
  9
$CHAMFERB
 40
0.0
  9
$SKPOLY
 70
     0
  9
$TDCREATE
 40
2458060.468368056230247
  9
$TDUPDATE
 40
2460889.5835879631340504
  9
$TDINDWG
 40
0.7411413194000001
  9
$TDUSRTIMER
 40
0.7411413194000001
  9
$USRTIMER
 70
     1
  9
$ANGBASE
 50
0.0
  9
$ANGDIR
 70
     0
  9
$PDMODE
 70
     0
  9
$PDSIZE
 40
0.3125
  9
$PLINEWID
 40
0.0
  9
$COORDS
 70
     1
  9
$SPLFRAME
 70
     0
  9
$SPLINETYPE
 70
     6
  9
$SPLINESEGS
 70
     8
  9
$ATTDIA
 70
     1
  9
$ATTREQ
 70
     1
  9
$HANDLING
 70
     1
  9
$HANDSEED
  5
24FF5
  9
$SURFTAB1
 70
     6
  9
$SURFTAB2
 70
     6
  9
$SURFTYPE
 70
     6
  9
$SURFU
 70
     6
  9
$SURFV
 70
     6
  9
$UCSNAME
  2

  9
$UCSORG
 10
0.0
 20
0.0
 30
0.0
  9
$UCSXDIR
 10
1.0
 20
0.0
 30
0.0
  9
$UCSYDIR
 10
0.0
 20
1.0
 30
0.0
  9
$PUCSNAME
  2

  9
$PUCSORG
 10
0.0
 20
0.0
 30
0.0
  9
$PUCSXDIR
 10
1.0
 20
0.0
 30
0.0
  9
$PUCSYDIR
 10
0.0
 20
1.0
 30
0.0
  9
$USERI1
 70
     0
  9
$USERI2
 70
     0
  9
$USERI3
 70
     0
  9
$USERI4
 70
     0
  9
$USERI5
 70
     0
  9
$USERR1
 40
0.0
  9
$USERR2
 40
0.0
  9
$USERR3
 40
0.0
  9
$USERR4
 40
0.0
  9
$USERR5
 40
0.0
  9
$WORLDVIEW
 70
     1
  9
$SHADEDGE
 70
     3
  9
$SHADEDIF
 70
    70
  9
$TILEMODE
 70
     1
  9
$MAXACTVP
 70
    64
  9
$PLIMCHECK
 70
     0
  9
$PEXTMIN
 10
1.0000000000000000E+20
 20
1.0000000000000000E+20
 30
1.0000000000000000E+20
  9
$PEXTMAX
 10
-1.0000000000000000E+20
 20
-1.0000000000000000E+20
 30
-1.0000000000000000E+20
  9
$PLIMMIN
 10
0.0
 20
0.0
  9
$PLIMMAX
 10
12.0
 20
9.0
  9
$UNITMODE
 70
     0
  9
$VISRETAIN
 70
     1
  9
$PLINEGEN
 70
     0
  9
$PSLTSCALE
 70
     1
  0
ENDSEC
  0
SECTION
  2
TABLES
  0
TABLE
  2
VPORT
 70
     1
  0
VPORT
  2
*ACTIVE
 70
     0
 10
0.0
 20
0.0
 11
1.0
 21
1.0
 12
2221.2169924124259524
 22
-157.6634657949047948
 13
0.0
 23
0.0
 14
1.0
 24
1.0
 15
0.0
 25
0.0
 16
0.0
 26
0.0
 36
5.1040778033513332
 17
3792.35791015625
 27
120.1806564331053977
 37
0.0
 40
37.2753688985428724
 41
2.2939024390243898
 42
50.0
 43
0.0
 44
0.0
 50
0.0
 51
0.0
 71
     0
 72
   100
 73
     1
 74
     1
 75
     0
 76
     0
 77
     0
 78
     0
  0
ENDTAB
  0
TABLE
  2
LTYPE
 70
     2
  0
LTYPE
  2
CONTINUOUS
 70
     0
  3
Solid line
 72
    65
 73
     0
 40
0.0
  0
LTYPE
  2
PHANTOM2
 70
     0
  3
___ _ _ ___ _ _ ___ _ _ ___ _ _
 72
    65
 73
     6
 40
1.25
 49
0.625
 49
-0.125
 49
0.125
 49
-0.125
 49
0.125
 49
-0.125
  0
ENDTAB
  0
TABLE
  2
LAYER
 70
     2
  0
LAYER
  2
0
 70
     0
 62
   255
  6
CONTINUOUS
  0
LAYER
  2
DEFPOINTS
 70
     0
 62
     7
  6
CONTINUOUS
  0
ENDTAB
  0
TABLE
  2
STYLE
 70
     1
  0
STYLE
  2
STANDARD
 70
     0
 40
0.0
 41
0.8
 50
0.0
 71
     0
 42
0.2
  3
txt
  4

  0
ENDTAB
  0
TABLE
  2
VIEW
 70
     0
  0
ENDTAB
  0
TABLE
  2
UCS
 70
     0
  0
ENDTAB
  0
TABLE
  2
APPID
 70
    10
  0
APPID
  2
ACAD
 70
     0
  0
APPID
  2
ACAD_MLEADERVER
 70
     0
  0
APPID
  2
ACAD_EXEMPT_FROM_CAD_STANDARDS
 70
     0
  0
APPID
  2
ACAD_NAV_VCDISPLAY
 70
     0
  0
APPID
  2
ACAECLAYERSTANDARD
 70
     0
  0
APPID
  2
ACCMTRANSPARENCY
 70
     0
  0
APPID
  2
ACAD_DSTYLE_DIMJAG
 70
     0
  0
APPID
  2
ACAD_DSTYLE_DIMTALN
 70
     0
  0
APPID
  2
ACDBATTR
 70
     0
  0
APPID
  2
ACLAYERTOOLS
 70
     0
  0
ENDTAB
  0
TABLE
  2
DIMSTYLE
 70
     1
  0
DIMSTYLE
  2
STANDARD
 70
     0
  3

  4

  5

  6

  7

 40
1.0
 41
0.1875
 42
0.0625
 43
0.38
 44
0.125
 45
0.0
 46
0.0
 47
0.01
 48
0.01
140
0.15625
141
0.09
142
0.0
143
25.3999999999999986
144
1.0
145
0.0
146
1.0
147
0.09
 71
     1
 72
     0
 73
     1
 74
     1
 75
     0
 76
     0
 77
     0
 78
     4
170
     0
171
     2
172
     0
173
     0
174
     0
175
     0
176
     0
177
     0
178
     0
  0
ENDTAB
  0
ENDSEC
  0
SECTION
  2
BLOCKS
  0
BLOCK
  8
0
  2
$MODEL_SPACE
 70
     0
 10
0.0
 20
0.0
 30
0.0
  3
$MODEL_SPACE
  1

  0
ENDBLK
  5
21
  8
0
  0
BLOCK
 67
     1
  8
0
  2
$PAPER_SPACE
 70
     0
 10
0.0
 20
0.0
 30
0.0
  3
$PAPER_SPACE
  1

  0
ENDBLK
  5
1D
 67
     1
  8
0
  0
BLOCK
  8
0
  2
_FILLED
 70
     0
 10
0.0
 20
0.0
 30
0.0
  3
_FILLED
  1

  0
SOLID
  5
1CA7B
  8
0
  6
BYBLOCK
 62
     0
 10
0.0
 20
0.0
 30
0.0
 11
-1.0
 21
0.1666666667
 31
0.0
 12
-1.0
 22
-0.1666666667
 32
0.0
 13
-1.0
 23
-0.1666666667
 33
0.0
  0
ENDBLK
  5
1CA7C
  8
0
  6
BYBLOCK
 62
     0
  0
ENDSEC
  0
SECTION
  2
ENTITIES
  0
ATTDEF
  5
3930
  8
DEFPOINTS
 10
6013.5374749737038655
 20
-37.4763527609840992
 30
0.0
 40
0.001
  1
P50045-00
  3

  2
MODELNUMBER
 70
     0
1001
ACDBATTR
1070
     0
1070
     1
  0
ATTDEF
  5
3931
  8
DEFPOINTS
 10
6013.5374749737038655
 20
-37.4780194276507714
 30
0.0
 40
0.001
  1
KALLISTA
  3

  2
BRANDNAME
 70
     0
1001
ACDBATTR
1070
     0
1070
     1
  0
ATTDEF
  5
3932
  8
DEFPOINTS
 10
6013.5374749737038655
 20
-37.4796860943174295
 30
0.0
 40
0.001
  1
BATH
  3

  2
PRODUCT
 70
     0
1001
ACDBATTR
1070
     0
1070
     1
  0
LINE
  5
24BBB
  8
0
 10
5979.7946890904458996
 20
-18.9813536060099288
 30
0.0
 11
6047.2946890904458996
 21
-18.9813536060099288
 31
0.0
  0
LINE
  5
24BBC
  8
0
 10
5979.0446890904458996
 20
-19.7313536060099288
 30
0.0
 11
5979.0446890904458996
 21
-55.2313536060099182
 31
0.0
  0
LINE
  5
24BBD
  8
0
 10
5979.7946890904458996
 20
-55.9813536060099182
 30
0.0
 11
6047.2946890904458996
 21
-55.9813536060099182
 31
0.0
  0
LINE
  5
24BBE
  8
0
 10
6048.0446890904458996
 20
-55.2313536060099182
 30
0.0
 11
6048.0446890904458996
 21
-19.7313536060099288
 31
0.0
  0
ARC
  5
24BBF
  8
0
 10
5979.7946890904458996
 20
-19.7313536060099111
 30
0.0
 40
0.75
 50
90.0
 51
180.0000000000011937
  0
ARC
  5
24BC0
  8
0
 10
5979.7946890904458996
 20
-55.2313536060099111
 30
0.0
 40
0.75
 50
180.0000000000011937
 51
270.0
  0
ARC
  5
24BC1
  8
0
 10
6047.2946890904458996
 20
-55.2313536060099111
 30
0.0
 40
0.75
 50
270.0
 51
359.9999999999988063
  0
ARC
  5
24BC2
  8
0
 10
6047.2946890904458996
 20
-19.7313536060099288
 30
0.0
 40
0.75
 50
0.0
 51
90.0
  0
LINE
  5
24BC3
  8
0
 10
6040.2167772433140271
 20
-23.2362318429099304
 30
0.0
 11
5986.8732214248793753
 21
-23.2362318429099304
 31
0.0
  0
LINE
  5
24BC4
  8
0
 10
5984.8230214248796983
 20
-25.2864301384027499
 30
0.0
 11
5984.8230011475097854
 21
-49.6762736675027412
 31
0.0
  0
ARC
  5
24BC5
  8
0
 10
5986.8732011475103718
 20
-49.6762753720099326
 30
0.0
 40
2.0501999999999989
 50
179.9999523651021889
 51
270.0
  0
LINE
  5
24BC6
  8
0
 10
6042.2669772426506825
 20
-25.2864839729479698
 30
0.0
 11
6042.2663570868271563
 21
-49.6763275020479611
 31
0.0
  0
LINE
  5
24BC7
  8
0
 10
5986.8732011475103718
 20
-51.7264753720099293
 30
0.0
 11
6040.2161570874914105
 21
-51.7264753720099293
 31
0.0
  0
ARC
  5
24BC8
  8
0
 10
6040.2161570874914105
 20
-49.6762753720099326
 30
0.0
 40
2.0501999999999989
 50
270.0
 51
359.9985431513190974
  0
ARC
  5
24BC9
  8
0
 10
6040.2167772433140271
 20
-25.2864318429099093
 30
0.0
 40
2.0501999999999989
 50
359.9985431513183016
 51
90.0
  0
ARC
  5
24BCA
  8
0
 10
5986.8732214248793753
 20
-25.2864318429099413
 30
0.0
 40
2.0501999999999989
 50
90.0
 51
179.999952365101791
  0
ARC
  5
24BCB
  8
0
 10
6013.4850918832526077
 20
1905.5784363880341061
 30
0.0
 40
1930.2514128823870578
 50
269.3671824050957753
 51
270.6363521999907107
  0
ARC
  5
24BCC
  8
0
 10
6034.9450027689081253
 20
-26.5462036512789687
 30
0.0
 40
1.9923999999999991
 50
0.0286361436123871
 51
90.6363521999907533
  0
ARC
  5
24BCD
  8
0
 10
5992.1443747663597605
 20
-26.5475238472712896
 30
0.0
 40
1.9923999999999991
 50
89.3671824050958463
 51
179.971363861694698
  0
LINE
  5
24BCE
  8
0
 10
6036.9374025200622782
 20
-26.5452078597801311
 30
0.0
 11
6036.9483435637030198
 21
-48.4362690437404666
 31
0.0
  0
LINE
  5
24BCF
  8
0
 10
5990.1519750152046981
 20
-26.5465280559570083
 30
0.0
 11
5990.1410346331631445
 21
-48.4362695567168728
 31
0.0
  0
LINE
  5
24BD0
  8
0
 10
6034.7539707303467367
 20
-50.4208906166099311
 30
0.0
 11
5992.3354239060381587
 21
-50.4208906282171228
 31
0.0
  0
ARC
  5
24BD1
  8
0
 10
5992.135664104605894
 20
-48.4362892197566097
 30
0.0
 40
1.994629471538975
 50
179.9994351787107973
 51
275.7477406461869123
  0
ARC
  5
24BD2
  8
0
 10
6034.7330050248037878
 20
-51.1738168340089388
 30
0.0
 40
0.75321806248635
 50
85.3425679406811071
 51
88.4049750361903079
  0
ARC
  5
24BD3
  8
0
 10
6034.9559438125488668
 20
-48.4372648352392972
 30
0.0
 40
1.9923999999999991
 50
265.3425679406811923
 51
0.0286361436123871
  0
CIRCLE
  5
24BD4
  8
0
 10
6013.5446890904468091
 20
-28.0813536060099302
 30
0.0
 40
1.1249999999999949
  0
CIRCLE
  5
24BD5
  8
0
 10
6013.5446890904468091
 20
-28.0813536060099302
 30
0.0
 40
1.564350288399998
  0
ARC
  5
24BD7
  8
0
 10
6013.5454631797583716
 20
-36.972271349314191
 30
0.0
 40
13.6456097007797492
 50
85.5248040980135187
 51
94.4959480114299168
  0
ARC
  5
24BD8
  8
0
 10
6013.5446715449634212
 20
-9.8463356044084094
 30
0.0
 40
13.6547172398949002
 50
265.5209000578016116
 51
274.4755805979467027
  0
ARC
  5
24BD9
  8
0
 10
6014.5467659211517457
 20
-24.1552296551875401
 30
0.0
 40
0.7895174885308617
 50
72.6209375859184831
 51
85.3918640451318254
  0
ARC
  5
24BDA
  8
0
 10
6014.7780424150241743
 20
-23.4183996631471203
 30
0.0
 40
0.0172552959663176
 50
15.2628129648524808
 51
74.7244157533192634
  0
ARC
  5
24BDB
  8
0
 10
6014.5474363097846435
 20
-22.6751368730494107
 30
0.0
 40
0.7867863185856491
 50
274.5759499197856144
 51
287.3901568832168891
  0
ARC
  5
24BDC
  8
0
 10
6014.7780424150241743
 20
-23.4093148546727399
 30
0.0
 40
0.0172552959663176
 50
285.2755842466806939
 51
344.7371870351474854
  0
ARC
  5
24BDD
  8
0
 10
6012.5082276938119321
 20
-23.982992703595361
 30
0.0
 40
0.615196958928829
 50
93.0212394727917911
 51
109.0837816471155008
  0
ARC
  5
24BDE
  8
0
 10
6012.3117344464480993
 20
-23.4179513812857607
 30
0.0
 40
0.0169927031128699
 50
105.8661355070672982
 51
171.7746627256368868
  0
ARC
  5
24BDF
  8
0
 10
6012.5352789317294082
 20
-22.7167339754819899
 30
0.0
 40
0.7447985066558883
 50
251.9920969278051928
 51
265.6124741728730783
  0
ARC
  5
24BE0
  8
0
 10
6012.3128667856362881
 20
-23.4066008026340313
 30
0.0
 40
0.0200441611974086
 50
206.4228228318112883
 51
246.9718151768963992
  0
ENDSEC
  0
EOF
