  0
SECTION
  2
HEADER
  9
$ACADVER
  1
AC1009
  9
$INSBASE
 10
3537.4121249780469043
 20
309.3260651754512764
 30
0.0
  9
$EXTMIN
 10
3502.7238999132150639
 20
290.8226208246059059
 30
-0.0015258207003583
  9
$EXTMAX
 10
3571.946610883611811
 20
327.8395007700074189
 30
0.0000000349246037
  9
$LIMMIN
 10
0.0
 20
0.0
  9
$LIMMAX
 10
11.6929133858000007
 20
8.2677165353999982
  9
$ORTHOMODE
 70
     0
  9
$REGENMODE
 70
     1
  9
$FILLMODE
 70
     1
  9
$QTEXTMODE
 70
     0
  9
$MIRRTEXT
 70
     0
  9
$DRAGMODE
 70
     2
  9
$LTSCALE
 40
0.6431102362
  9
$OSMODE
 70
  4095
  9
$ATTMODE
 70
     1
  9
$TEXTSIZE
 40
0.2
  9
$TRACEWID
 40
0.05
  9
$TEXTSTYLE
  7
STANDARD
  9
$CLAYER
  8
0
  9
$CELTYPE
  6
BYLAYER
  9
$CECOLOR
 62
   256
  9
$DIMSCALE
 40
1.0
  9
$DIMASZ
 40
0.1875
  9
$DIMEXO
 40
0.0625
  9
$DIMDLI
 40
0.4443307087
  9
$DIMRND
 40
0.0
  9
$DIMDLE
 40
0.0
  9
$DIMEXE
 40
0.125
  9
$DIMTP
 40
0.01
  9
$DIMTM
 40
0.01
  9
$DIMTXT
 40
2.0
  9
$DIMCEN
 40
0.1052362205
  9
$DIMTSZ
 40
0.0
  9
$DIMTOL
 70
     1
  9
$DIMLIM
 70
     0
  9
$DIMTIH
 70
     1
  9
$DIMTOH
 70
     1
  9
$DIMSE1
 70
     0
  9
$DIMSE2
 70
     0
  9
$DIMTAD
 70
     0
  9
$DIMZIN
 70
     0
  9
$DIMBLK
  1

  9
$DIMASO
 70
     1
  9
$DIMSHO
 70
     1
  9
$DIMPOST
  1
\X
  9
$DIMAPOST
  1

  9
$DIMALT
 70
     1
  9
$DIMALTD
 70
     2
  9
$DIMALTF
 40
25.3999999999999986
  9
$DIMLFAC
 40
1.0
  9
$DIMTOFL
 70
     0
  9
$DIMTVP
 40
0.0
  9
$DIMTIX
 70
     0
  9
$DIMSOXD
 70
     0
  9
$DIMSAH
 70
     0
  9
$DIMBLK1
  1

  9
$DIMBLK2
  1

  9
$DIMSTYLE
  2
STANDARD
  9
$DIMCLRD
 70
     0
  9
$DIMCLRE
 70
     0
  9
$DIMCLRT
 70
     0
  9
$DIMTFAC
 40
1.0
  9
$DIMGAP
 40
0.09
  9
$LUNITS
 70
     2
  9
$LUPREC
 70
     4
  9
$SKETCHINC
 40
0.1
  9
$FILLETRAD
 40
0.0
  9
$AUNITS
 70
     0
  9
$AUPREC
 70
     0
  9
$MENU
  1
.
  9
$ELEVATION
 40
0.0
  9
$PELEVATION
 40
0.0
  9
$THICKNESS
 40
0.0
  9
$LIMCHECK
 70
     0
  9
$BLIPMODE
 70
     0
  9
$CHAMFERA
 40
0.0
  9
$CHAMFERB
 40
0.0
  9
$SKPOLY
 70
     0
  9
$TDCREATE
 40
2458060.468368056230247
  9
$TDUPDATE
 40
2460889.5928240739740431
  9
$TDINDWG
 40
0.4626806713
  9
$TDUSRTIMER
 40
0.4626806713
  9
$USRTIMER
 70
     1
  9
$ANGBASE
 50
0.0
  9
$ANGDIR
 70
     0
  9
$PDMODE
 70
     0
  9
$PDSIZE
 40
0.3125
  9
$PLINEWID
 40
0.0
  9
$COORDS
 70
     1
  9
$SPLFRAME
 70
     0
  9
$SPLINETYPE
 70
     6
  9
$SPLINESEGS
 70
     8
  9
$ATTDIA
 70
     1
  9
$ATTREQ
 70
     1
  9
$HANDLING
 70
     1
  9
$HANDSEED
  5
DE81
  9
$SURFTAB1
 70
     6
  9
$SURFTAB2
 70
     6
  9
$SURFTYPE
 70
     6
  9
$SURFU
 70
     6
  9
$SURFV
 70
     6
  9
$UCSNAME
  2

  9
$UCSORG
 10
0.0
 20
0.0
 30
0.0
  9
$UCSXDIR
 10
1.0
 20
0.0
 30
0.0
  9
$UCSYDIR
 10
0.0
 20
1.0
 30
0.0
  9
$PUCSNAME
  2

  9
$PUCSORG
 10
0.0
 20
0.0
 30
0.0
  9
$PUCSXDIR
 10
1.0
 20
0.0
 30
0.0
  9
$PUCSYDIR
 10
0.0
 20
1.0
 30
0.0
  9
$USERI1
 70
     0
  9
$USERI2
 70
     0
  9
$USERI3
 70
     0
  9
$USERI4
 70
     0
  9
$USERI5
 70
     0
  9
$USERR1
 40
0.0
  9
$USERR2
 40
0.0
  9
$USERR3
 40
0.0
  9
$USERR4
 40
0.0
  9
$USERR5
 40
0.0
  9
$WORLDVIEW
 70
     1
  9
$SHADEDGE
 70
     3
  9
$SHADEDIF
 70
    70
  9
$TILEMODE
 70
     1
  9
$MAXACTVP
 70
    64
  9
$PLIMCHECK
 70
     0
  9
$PEXTMIN
 10
1.0000000000000000E+20
 20
1.0000000000000000E+20
 30
1.0000000000000000E+20
  9
$PEXTMAX
 10
-1.0000000000000000E+20
 20
-1.0000000000000000E+20
 30
-1.0000000000000000E+20
  9
$PLIMMIN
 10
0.0
 20
0.0
  9
$PLIMMAX
 10
12.0
 20
9.0
  9
$UNITMODE
 70
     0
  9
$VISRETAIN
 70
     1
  9
$PLINEGEN
 70
     0
  9
$PSLTSCALE
 70
     1
  0
ENDSEC
  0
SECTION
  2
TABLES
  0
TABLE
  2
VPORT
 70
     1
  0
VPORT
  2
*ACTIVE
 70
     0
 10
0.0
 20
0.0
 11
1.0
 21
1.0
 12
459.4653823515380964
 22
18.9646667543378911
 13
0.0
 23
0.0
 14
1.0
 24
1.0
 15
0.0
 25
0.0
 16
0.0
 26
0.0
 36
38.8639293105787971
 17
3077.869873046875
 27
290.3663940429686932
 37
0.0
 40
37.2736444305718777
 41
2.20949074074074
 42
50.0
 43
0.0
 44
0.0
 50
0.0
 51
0.0
 71
     0
 72
   100
 73
     1
 74
     1
 75
     0
 76
     0
 77
     0
 78
     0
  0
ENDTAB
  0
TABLE
  2
LTYPE
 70
     2
  0
LTYPE
  2
CONTINUOUS
 70
     0
  3
Solid line
 72
    65
 73
     0
 40
0.0
  0
LTYPE
  2
PHANTOM2
 70
     0
  3
___ _ _ ___ _ _ ___ _ _ ___ _ _
 72
    65
 73
     6
 40
1.25
 49
0.625
 49
-0.125
 49
0.125
 49
-0.125
 49
0.125
 49
-0.125
  0
ENDTAB
  0
TABLE
  2
LAYER
 70
     2
  0
LAYER
  2
0
 70
     0
 62
   255
  6
CONTINUOUS
  0
LAYER
  2
DEFPOINTS
 70
     0
 62
     7
  6
CONTINUOUS
  0
ENDTAB
  0
TABLE
  2
STYLE
 70
     1
  0
STYLE
  2
STANDARD
 70
     0
 40
0.0
 41
0.8
 50
0.0
 71
     0
 42
0.2
  3
txt
  4

  0
ENDTAB
  0
TABLE
  2
VIEW
 70
     0
  0
ENDTAB
  0
TABLE
  2
UCS
 70
     0
  0
ENDTAB
  0
TABLE
  2
APPID
 70
     9
  0
APPID
  2
ACAD
 70
     0
  0
APPID
  2
ACAD_MLEADERVER
 70
     0
  0
APPID
  2
ACAD_EXEMPT_FROM_CAD_STANDARDS
 70
     0
  0
APPID
  2
ACAD_NAV_VCDISPLAY
 70
     0
  0
APPID
  2
ACAECLAYERSTANDARD
 70
     0
  0
APPID
  2
ACCMTRANSPARENCY
 70
     0
  0
APPID
  2
ACAD_DSTYLE_DIMJAG
 70
     0
  0
APPID
  2
ACAD_DSTYLE_DIMTALN
 70
     0
  0
APPID
  2
ACDBATTR
 70
     0
  0
ENDTAB
  0
TABLE
  2
DIMSTYLE
 70
     1
  0
DIMSTYLE
  2
STANDARD
 70
     0
  3

  4

  5

  6

  7

 40
1.0
 41
0.1875
 42
0.0625
 43
0.38
 44
0.125
 45
0.0
 46
0.0
 47
0.01
 48
0.01
140
0.15625
141
0.09
142
0.0
143
25.3999999999999986
144
1.0
145
0.0
146
1.0
147
0.09
 71
     1
 72
     0
 73
     1
 74
     1
 75
     0
 76
     0
 77
     0
 78
     4
170
     0
171
     2
172
     0
173
     0
174
     0
175
     0
176
     0
177
     0
178
     0
  0
ENDTAB
  0
ENDSEC
  0
SECTION
  2
BLOCKS
  0
BLOCK
  8
0
  2
$MODEL_SPACE
 70
     0
 10
0.0
 20
0.0
 30
0.0
  3
$MODEL_SPACE
  1

  0
ENDBLK
  5
21
  8
0
  0
BLOCK
 67
     1
  8
0
  2
$PAPER_SPACE
 70
     0
 10
0.0
 20
0.0
 30
0.0
  3
$PAPER_SPACE
  1

  0
ENDBLK
  5
1D
 67
     1
  8
0
  0
BLOCK
  8
0
  2
_FILLED
 70
     0
 10
0.0
 20
0.0
 30
0.0
  3
_FILLED
  1

  0
SOLID
  5
A02F
  8
0
  6
BYBLOCK
 62
     0
 10
0.0
 20
0.0
 30
0.0
 11
-1.0
 21
0.1666666667
 31
0.0
 12
-1.0
 22
-0.1666666667
 32
0.0
 13
-1.0
 23
-0.1666666667
 33
0.0
  0
ENDBLK
  5
A030
  8
0
  6
BYBLOCK
 62
     0
  0
ENDSEC
  0
SECTION
  2
ENTITIES
  0
ATTDEF
  5
3930
  8
DEFPOINTS
 10
3537.4016421648939286
 20
309.3272655684310735
 30
0.0
 40
0.001
  1
P50045-G5
  3

  2
MODELNUMBER
 70
     0
1001
ACDBATTR
1070
     0
1070
     1
  0
ATTDEF
  5
3931
  8
DEFPOINTS
 10
3537.4016421648939286
 20
309.3255989017644083
 30
0.0
 40
0.001
  1
KALLISTA
  3

  2
BRANDNAME
 70
     0
1001
ACDBATTR
1070
     0
1070
     1
  0
ATTDEF
  5
3932
  8
DEFPOINTS
 10
3537.4016421648939286
 20
309.3239322350976863
 30
0.0
 40
0.001
  1
BATH
  3

  2
PRODUCT
 70
     0
1001
ACDBATTR
1070
     0
1070
     1
  0
LINE
  5
D712
  8
0
 10
3503.6621249600689225
 20
327.8260651754512764
 30
0.0
 11
3571.1621249600689225
 21
327.8260651754512764
 31
0.0
  0
LINE
  5
D713
  8
0
 10
3502.9121249600689225
 20
327.0760651754513901
 30
0.0
 11
3502.9121249600689225
 21
291.5760651754513901
 31
0.0
  0
LINE
  5
D714
  8
0
 10
3503.6621249600689225
 20
290.8260651754512764
 30
0.0
 11
3571.1621249600689225
 21
290.8260651754512764
 31
0.0
  0
LINE
  5
D715
  8
0
 10
3571.9121249600689225
 20
291.5760651754513901
 30
0.0
 11
3571.9121249600689225
 21
327.0760651754513901
 31
0.0
  0
ARC
  5
D716
  8
0
 10
3503.6621249600689225
 20
327.0760651754513901
 30
0.0
 40
0.75
 50
90.0
 51
180.0
  0
ARC
  5
D717
  8
0
 10
3503.6621249600689225
 20
291.5760651754513901
 30
0.0
 40
0.75
 50
180.0
 51
270.0
  0
ARC
  5
D718
  8
0
 10
3571.1621249600689225
 20
291.5760651754513901
 30
0.0
 40
0.75
 50
270.0
 51
0.0
  0
ARC
  5
D719
  8
0
 10
3571.1621249600689225
 20
327.0760651754513901
 30
0.0
 40
0.75
 50
0.0
 51
90.0
  0
LINE
  5
D71A
  8
0
 10
3564.08421311293705
 20
323.5711869385513069
 30
0.0
 11
3510.7406572945010339
 21
323.5711869385513069
 31
0.0
  0
LINE
  5
D71B
  8
0
 10
3508.6904572945018117
 20
321.5209886430585016
 30
0.0
 11
3508.6904370171328083
 21
297.131145113958496
 31
0.0
  0
ARC
  5
D71C
  8
0
 10
3510.7406370171320305
 20
297.1311434094512833
 30
0.0
 40
2.0501999999999989
 50
179.9999523651013931
 51
270.0
  0
LINE
  5
D71D
  8
0
 10
3566.1344131122741601
 20
321.5209348085132888
 30
0.0
 11
3566.1337929564501792
 21
297.1310912794132832
 31
0.0
  0
LINE
  5
D71E
  8
0
 10
3510.7406370171320305
 20
295.0809434094513222
 30
0.0
 11
3564.0835929571130691
 21
295.0809434094513222
 31
0.0
  0
ARC
  5
D71F
  8
0
 10
3564.0835929571130691
 20
297.1311434094512833
 30
0.0
 40
2.0501999999999989
 50
270.0
 51
359.9985431513186995
  0
ARC
  5
D720
  8
0
 10
3564.08421311293705
 20
321.5209869385514025
 30
0.0
 40
2.0501999999999989
 50
359.9985431513186995
 51
90.0
  0
ARC
  5
D721
  8
0
 10
3510.7406572945010339
 20
321.5209869385514025
 30
0.0
 40
2.0501999999999989
 50
90.0
 51
179.9999523651013931
  0
ARC
  5
D722
  8
0
 10
3537.3525277528751758
 20
2252.3858551694961534
 30
0.0
 40
1930.2514128823870578
 50
269.3671824050957753
 51
270.6363521999647901
  0
ARC
  5
D723
  8
0
 10
3558.8124386385297839
 20
320.2612151301822792
 30
0.0
 40
1.9923999999999991
 50
0.0286361436136215
 51
90.6363521999907533
  0
ARC
  5
D724
  8
0
 10
3516.0118106359818739
 20
320.2598949341900152
 30
0.0
 40
1.9923999999999991
 50
89.3671824050958463
 51
179.9713638616950959
  0
LINE
  5
D725
  8
0
 10
3560.8048383896839368
 20
320.2622109216811168
 30
0.0
 11
3560.8157794333251331
 21
298.3711497377208275
 31
0.0
  0
LINE
  5
D726
  8
0
 10
3514.0194108848281758
 20
320.2608907255042254
 30
0.0
 11
3514.0084705027861673
 21
298.3711492247443857
 31
0.0
  0
LINE
  5
D727
  8
0
 10
3558.6214065999688501
 20
296.3865281648513132
 30
0.0
 11
3516.2028597756598174
 21
296.3865281532441145
 31
0.0
  0
ARC
  5
D728
  8
0
 10
3516.0030999742270978
 20
298.3711295617047199
 30
0.0
 40
1.994629471538975
 50
179.9994351787103994
 51
275.7477406461869123
  0
ARC
  5
D729
  8
0
 10
3558.6004408944259012
 20
295.6336019474522914
 30
0.0
 40
0.75321806248635
 50
85.342567940655087
 51
88.4049750361903506
  0
ARC
  5
D72A
  8
0
 10
3558.8233796821700707
 20
298.3701539462218761
 30
0.0
 40
1.9923999999999991
 50
265.3425679406551012
 51
0.0286361436136215
  0
CIRCLE
  5
D72B
  8
0
 10
3537.4121249600689225
 20
318.7260651754513106
 30
0.0
 40
1.1249999999999949
  0
CIRCLE
  5
D72C
  8
0
 10
3537.4121249600689225
 20
318.7260651754513106
 30
0.0
 40
1.564350288399998
  0
CIRCLE
  5
D72D
  8
0
 10
3537.4121249600689225
 20
318.7260651754513106
 30
0.0
 40
1.7925585539000031
  0
ARC
  5
D72E
  8
0
 10
3537.4128990493800302
 20
309.835147432147096
 30
0.0
 40
13.6456097007797492
 50
85.5248040980135471
 51
94.4959480114559511
  0
ARC
  5
D72F
  8
0
 10
3537.4121074145859893
 20
336.9610831770528989
 30
0.0
 40
13.6547172398949002
 50
265.5209000578277028
 51
274.4755805979207253
  0
ARC
  5
D730
  8
0
 10
3538.4142017907738591
 20
322.6521891262736972
 30
0.0
 40
0.7895174885308617
 50
72.6209375858937136
 51
85.3918640451317259
  0
ARC
  5
D731
  8
0
 10
3538.6454782846458329
 20
323.3890191183140814
 30
0.0
 40
0.0172552959663176
 50
15.2628129648456206
 51
74.7244157532942239
  0
ARC
  5
D732
  8
0
 10
3538.4148721794081212
 20
324.132281908411926
 30
0.0
 40
0.7867863185856491
 50
274.5759499197857281
 51
287.3901568832171165
  0
ARC
  5
D733
  8
0
 10
3538.6454782846458329
 20
323.398103926788508
 30
0.0
 40
0.0172552959663176
 50
285.2755842467058187
 51
344.7371870351544203
  0
ARC
  5
D734
  8
0
 10
3536.3756635634340455
 20
322.8244260778658941
 30
0.0
 40
0.615196958928829
 50
93.0212394727917058
 51
109.0837816471153019
  0
ARC
  5
D735
  8
0
 10
3536.1791703160688485
 20
323.3894674001754765
 30
0.0
 40
0.0169927031128699
 50
105.8661355070673977
 51
171.7746627256368868
  0
ARC
  5
D736
  8
0
 10
3536.4027148013510669
 20
324.0906848059793219
 30
0.0
 40
0.7447985066558883
 50
251.992096927829607
 51
265.6124741728730783
  0
ARC
  5
D737
  8
0
 10
3536.1803026552588562
 20
323.4008179788272059
 30
0.0
 40
0.0200441611974086
 50
206.4228228318237086
 51
246.9718151768963992
  0
ARC
  5
D738
  8
0
 10
3536.6040832324219991
 20
295.2133520765935941
 30
0.0
 40
0.0044689327508224
 50
138.864898635162092
 51
221.4613538789853919
  0
ARC
  5
D739
  8
0
 10
3537.4068205551748179
 20
285.706089663887326
 30
0.0
 40
9.5639446454323114
 50
86.1224640563546728
 51
93.5833547362657185
  0
ARC
  5
D73A
  8
0
 10
3537.9804218049589508
 20
294.1904043073723187
 30
0.0
 40
1.060263428595591
 50
78.6480609300458866
 51
86.0437762664990373
  0
ARC
  5
D73B
  8
0
 10
3538.1680585206449905
 20
295.1205595075131214
 30
0.0
 40
0.1113751943368592
 50
61.2242465039787902
 51
79.1001608841366703
  0
ARC
  5
D73C
  8
0
 10
3538.2190516054488398
 20
295.2134086356704188
 30
0.0
 40
0.0054447676530659
 50
304.5896921915928033
 51
61.2242465039543688
  0
ARC
  5
D73D
  8
0
 10
3537.5258072547158008
 20
295.1312479136097977
 30
0.0
 40
0.026500678525491
 50
67.5844095637745994
 51
79.2546941321781304
  0
ARC
  5
D73E
  8
0
 10
3537.5349158599260591
 20
295.1533299897949973
 30
0.0
 40
0.0026137620748155
 50
35.4416971207072109
 51
67.5844095638036606
  0
ARC
  5
D73F
  8
0
 10
3537.5365825352309912
 20
295.1545162607329758
 30
0.0
 40
0.0005680237458894
 50
313.1478434991590802
 51
35.4416971206788389
  0
ARC
  5
D740
  8
0
 10
3537.5287854083180719
 20
295.1665723722139205
 30
0.0
 40
0.0149170423224176
 50
277.5606809225644156
 51
303.2806652522075979
  0
ARC
  5
D741
  8
0
 10
3537.4121439872628798
 20
296.3269138267789913
 30
0.0
 40
1.181098921319615
 50
264.2348761729285229
 51
275.7632684054178753
  0
ARC
  5
D742
  8
0
 10
3537.2970649157550724
 20
295.1727779010374775
 30
0.0
 40
0.0212893349941869
 50
244.5573083866817967
 51
260.3652376573563743
  0
ARC
  5
D743
  8
0
 10
3537.2914187496730847
 20
295.1581339539351916
 30
0.0
 40
0.0057646939787854
 50
223.4848540123078919
 51
232.6179041412839013
  0
ARC
  5
D744
  8
0
 10
3537.2881234127107746
 20
295.1545513341599758
 30
0.0
 40
0.000966973957689
 50
105.2836429558460054
 51
203.4256023210625131
  0
ARC
  5
D745
  8
0
 10
3537.2970594363819146
 20
295.13643302610609
 30
0.0
 40
0.0211522265235876
 50
99.6827590451343468
 51
115.7543044065145068
  0
ARC
  5
D746
  8
0
 10
3536.6161270320399126
 20
295.2027333732673924
 30
0.0
 40
0.0205253568085738
 50
108.9497860191145975
 51
138.6562816656307007
  0
ARC
  5
D747
  8
0
 10
3536.8557018936239729
 20
294.2353703416310964
 30
0.0
 40
1.017035451864728
 50
92.6280629097603736
 51
104.0114445624915049
  0
ARC
  5
D748
  8
0
 10
3536.636723364792033
 20
295.2544819964596741
 30
0.0
 40
0.0569126336491029
 50
230.7756901896431998
 51
263.4760834239698966
  0
ARC
  5
D749
  8
0
 10
3536.9029812151648002
 20
296.6294406106945871
 30
0.0
 40
1.4572503120100631
 50
259.2135020038288076
 51
266.7095328577285045
  0
ARC
  5
D74A
  8
0
 10
3537.3463710558830826
 20
303.1089538094303748
 30
0.0
 40
7.951845646132905
 50
266.1997605837015044
 51
269.6190559346816826
  0
ARC
  5
D74B
  8
0
 10
3538.1882551828721262
 20
295.2564665175228242
 30
0.0
 40
0.0583817468207303
 50
279.0161353001005864
 51
305.4818482020642136
  0
ARC
  5
D74C
  8
0
 10
3537.9504290154541195
 20
296.4148251622123098
 30
0.0
 40
1.2408461300636899
 50
273.6357083636831931
 51
281.4806996908955057
  0
ARC
  5
D74D
  8
0
 10
3537.4853998442731609
 20
302.8149141318046986
 30
0.0
 40
7.657764485686533
 50
270.3393001807754104
 51
274.0715238483098801
  0
LINE
  5
D74E
  8
0
 10
3537.5307481353679577
 20
295.1572839206534127
 30
0.0
 11
3537.5307481351687784
 21
295.1517850176513207
 31
0.0
  0
LINE
  5
D74F
  8
0
 10
3537.2935017849690666
 20
295.1572839206513095
 30
0.0
 11
3537.2935017849690666
 21
295.1517888590514076
 31
0.0
  0
ARC
  5
D750
  8
0
 10
3520.2339583882271654
 20
296.3269383057677828
 30
0.0
 40
0.0002675886832895
 50
139.1564120734144012
 51
183.5114361722328908
  0
ARC
  5
D751
  8
0
 10
3520.2350068855771497
 20
296.3258164939492758
 30
0.0
 40
0.0018018173954781
 50
107.1474194634026986
 51
133.9681826450483868
  0
ARC
  5
D752
  8
0
 10
3520.2421653875999255
 20
296.3014803775358814
 30
0.0
 40
0.0271687896548167
 50
96.0054020137591948
 51
106.4414614343671985
  0
ARC
  5
D753
  8
0
 10
3520.2547218057679856
 20
296.2054942743041011
 30
0.0
 40
0.1239659234652592
 50
94.5043974236209152
 51
97.1356350524526846
  0
ARC
  5
D754
  8
0
 10
3520.2788771601299231
 20
295.8343315437397223
 30
0.0
 40
0.4959052075299061
 50
89.5974587777429434
 51
93.9187557635063541
  0
ARC
  5
D755
  8
0
 10
3520.2862080098989281
 20
295.9853554774074951
 30
0.0
 40
0.3448904887655578
 50
83.5867129548566936
 51
90.639074382545445
  0
ARC
  5
D756
  8
0
 10
3520.3236511454460924
 20
296.3197253047611071
 30
0.0
 40
0.0084319220766784
 50
62.6257512732778565
 51
82.634766031066647
  0
ARC
  5
D757
  8
0
 10
3520.3273969940091774
 20
296.3269511433600201
 30
0.0
 40
0.0002929002944429
 50
327.4148759404802718
 51
63.3985854451403128
  0
ARC
  5
D758
  8
0
 10
3520.3199356658251418
 20
296.3448485598958086
 30
0.0
 40
0.0196317070723364
 50
272.9137842768150222
 51
293.118646580780478
  0
ARC
  5
D759
  8
0
 10
3520.284021385304186
 20
296.7497525088252814
 30
0.0
 40
0.4261120580805205
 50
269.5521305767406943
 51
274.969511161755122
  0
ARC
  5
D75A
  8
0
 10
3520.2769209708949347
 20
296.7297958929262904
 30
0.0
 40
0.4061599175383919
 50
264.688766278257674
 51
270.5317764055745897
  0
ARC
  5
D75B
  8
0
 10
3520.2424207561821277
 20
296.353985302282581
 30
0.0
 40
0.0287725938781091
 50
254.2476937919911109
 51
263.8222601909424725
  0
ARC
  5
D75C
  8
0
 10
3520.2348790235400884
 20
296.3276718854414185
 30
0.0
 40
0.0014046835872212
 50
212.2697439592662931
 51
258.9417560434183088
  0
ARC
  5
D75D
  8
0
 10
3520.2339583882271654
 20
296.23952979076779
 30
0.0
 40
0.0002675886832895
 50
139.1564120734144012
 51
183.5114361722328908
  0
ARC
  5
D75E
  8
0
 10
3520.2350068855771497
 20
296.238407978949283
 30
0.0
 40
0.0018018173954781
 50
107.1474194634026986
 51
133.9681826450483868
  0
ARC
  5
D75F
  8
0
 10
3520.2421653875999255
 20
296.2140718625358886
 30
0.0
 40
0.0271687896548167
 50
96.0054020137591948
 51
106.4414614343671985
  0
ARC
  5
D760
  8
0
 10
3520.2547218057679856
 20
296.1180857593041083
 30
0.0
 40
0.1239659234652592
 50
94.5043974236209152
 51
97.1356350524526846
  0
ARC
  5
D761
  8
0
 10
3520.2788771601299231
 20
295.7469230287396726
 30
0.0
 40
0.4959052075299061
 50
89.5974587777429434
 51
93.9187557635063541
  0
ARC
  5
D762
  8
0
 10
3520.2862080098989281
 20
295.8979469624073886
 30
0.0
 40
0.3448904887655578
 50
83.5867129548566936
 51
90.639074382545445
  0
ARC
  5
D763
  8
0
 10
3520.3236511454460924
 20
296.2323167897611143
 30
0.0
 40
0.0084319220766784
 50
62.6257512732778565
 51
82.634766031066647
  0
ARC
  5
D764
  8
0
 10
3520.3273969940091774
 20
296.2395426283600273
 30
0.0
 40
0.0002929002944429
 50
327.4148759404802718
 51
63.3985854451403128
  0
ARC
  5
D765
  8
0
 10
3520.3199356658251418
 20
296.2574400448957022
 30
0.0
 40
0.0196317070723364
 50
272.9137842768150222
 51
293.118646580780478
  0
ARC
  5
D766
  8
0
 10
3520.284021385304186
 20
296.6623439938252886
 30
0.0
 40
0.4261120580805205
 50
269.5521305767406943
 51
274.969511161755122
  0
ARC
  5
D767
  8
0
 10
3520.2769209708949347
 20
296.6423873779261839
 30
0.0
 40
0.4061599175383919
 50
264.688766278257674
 51
270.5317764055745897
  0
ARC
  5
D768
  8
0
 10
3520.2424207561821277
 20
296.2665767872825882
 30
0.0
 40
0.0287725938781091
 50
254.2476937919911109
 51
263.8222601909424725
  0
ARC
  5
D769
  8
0
 10
3520.2348790235400884
 20
296.2402633704414256
 30
0.0
 40
0.0014046835872212
 50
212.2697439592662931
 51
258.9417560434183088
  0
ARC
  5
D76A
  8
0
 10
3523.660423596973942
 20
296.2395196287088766
 30
0.0
 40
0.0002675886832895
 50
139.1564120734144012
 51
183.5114361722328908
  0
ARC
  5
D76B
  8
0
 10
3523.6614720943239263
 20
296.2383978168904264
 30
0.0
 40
0.0018018173954781
 50
107.1474194634026986
 51
133.9681826450483868
  0
ARC
  5
D76C
  8
0
 10
3523.6686305963471568
 20
296.2140617004769183
 30
0.0
 40
0.0271687896548167
 50
96.0054020137591948
 51
106.4414614343671985
  0
ARC
  5
D76D
  8
0
 10
3523.681187014515217
 20
296.1180755972450811
 30
0.0
 40
0.1239659234652592
 50
94.5043974236209152
 51
97.1356350524526846
  0
ARC
  5
D76E
  8
0
 10
3523.7053423688757903
 20
295.7469128666807023
 30
0.0
 40
0.4959052075299061
 50
89.5974587777429434
 51
93.9187557635063541
  0
ARC
  5
D76F
  8
0
 10
3523.712673218647069
 20
295.8979368003484751
 30
0.0
 40
0.3448904887655578
 50
83.5867129548566936
 51
90.639074382545445
  0
ARC
  5
D770
  8
0
 10
3523.750116354192869
 20
296.2323066277022008
 30
0.0
 40
0.0084319220766784
 50
62.6257512732778565
 51
82.634766031066647
  0
ARC
  5
D771
  8
0
 10
3523.7538622027550446
 20
296.2395324663011138
 30
0.0
 40
0.0002929002944429
 50
327.4148759404802718
 51
63.3985854451403128
  0
ARC
  5
D772
  8
0
 10
3523.7464008745719184
 20
296.2574298828367887
 30
0.0
 40
0.0196317070723364
 50
272.9137842768150222
 51
293.118646580780478
  0
ARC
  5
D773
  8
0
 10
3523.7104865940509626
 20
296.6623338317663183
 30
0.0
 40
0.4261120580805205
 50
269.5521305767406943
 51
274.969511161755122
  0
ARC
  5
D774
  8
0
 10
3523.7033861796430756
 20
296.6423772158673273
 30
0.0
 40
0.4061599175383919
 50
264.688766278257674
 51
270.5317764055745897
  0
ARC
  5
D775
  8
0
 10
3523.6688859649289043
 20
296.2665666252236178
 30
0.0
 40
0.0287725938781091
 50
254.2476937919911109
 51
263.8222601909424725
  0
ARC
  5
D776
  8
0
 10
3523.661344232286865
 20
296.2402532083823985
 30
0.0
 40
0.0014046835872212
 50
212.2697439592662931
 51
258.9417560434183088
  0
ARC
  5
D777
  8
0
 10
3523.660423596973942
 20
296.3269281437089262
 30
0.0
 40
0.0002675886832895
 50
139.1564120734144012
 51
183.5114361722328908
  0
ARC
  5
D778
  8
0
 10
3523.6614720943239263
 20
296.3258063318903055
 30
0.0
 40
0.0018018173954781
 50
107.1474194634026986
 51
133.9681826450483868
  0
ARC
  5
D779
  8
0
 10
3523.6686305963471568
 20
296.3014702154769111
 30
0.0
 40
0.0271687896548167
 50
96.0054020137591948
 51
106.4414614343671985
  0
ARC
  5
D77A
  8
0
 10
3523.681187014515217
 20
296.2054841122450739
 30
0.0
 40
0.1239659234652592
 50
94.5043974236209152
 51
97.1356350524526846
  0
ARC
  5
D77B
  8
0
 10
3523.7053423688757903
 20
295.8343213816806951
 30
0.0
 40
0.4959052075299061
 50
89.5974587777429434
 51
93.9187557635063541
  0
ARC
  5
D77C
  8
0
 10
3523.712673218647069
 20
295.9853453153485248
 30
0.0
 40
0.3448904887655578
 50
83.5867129548566936
 51
90.639074382545445
  0
ARC
  5
D77D
  8
0
 10
3523.750116354192869
 20
296.3197151427020799
 30
0.0
 40
0.0084319220766784
 50
62.6257512732778565
 51
82.634766031066647
  0
ARC
  5
D77E
  8
0
 10
3523.7538622027550446
 20
296.3269409813009929
 30
0.0
 40
0.0002929002944429
 50
327.4148759404802718
 51
63.3985854451403128
  0
ARC
  5
D77F
  8
0
 10
3523.7464008745719184
 20
296.3448383978367815
 30
0.0
 40
0.0196317070723364
 50
272.9137842768150222
 51
293.118646580780478
  0
ARC
  5
D780
  8
0
 10
3523.7104865940509626
 20
296.7497423467663111
 30
0.0
 40
0.4261120580805205
 50
269.5521305767406943
 51
274.969511161755122
  0
ARC
  5
D781
  8
0
 10
3523.7033861796430756
 20
296.7297857308673201
 30
0.0
 40
0.4061599175383919
 50
264.688766278257674
 51
270.5317764055745897
  0
ARC
  5
D782
  8
0
 10
3523.6688859649289043
 20
296.3539751402236107
 30
0.0
 40
0.0287725938781091
 50
254.2476937919911109
 51
263.8222601909424725
  0
ARC
  5
D783
  8
0
 10
3523.661344232286865
 20
296.327661723382505
 30
0.0
 40
0.0014046835872212
 50
212.2697439592662931
 51
258.9417560434183088
  0
ARC
  5
D784
  8
0
 10
3525.3217450162310342
 20
296.2832340482679001
 30
0.0
 40
0.0002675886832895
 50
139.1564120734144012
 51
183.5114361722328908
  0
ARC
  5
D785
  8
0
 10
3525.3227935135810185
 20
296.2821122364493931
 30
0.0
 40
0.0018018173954781
 50
107.1474194634026986
 51
133.9681826450461131
  0
ARC
  5
D786
  8
0
 10
3525.3299520156037943
 20
296.2577761200359987
 30
0.0
 40
0.0271687896548167
 50
96.0054020137851154
 51
106.4414614343671985
  0
ARC
  5
D787
  8
0
 10
3525.3425084337718545
 20
296.1617900168042183
 30
0.0
 40
0.1239659234652592
 50
94.5043974236209152
 51
97.1356350524526846
  0
ARC
  5
D788
  8
0
 10
3525.366663788133792
 20
295.7906272862397259
 30
0.0
 40
0.4959052075299061
 50
89.5974587777429434
 51
93.9187557635323458
  0
ARC
  5
D789
  8
0
 10
3525.3739946379050707
 20
295.9416512199074987
 30
0.0
 40
0.3448904887655578
 50
83.5867129548566936
 51
90.639074382545445
  0
ARC
  5
D78A
  8
0
 10
3525.4114377734517802
 20
296.2760210472611107
 30
0.0
 40
0.0084319220766784
 50
62.6257512732778565
 51
82.634766031066647
  0
ARC
  5
D78B
  8
0
 10
3525.4151836220121368
 20
296.2832468858600805
 30
0.0
 40
0.0002929002944429
 50
327.4148759404802718
 51
63.3985854451403128
  0
ARC
  5
D78C
  8
0
 10
3525.4077222938299201
 20
296.3011443023958122
 30
0.0
 40
0.0196317070723364
 50
272.9137842768150222
 51
293.118646580780478
  0
ARC
  5
D78D
  8
0
 10
3525.3718080133080548
 20
296.706048251325285
 30
0.0
 40
0.4261120580805205
 50
269.5521305767406943
 51
274.969511161755122
  0
ARC
  5
D78E
  8
0
 10
3525.3647075989001678
 20
296.686091635426294
 30
0.0
 40
0.4061599175383919
 50
264.688766278257674
 51
270.5317764055745897
  0
ARC
  5
D78F
  8
0
 10
3525.330207384186906
 20
296.3102810447825846
 30
0.0
 40
0.0287725938781091
 50
254.2476937919911109
 51
263.8222601909424725
  0
ARC
  5
D790
  8
0
 10
3525.3226656515448667
 20
296.2839676279414789
 30
0.0
 40
0.0014046835872212
 50
212.2697439592662931
 51
258.9417560434183088
  0
ARC
  5
D791
  8
0
 10
3527.0866978757007928
 20
296.2395569602741716
 30
0.0
 40
0.0002675886832895
 50
139.1564120734144012
 51
183.5114361722328908
  0
ARC
  5
D792
  8
0
 10
3527.0877463730521413
 20
296.2384351484557214
 30
0.0
 40
0.0018018173954781
 50
107.1474194634026986
 51
133.9681826450461131
  0
ARC
  5
D793
  8
0
 10
3527.0949048750740076
 20
296.2140990320422134
 30
0.0
 40
0.0271687896548167
 50
96.0054020137851154
 51
106.4414614343671985
  0
ARC
  5
D794
  8
0
 10
3527.1074612932429773
 20
296.1181129288104898
 30
0.0
 40
0.1239659234652592
 50
94.5043974236209152
 51
97.1356350524526846
  0
ARC
  5
D795
  8
0
 10
3527.1316166476040053
 20
295.7469501982459974
 30
0.0
 40
0.4959052075299061
 50
89.5974587777429434
 51
93.9187557635063541
  0
ARC
  5
D796
  8
0
 10
3527.1389474973748293
 20
295.897974131913827
 30
0.0
 40
0.3448904887655578
 50
83.5867129548566936
 51
90.639074382545445
  0
ARC
  5
D797
  8
0
 10
3527.1763906329219935
 20
296.2323439592673822
 30
0.0
 40
0.0084319220766784
 50
62.6257512732778565
 51
82.634766031066647
  0
ARC
  5
D798
  8
0
 10
3527.1801364814828048
 20
296.2395697978664089
 30
0.0
 40
0.0002929002944429
 50
327.4148759404802718
 51
63.3985854451403128
  0
ARC
  5
D799
  8
0
 10
3527.1726751533001334
 20
296.2574672144020838
 30
0.0
 40
0.0196317070723364
 50
272.9137842768150222
 51
293.118646580780478
  0
ARC
  5
D79A
  8
0
 10
3527.1367608727791776
 20
296.6623711633316134
 30
0.0
 40
0.4261120580805205
 50
269.5521305767406943
 51
274.969511161755122
  0
ARC
  5
D79B
  8
0
 10
3527.1296604583708358
 20
296.6424145474326224
 30
0.0
 40
0.4061599175383919
 50
264.688766278257674
 51
270.5317764055745897
  0
ARC
  5
D79C
  8
0
 10
3527.0951602436571193
 20
296.2666039567889129
 30
0.0
 40
0.0287725938781091
 50
254.2476937919911109
 51
263.8222601909424725
  0
ARC
  5
D79D
  8
0
 10
3527.08761851101508
 20
296.2402905399478072
 30
0.0
 40
0.0014046835872212
 50
212.2697439592662931
 51
258.9417560434183088
  0
ARC
  5
D79E
  8
0
 10
3527.0903017543000715
 20
296.3269557992720138
 30
0.0
 40
0.0002675886832895
 50
139.1564120734144012
 51
183.5114361722328908
  0
ARC
  5
D79F
  8
0
 10
3527.0913502516500557
 20
296.3258339874535068
 30
0.0
 40
0.0018018173954781
 50
107.1474194634026986
 51
133.9681826450461131
  0
ARC
  5
D7A0
  8
0
 10
3527.0985087536728315
 20
296.3014978710399987
 30
0.0
 40
0.0271687896548167
 50
96.0054020137851154
 51
106.4414614343671985
  0
ARC
  5
D7A1
  8
0
 10
3527.1110651718408917
 20
296.2055117678082752
 30
0.0
 40
0.1239659234652592
 50
94.5043974236209152
 51
97.1356350524526846
  0
ARC
  5
D7A2
  8
0
 10
3527.1352205262028292
 20
295.8343490372437827
 30
0.0
 40
0.4959052075299061
 50
89.5974587777429434
 51
93.9187557635323458
  0
ARC
  5
D7A3
  8
0
 10
3527.1425513759731984
 20
295.9853729709116124
 30
0.0
 40
0.3448904887655578
 50
83.5867129548566936
 51
90.639074382545445
  0
ARC
  5
D7A4
  8
0
 10
3527.179994511519908
 20
296.3197427982652243
 30
0.0
 40
0.0084319220766784
 50
62.6257512732778565
 51
82.634766031066647
  0
ARC
  5
D7A5
  8
0
 10
3527.1837403600820835
 20
296.3269686368641942
 30
0.0
 40
0.0002929002944429
 50
327.4148759404802718
 51
63.3985854451403128
  0
ARC
  5
D7A6
  8
0
 10
3527.1762790318980478
 20
296.3448660533999259
 30
0.0
 40
0.0196317070723364
 50
272.9137842768150222
 51
293.118646580780478
  0
ARC
  5
D7A7
  8
0
 10
3527.140364751377092
 20
296.7497700023295124
 30
0.0
 40
0.4261120580805205
 50
269.5521305767406943
 51
274.969511161755122
  0
ARC
  5
D7A8
  8
0
 10
3527.133264336969205
 20
296.7298133864304077
 30
0.0
 40
0.4061599175383919
 50
264.688766278257674
 51
270.5317764055745897
  0
ARC
  5
D7A9
  8
0
 10
3527.0987641222559432
 20
296.3540027957868119
 30
0.0
 40
0.0287725938781091
 50
254.2476937919911109
 51
263.8222601909424725
  0
ARC
  5
D7AA
  8
0
 10
3527.0912223896129944
 20
296.3276893789455926
 30
0.0
 40
0.0014046835872212
 50
212.2697439592662931
 51
258.9417560434183088
  0
ARC
  5
D7AB
  8
0
 10
3528.7613123328242182
 20
296.2832601530489001
 30
0.0
 40
0.0002675886832895
 50
139.1564120734144012
 51
183.5114361722328908
  0
ARC
  5
D7AC
  8
0
 10
3528.7623608301742024
 20
296.2821383412305067
 30
0.0
 40
0.0018018173954781
 50
107.1474194634026986
 51
133.9681826450461131
  0
ARC
  5
D7AD
  8
0
 10
3528.7695193321969782
 20
296.2578022248171123
 30
0.0
 40
0.0271687896548167
 50
96.0054020137851154
 51
106.4414614343671985
  0
ARC
  5
D7AE
  8
0
 10
3528.7820757503659479
 20
296.1618161215852751
 30
0.0
 40
0.1239659234652592
 50
94.5043974236209152
 51
97.1356350524526846
  0
ARC
  5
D7AF
  8
0
 10
3528.8062311047260664
 20
295.7906533910207827
 30
0.0
 40
0.4959052075299061
 50
89.5974587777429434
 51
93.9187557635063541
  0
ARC
  5
D7B0
  8
0
 10
3528.8135619544968904
 20
295.9416773246886123
 30
0.0
 40
0.3448904887655578
 50
83.5867129548566936
 51
90.639074382545445
  0
ARC
  5
D7B1
  8
0
 10
3528.8510050900440547
 20
296.2760471520422243
 30
0.0
 40
0.0084319220766784
 50
62.6257512732778565
 51
82.634766031066647
  0
ARC
  5
D7B2
  8
0
 10
3528.8547509386057754
 20
296.2832729906410805
 30
0.0
 40
0.0002929002944429
 50
327.4148759404802718
 51
63.3985854451403128
  0
ARC
  5
D7B3
  8
0
 10
3528.847289610423104
 20
296.3011704071769259
 30
0.0
 40
0.0196317070723364
 50
272.9137842768150222
 51
293.118646580780478
  0
ARC
  5
D7B4
  8
0
 10
3528.811375329900784
 20
296.7060743561065124
 30
0.0
 40
0.4261120580805205
 50
269.5521305767406943
 51
274.969511161755122
  0
ARC
  5
D7B5
  8
0
 10
3528.804274915492897
 20
296.6861177402074077
 30
0.0
 40
0.4061599175383919
 50
264.688766278257674
 51
270.5317764055745897
  0
ARC
  5
D7B6
  8
0
 10
3528.7697747007791804
 20
296.3103071495638119
 30
0.0
 40
0.0287725938781091
 50
254.2476937919911109
 51
263.8222601909424725
  0
ARC
  5
D7B7
  8
0
 10
3528.7622329681371411
 20
296.2839937327224789
 30
0.0
 40
0.0014046835872212
 50
212.2697439592662931
 51
258.9417560434183088
  0
ARC
  5
D7B8
  8
0
 10
3530.5131227515248611
 20
296.3269647474332942
 30
0.0
 40
0.0002675886832895
 50
139.1564120734144012
 51
183.5114361722328908
  0
ARC
  5
D7B9
  8
0
 10
3530.5141712488748453
 20
296.3258429356147872
 30
0.0
 40
0.0018018173954781
 50
107.1474194634026986
 51
133.9681826450461131
  0
ARC
  5
D7BA
  8
0
 10
3530.5213297508980759
 20
296.3015068192013928
 30
0.0
 40
0.0271687896548167
 50
96.0054020137851154
 51
106.4414614343671985
  0
ARC
  5
D7BB
  8
0
 10
3530.5338861690661361
 20
296.2055207159696124
 30
0.0
 40
0.1239659234652592
 50
94.5043974236209152
 51
97.1356350524526846
  0
ARC
  5
D7BC
  8
0
 10
3530.5580415234271641
 20
295.8343579854051768
 30
0.0
 40
0.4959052075299061
 50
89.5974587777429434
 51
93.9187557635323458
  0
ARC
  5
D7BD
  8
0
 10
3530.5653723731979881
 20
295.9853819190730064
 30
0.0
 40
0.3448904887655578
 50
83.5867129548566936
 51
90.639074382545445
  0
ARC
  5
D7BE
  8
0
 10
3530.6028155087451523
 20
296.3197517464266184
 30
0.0
 40
0.0084319220766784
 50
62.6257512732778565
 51
82.634766031066647
  0
ARC
  5
D7BF
  8
0
 10
3530.6065613573068731
 20
296.3269775850254746
 30
0.0
 40
0.0002929002944429
 50
327.4148759404802718
 51
63.3985854451403128
  0
ARC
  5
D7C0
  8
0
 10
3530.5991000291228374
 20
296.3448750015612063
 30
0.0
 40
0.0196317070723364
 50
272.9137842768150222
 51
293.118646580780478
  0
ARC
  5
D7C1
  8
0
 10
3530.5631857486009721
 20
296.7497789504907928
 30
0.0
 40
0.4261120580805205
 50
269.5521305767406943
 51
274.969511161755122
  0
ARC
  5
D7C2
  8
0
 10
3530.5560853341939946
 20
296.7298223345916881
 30
0.0
 40
0.4061599175383919
 50
264.688766278257674
 51
270.5317764055745897
  0
ARC
  5
D7C3
  8
0
 10
3530.5215851194798233
 20
296.3540117439480923
 30
0.0
 40
0.0287725938781091
 50
254.2476937919911109
 51
263.8222601909424725
  0
ARC
  5
D7C4
  8
0
 10
3530.5140433868377841
 20
296.3276983271068161
 30
0.0
 40
0.0014046835872212
 50
212.2697439592662931
 51
258.9417560434183088
  0
ARC
  5
D7C5
  8
0
 10
3530.5128491144751024
 20
296.2395577034915277
 30
0.0
 40
0.0002675886832895
 50
139.1564120734144012
 51
183.5114361722328908
  0
ARC
  5
D7C6
  8
0
 10
3530.5138976118241771
 20
296.2384358916730207
 30
0.0
 40
0.0018018173954781
 50
107.1474194634026986
 51
133.9681826450461131
  0
ARC
  5
D7C7
  8
0
 10
3530.5210561138478624
 20
296.2140997752596263
 30
0.0
 40
0.0271687896548167
 50
96.0054020137851154
 51
106.4414614343671985
  0
ARC
  5
D7C8
  8
0
 10
3530.5336125320150131
 20
296.1181136720277891
 30
0.0
 40
0.1239659234652592
 50
94.5043974236209152
 51
97.1356350524526846
  0
ARC
  5
D7C9
  8
0
 10
3530.5577678863778601
 20
295.7469509414634103
 30
0.0
 40
0.4959052075299061
 50
89.5974587777429434
 51
93.9187557635063541
  0
ARC
  5
D7CA
  8
0
 10
3530.5650987361477746
 20
295.8979748751311263
 30
0.0
 40
0.3448904887655578
 50
83.5867129548566936
 51
90.639074382545445
  0
ARC
  5
D7CB
  8
0
 10
3530.6025418716949389
 20
296.2323447024847951
 30
0.0
 40
0.0084319220766784
 50
62.6257512732778565
 51
82.634766031066647
  0
ARC
  5
D7CC
  8
0
 10
3530.6062877202571144
 20
296.2395705410837081
 30
0.0
 40
0.0002929002944429
 50
327.4148759404802718
 51
63.3985854451403128
  0
ARC
  5
D7CD
  8
0
 10
3530.5988263920721693
 20
296.257467957619383
 30
0.0
 40
0.0196317070723364
 50
272.9137842768150222
 51
293.118646580780478
  0
ARC
  5
D7CE
  8
0
 10
3530.562912111552123
 20
296.6623719065490263
 30
0.0
 40
0.4261120580805205
 50
269.5521305767406943
 51
274.969511161755122
  0
ARC
  5
D7CF
  8
0
 10
3530.5558116971428717
 20
296.6424152906499216
 30
0.0
 40
0.4061599175383919
 50
264.688766278257674
 51
270.5317764055745897
  0
ARC
  5
D7D0
  8
0
 10
3530.5213114824309741
 20
296.2666047000062122
 30
0.0
 40
0.0287725938781091
 50
254.2476937919911109
 51
263.8222601909424725
  0
ARC
  5
D7D1
  8
0
 10
3530.5137697497880254
 20
296.2402912831651065
 30
0.0
 40
0.0014046835872212
 50
212.2697439592662931
 51
258.9417560434183088
  0
ARC
  5
D7D2
  8
0
 10
3532.2003423187879889
 20
296.2832610252917789
 30
0.0
 40
0.0002675886832895
 50
139.1564120734144012
 51
183.5114361722328908
  0
ARC
  5
D7D3
  8
0
 10
3532.2013908161379732
 20
296.2821392134732719
 30
0.0
 40
0.0018018173954781
 50
107.1474194634026986
 51
133.9681826450461131
  0
ARC
  5
D7D4
  8
0
 10
3532.2085493181612037
 20
296.2578030970598775
 30
0.0
 40
0.0271687896548167
 50
96.0054020137851154
 51
106.4414614343671985
  0
ARC
  5
D7D5
  8
0
 10
3532.2211057363288091
 20
296.1618169938280971
 30
0.0
 40
0.1239659234652592
 50
94.5043974236209152
 51
97.1356350524526846
  0
ARC
  5
D7D6
  8
0
 10
3532.2452610906912014
 20
295.7906542632636047
 30
0.0
 40
0.4959052075299061
 50
89.5974587777429434
 51
93.9187557635063541
  0
ARC
  5
D7D7
  8
0
 10
3532.2525919404611159
 20
295.9416781969313774
 30
0.0
 40
0.3448904887655578
 50
83.5867129548566936
 51
90.639074382545445
  0
ARC
  5
D7D8
  8
0
 10
3532.2900350760091897
 20
296.2760480242851031
 30
0.0
 40
0.0084319220766784
 50
62.6257512732778565
 51
82.634766031066647
  0
ARC
  5
D7D9
  8
0
 10
3532.2937809245700009
 20
296.2832738628840161
 30
0.0
 40
0.0002929002944429
 50
327.4148759404802718
 51
63.3985854451403128
  0
ARC
  5
D7DA
  8
0
 10
3532.2863195963859653
 20
296.301171279419691
 30
0.0
 40
0.0196317070723364
 50
272.9137842768150222
 51
293.118646580780478
  0
ARC
  5
D7DB
  8
0
 10
3532.250405315865919
 20
296.7060752283492775
 30
0.0
 40
0.4261120580805205
 50
269.5521305767406943
 51
274.969511161755122
  0
ARC
  5
D7DC
  8
0
 10
3532.2433049014571225
 20
296.6861186124501728
 30
0.0
 40
0.4061599175383919
 50
264.688766278257674
 51
270.5317764055745897
  0
ARC
  5
D7DD
  8
0
 10
3532.2088046867438607
 20
296.310308021806577
 30
0.0
 40
0.0287725938781091
 50
254.2476937919911109
 51
263.8222601909424725
  0
ARC
  5
D7DE
  8
0
 10
3532.2012629541018214
 20
296.2839946049654145
 30
0.0
 40
0.0014046835872212
 50
212.2697439592662931
 51
258.9417560434183088
  0
ARC
  5
D7DF
  8
0
 10
3533.9394686588939294
 20
296.3269644448093914
 30
0.0
 40
0.0002675886832895
 50
139.1564120734144012
 51
183.5114361722328908
  0
ARC
  5
D7E0
  8
0
 10
3533.9405171562439136
 20
296.3258426329908843
 30
0.0
 40
0.0018018173954781
 50
107.1474194634026986
 51
133.9681826450461131
  0
ARC
  5
D7E1
  8
0
 10
3533.9476756582671442
 20
296.3015065165774899
 30
0.0
 40
0.0271687896548167
 50
96.0054020137851154
 51
106.4414614343671985
  0
ARC
  5
D7E2
  8
0
 10
3533.9602320764352044
 20
296.2055204133457096
 30
0.0
 40
0.1239659234652592
 50
94.5043974236209152
 51
97.1356350524526846
  0
ARC
  5
D7E3
  8
0
 10
3533.9843874307971419
 20
295.834357682781274
 30
0.0
 40
0.4959052075299061
 50
89.5974587777429434
 51
93.9187557635323458
  0
ARC
  5
D7E4
  8
0
 10
3533.9917182805670564
 20
295.9853816164491036
 30
0.0
 40
0.3448904887655578
 50
83.5867129548566936
 51
90.639074382545445
  0
ARC
  5
D7E5
  8
0
 10
3534.0291614161151301
 20
296.3197514438027156
 30
0.0
 40
0.0084319220766784
 50
62.6257512732778565
 51
82.634766031066647
  0
ARC
  5
D7E6
  8
0
 10
3534.0329072646759414
 20
296.3269772824015718
 30
0.0
 40
0.0002929002944429
 50
327.4148759404802718
 51
63.3985854451403128
  0
ARC
  5
D7E7
  8
0
 10
3534.0254459364919057
 20
296.3448746989373035
 30
0.0
 40
0.0196317070723364
 50
272.9137842768150222
 51
293.118646580780478
  0
ARC
  5
D7E8
  8
0
 10
3533.9895316559709499
 20
296.74977864786689
 30
0.0
 40
0.4261120580805205
 50
269.5521305767406943
 51
274.969511161755122
  0
ARC
  5
D7E9
  8
0
 10
3533.9824312415630629
 20
296.7298220319677853
 30
0.0
 40
0.4061599175383919
 50
264.688766278257674
 51
270.5317764055745897
  0
ARC
  5
D7EA
  8
0
 10
3533.9479310268498011
 20
296.3540114413241895
 30
0.0
 40
0.0287725938781091
 50
254.2476937919911109
 51
263.8222601909424725
  0
ARC
  5
D7EB
  8
0
 10
3533.9403892942068524
 20
296.327698024483027
 30
0.0
 40
0.0014046835872212
 50
212.2697439592662931
 51
258.9417560434183088
  0
ARC
  5
D7EC
  8
0
 10
3533.9394777823072218
 20
296.2395558835058864
 30
0.0
 40
0.0002675886832895
 50
139.1564120734144012
 51
183.5114361722328908
  0
ARC
  5
D7ED
  8
0
 10
3533.9405262796558418
 20
296.2384340716873794
 30
0.0
 40
0.0018018173954781
 50
107.1474194634026986
 51
133.9681826450461131
  0
ARC
  5
D7EE
  8
0
 10
3533.9476847816799818
 20
296.2140979552739282
 30
0.0
 40
0.0271687896548167
 50
96.0054020137851154
 51
106.4414614343671985
  0
ARC
  5
D7EF
  8
0
 10
3533.960241199848042
 20
296.118111852042091
 30
0.0
 40
0.1239659234652592
 50
94.5043974236209152
 51
97.1356350524526846
  0
ARC
  5
D7F0
  8
0
 10
3533.9843965542099795
 20
295.7469491214777122
 30
0.0
 40
0.4959052075299061
 50
89.5974587777429434
 51
93.9187557635063541
  0
ARC
  5
D7F1
  8
0
 10
3533.991727403979894
 20
295.897973055145485
 30
0.0
 40
0.3448904887655578
 50
83.5867129548566936
 51
90.639074382545445
  0
ARC
  5
D7F2
  8
0
 10
3534.0291705395270583
 20
296.232342882499097
 30
0.0
 40
0.0084319220766784
 50
62.6257512732778565
 51
82.634766031066647
  0
ARC
  5
D7F3
  8
0
 10
3534.0329163880878696
 20
296.23956872109801
 30
0.0
 40
0.0002929002944429
 50
327.4148759404802718
 51
63.3985854451403128
  0
ARC
  5
D7F4
  8
0
 10
3534.0254550599051981
 20
296.2574661376336849
 30
0.0
 40
0.0196317070723364
 50
272.9137842768150222
 51
293.118646580780478
  0
ARC
  5
D7F5
  8
0
 10
3533.9895407793828781
 20
296.6623700865633282
 30
0.0
 40
0.4261120580805205
 50
269.5521305767406943
 51
274.969511161755122
  0
ARC
  5
D7F6
  8
0
 10
3533.9824403649759006
 20
296.6424134706642803
 30
0.0
 40
0.4061599175383919
 50
264.688766278257674
 51
270.5317764055745897
  0
ARC
  5
D7F7
  8
0
 10
3533.947940150262184
 20
296.2666028800206277
 30
0.0
 40
0.0287725938781091
 50
254.2476937919911109
 51
263.8222601909424725
  0
ARC
  5
D7F8
  8
0
 10
3533.9403984176201448
 20
296.240289463179522
 30
0.0
 40
0.0014046835872212
 50
212.2697439592662931
 51
258.9417560434183088
  0
ARC
  5
D7F9
  8
0
 10
3535.6399441243938782
 20
296.2832589968606953
 30
0.0
 40
0.0002675886832895
 50
139.1564120734144012
 51
183.5114361722328908
  0
ARC
  5
D7FA
  8
0
 10
3535.6409926217438624
 20
296.282137185042302
 30
0.0
 40
0.0018018173954781
 50
107.1474194634026986
 51
133.9681826450483868
  0
ARC
  5
D7FB
  8
0
 10
3535.6481511237670929
 20
296.2578010686287939
 30
0.0
 40
0.0271687896548167
 50
96.0054020137851154
 51
106.4414614343671985
  0
ARC
  5
D7FC
  8
0
 10
3535.6607075419360626
 20
296.1618149653970136
 30
0.0
 40
0.1239659234652592
 50
94.5043974236209152
 51
97.1356350524526846
  0
ARC
  5
D7FD
  8
0
 10
3535.6848628962961811
 20
295.790652234832578
 30
0.0
 40
0.4959052075299061
 50
89.5974587777429434
 51
93.9187557635063541
  0
ARC
  5
D7FE
  8
0
 10
3535.6921937460670051
 20
295.9416761685004076
 30
0.0
 40
0.3448904887655578
 50
83.5867129548566936
 51
90.639074382545445
  0
ARC
  5
D7FF
  8
0
 10
3535.7296368816141694
 20
296.2760459958540196
 30
0.0
 40
0.0084319220766784
 50
62.6257512732778565
 51
82.634766031066647
  0
ARC
  5
D800
  8
0
 10
3535.7333827301758902
 20
296.2832718344529894
 30
0.0
 40
0.0002929002944429
 50
327.4148759404802718
 51
63.3985854451403128
  0
ARC
  5
D801
  8
0
 10
3535.7259214019932188
 20
296.3011692509887212
 30
0.0
 40
0.0196317070723364
 50
272.9137842768150222
 51
293.118646580780478
  0
ARC
  5
D802
  8
0
 10
3535.6900071214708987
 20
296.7060731999183076
 30
0.0
 40
0.4261120580805205
 50
269.5521305767406943
 51
274.969511161755122
  0
ARC
  5
D803
  8
0
 10
3535.6829067070630117
 20
296.6861165840192029
 30
0.0
 40
0.4061599175383919
 50
264.688766278257674
 51
270.5317764055745897
  0
ARC
  5
D804
  8
0
 10
3535.6484064923488404
 20
296.3103059933756072
 30
0.0
 40
0.0287725938781091
 50
254.2476937919911109
 51
263.8222601909424725
  0
ARC
  5
D805
  8
0
 10
3535.6408647597068011
 20
296.2839925765343878
 30
0.0
 40
0.0014046835872212
 50
212.2697439592662931
 51
258.9417560434183088
  0
ARC
  5
D806
  8
0
 10
3537.3658924226429008
 20
296.3269637631731825
 30
0.0
 40
0.0002675886832895
 50
139.1564120734144012
 51
183.5114361722328908
  0
ARC
  5
D807
  8
0
 10
3537.3669409199919755
 20
296.3258419513547892
 30
0.0
 40
0.0018018173954781
 50
107.1474194634026986
 51
133.9681826450483868
  0
ARC
  5
D808
  8
0
 10
3537.3740994220152061
 20
296.3015058349412811
 30
0.0
 40
0.0271687896548167
 50
96.0054020137851154
 51
106.4414614343671985
  0
ARC
  5
D809
  8
0
 10
3537.3866558401841758
 20
296.2055197317095008
 30
0.0
 40
0.1239659234652592
 50
94.5043974236209152
 51
97.1356350524526846
  0
ARC
  5
D80A
  8
0
 10
3537.4108111945461133
 20
295.834357001145122
 30
0.0
 40
0.4959052075299061
 50
89.5974587777429434
 51
93.9187557635323458
  0
ARC
  5
D80B
  8
0
 10
3537.4181420443151183
 20
295.9853809348128948
 30
0.0
 40
0.3448904887655578
 50
83.5867129548566936
 51
90.639074382545445
  0
ARC
  5
D80C
  8
0
 10
3537.455585179863192
 20
296.3197507621665068
 30
0.0
 40
0.0084319220766784
 50
62.6257512732778565
 51
82.634766031066647
  0
ARC
  5
D80D
  8
0
 10
3537.4593310284240033
 20
296.3269766007654198
 30
0.0
 40
0.0002929002944429
 50
327.4148759404802718
 51
63.3985854451403128
  0
ARC
  5
D80E
  8
0
 10
3537.4518697002408771
 20
296.3448740173010947
 30
0.0
 40
0.0196317070723364
 50
272.9137842768150222
 51
293.118646580780478
  0
ARC
  5
D80F
  8
0
 10
3537.4159554197190118
 20
296.7497779662306812
 30
0.0
 40
0.4261120580805205
 50
269.5521305767406943
 51
274.969511161755122
  0
ARC
  5
D810
  8
0
 10
3537.4088550053111248
 20
296.7298213503316902
 30
0.0
 40
0.4061599175383919
 50
264.688766278257674
 51
270.5317764055745897
  0
ARC
  5
D811
  8
0
 10
3537.374354790597863
 20
296.3540107596879807
 30
0.0
 40
0.0287725938781091
 50
254.2476937919911109
 51
263.8222601909424725
  0
ARC
  5
D812
  8
0
 10
3537.3668130579558238
 20
296.3276973428468182
 30
0.0
 40
0.0014046835872212
 50
212.2697439592662931
 51
258.9417560434183088
  0
ARC
  5
D813
  8
0
 10
3537.3649774208470262
 20
296.2395603387998904
 30
0.0
 40
0.0002675886832895
 50
139.1564120734144012
 51
183.5114361722328908
  0
ARC
  5
D814
  8
0
 10
3537.3660259181970105
 20
296.2384385269813833
 30
0.0
 40
0.0018018173954781
 50
107.1474194634026986
 51
133.9681826450483868
  0
ARC
  5
D815
  8
0
 10
3537.3731844202197863
 20
296.2141024105678753
 30
0.0
 40
0.0271687896548167
 50
96.0054020137851154
 51
106.4414614343671985
  0
ARC
  5
D816
  8
0
 10
3537.3857408383878465
 20
296.1181163073360949
 30
0.0
 40
0.1239659234652592
 50
94.5043974236209152
 51
97.1356350524526846
  0
ARC
  5
D817
  8
0
 10
3537.4098961927497839
 20
295.7469535767717161
 30
0.0
 40
0.4959052075299061
 50
89.5974587777429434
 51
93.9187557635063541
  0
ARC
  5
D818
  8
0
 10
3537.4172270425210627
 20
295.8979775104394889
 30
0.0
 40
0.3448904887655578
 50
83.5867129548566936
 51
90.639074382545445
  0
ARC
  5
D819
  8
0
 10
3537.454670178068227
 20
296.2323473377931009
 30
0.0
 40
0.0084319220766784
 50
62.6257512732778565
 51
82.634766031066647
  0
ARC
  5
D81A
  8
0
 10
3537.4584160266290382
 20
296.2395731763920139
 30
0.0
 40
0.0002929002944429
 50
327.4148759404802718
 51
63.3985854451403128
  0
ARC
  5
D81B
  8
0
 10
3537.4509546984459121
 20
296.2574705929276888
 30
0.0
 40
0.0196317070723364
 50
272.9137842768150222
 51
293.118646580780478
  0
ARC
  5
D81C
  8
0
 10
3537.4150404179240468
 20
296.6623745418572753
 30
0.0
 40
0.4261120580805205
 50
269.5521305767406943
 51
274.969511161755122
  0
ARC
  5
D81D
  8
0
 10
3537.4079400035170693
 20
296.6424179259582843
 30
0.0
 40
0.4061599175383919
 50
264.688766278257674
 51
270.5317764055745897
  0
ARC
  5
D81E
  8
0
 10
3537.373439788802898
 20
296.2666073353145748
 30
0.0
 40
0.0287725938781091
 50
254.2476937919911109
 51
263.8222601909424725
  0
ARC
  5
D81F
  8
0
 10
3537.3658980561608587
 20
296.2402939184734123
 30
0.0
 40
0.0014046835872212
 50
212.2697439592662931
 51
258.9417560434183088
  0
ARC
  5
D820
  8
0
 10
3539.0786424657208045
 20
296.2832615402421084
 30
0.0
 40
0.0002675886832895
 50
139.1564120734144012
 51
183.5114361722328908
  0
ARC
  5
D821
  8
0
 10
3539.0796909630698792
 20
296.2821397284236014
 30
0.0
 40
0.0018018173954781
 50
107.1474194634026986
 51
133.9681826450483868
  0
ARC
  5
D822
  8
0
 10
3539.0868494650931098
 20
296.257803612010207
 30
0.0
 40
0.0271687896548167
 50
96.0054020137851154
 51
106.4414614343671985
  0
ARC
  5
D823
  8
0
 10
3539.0994058832611699
 20
296.1618175087783129
 30
0.0
 40
0.1239659234652592
 50
94.5043974236209152
 51
97.1356350524526846
  0
ARC
  5
D824
  8
0
 10
3539.1235612376231074
 20
295.790654778213991
 30
0.0
 40
0.4959052075299061
 50
89.5974587777429434
 51
93.9187557635063541
  0
ARC
  5
D825
  8
0
 10
3539.1308920873930219
 20
295.9416787118817069
 30
0.0
 40
0.3448904887655578
 50
83.5867129548566936
 51
90.639074382545445
  0
ARC
  5
D826
  8
0
 10
3539.1683352229401862
 20
296.2760485392353189
 30
0.0
 40
0.0084319220766784
 50
62.6257512732778565
 51
82.634766031066647
  0
ARC
  5
D827
  8
0
 10
3539.172081071501907
 20
296.2832743778341751
 30
0.0
 40
0.0002929002944429
 50
327.4148759404802718
 51
63.3985854451403128
  0
ARC
  5
D828
  8
0
 10
3539.1646197433178713
 20
296.3011717943700205
 30
0.0
 40
0.0196317070723364
 50
272.9137842768150222
 51
293.118646580780478
  0
ARC
  5
D829
  8
0
 10
3539.1287054627969155
 20
296.7060757432994933
 30
0.0
 40
0.4261120580805205
 50
269.5521305767406943
 51
274.969511161755122
  0
ARC
  5
D82A
  8
0
 10
3539.1216050483890285
 20
296.6861191274005023
 30
0.0
 40
0.4061599175383919
 50
264.688766278257674
 51
270.5317764055745897
  0
ARC
  5
D82B
  8
0
 10
3539.0871048336762215
 20
296.3103085367567928
 30
0.0
 40
0.0287725938781091
 50
254.2476937919911109
 51
263.8222601909424725
  0
ARC
  5
D82C
  8
0
 10
3539.0795631010341822
 20
296.2839951199156872
 30
0.0
 40
0.0014046835872212
 50
212.2697439592662931
 51
258.9417560434183088
  0
ARC
  5
D82D
  8
0
 10
3540.7920816482787814
 20
296.3269642465397737
 30
0.0
 40
0.0002675886832895
 50
139.1564120734144012
 51
183.5114361722328908
  0
ARC
  5
D82E
  8
0
 10
3540.7931301456278561
 20
296.3258424347213804
 30
0.0
 40
0.0018018173954781
 50
107.1474194634026986
 51
133.9681826450483868
  0
ARC
  5
D82F
  8
0
 10
3540.8002886476510866
 20
296.3015063183078723
 30
0.0
 40
0.0271687896548167
 50
96.0054020137851154
 51
106.4414614343671985
  0
ARC
  5
D830
  8
0
 10
3540.8128450658191468
 20
296.205520215076092
 30
0.0
 40
0.1239659234652592
 50
94.5043974236209152
 51
97.1356350524526846
  0
ARC
  5
D831
  8
0
 10
3540.8370004201810843
 20
295.8343574845117132
 30
0.0
 40
0.4959052075299061
 50
89.5974587777429434
 51
93.9187557635323458
  0
ARC
  5
D832
  8
0
 10
3540.8443312699519083
 20
295.985381418179486
 30
0.0
 40
0.3448904887655578
 50
83.5867129548566936
 51
90.639074382545445
  0
ARC
  5
D833
  8
0
 10
3540.8817744054990726
 20
296.319751245533098
 30
0.0
 40
0.0084319220766784
 50
62.6257512732778565
 51
82.634766031066647
  0
ARC
  5
D834
  8
0
 10
3540.8855202540598839
 20
296.326977084132011
 30
0.0
 40
0.0002929002944429
 50
327.4148759404802718
 51
63.3985854451403128
  0
ARC
  5
D835
  8
0
 10
3540.8780589258758482
 20
296.3448745006676859
 30
0.0
 40
0.0196317070723364
 50
272.9137842768150222
 51
293.118646580780478
  0
ARC
  5
D836
  8
0
 10
3540.8421446453548924
 20
296.7497784495972724
 30
0.0
 40
0.4261120580805205
 50
269.5521305767406943
 51
274.969511161755122
  0
ARC
  5
D837
  8
0
 10
3540.8350442309470054
 20
296.7298218336982814
 30
0.0
 40
0.4061599175383919
 50
264.688766278257674
 51
270.5317764055745897
  0
ARC
  5
D838
  8
0
 10
3540.8005440162341984
 20
296.3540112430545719
 30
0.0
 40
0.0287725938781091
 50
254.2476937919911109
 51
263.8222601909424725
  0
ARC
  5
D839
  8
0
 10
3540.7930022835921591
 20
296.3276978262135231
 30
0.0
 40
0.0014046835872212
 50
212.2697439592662931
 51
258.9417560434183088
  0
ARC
  5
D83A
  8
0
 10
3540.7917002529629826
 20
296.2395577564965947
 30
0.0
 40
0.0002675886832895
 50
139.1564120734144012
 51
183.5114361722328908
  0
ARC
  5
D83B
  8
0
 10
3540.7927487503129669
 20
296.2384359446782014
 30
0.0
 40
0.0018018173954781
 50
107.1474194634026986
 51
133.9681826450483868
  0
ARC
  5
D83C
  8
0
 10
3540.7999072523348332
 20
296.2140998282646933
 30
0.0
 40
0.0271687896548167
 50
96.0054020137851154
 51
106.4414614343671985
  0
ARC
  5
D83D
  8
0
 10
3540.8124636705038029
 20
296.1181137250330266
 30
0.0
 40
0.1239659234652592
 50
94.5043974236209152
 51
97.1356350524526846
  0
ARC
  5
D83E
  8
0
 10
3540.8366190248661951
 20
295.7469509944684773
 30
0.0
 40
0.4959052075299061
 50
89.5974587777429434
 51
93.9187557635063541
  0
ARC
  5
D83F
  8
0
 10
3540.8439498746361096
 20
295.897974928136307
 30
0.0
 40
0.3448904887655578
 50
83.5867129548566936
 51
90.639074382545445
  0
ARC
  5
D840
  8
0
 10
3540.8813930101819096
 20
296.232344755489919
 30
0.0
 40
0.0084319220766784
 50
62.6257512732778565
 51
82.634766031066647
  0
ARC
  5
D841
  8
0
 10
3540.8851388587440852
 20
296.2395705940887751
 30
0.0
 40
0.0002929002944429
 50
327.4148759404802718
 51
63.3985854451403128
  0
ARC
  5
D842
  8
0
 10
3540.877677530560959
 20
296.2574680106246205
 30
0.0
 40
0.0196317070723364
 50
272.9137842768150222
 51
293.118646580780478
  0
ARC
  5
D843
  8
0
 10
3540.8417632500390937
 20
296.662371959554207
 30
0.0
 40
0.4261120580805205
 50
269.5521305767406943
 51
274.969511161755122
  0
ARC
  5
D844
  8
0
 10
3540.8346628356321162
 20
296.6424153436551023
 30
0.0
 40
0.4061599175383919
 50
264.688766278257674
 51
270.5317764055745897
  0
ARC
  5
D845
  8
0
 10
3540.8001626209179449
 20
296.2666047530115065
 30
0.0
 40
0.0287725938781091
 50
254.2476937919911109
 51
263.8222601909424725
  0
ARC
  5
D846
  8
0
 10
3540.7926208882759056
 20
296.2402913361701735
 30
0.0
 40
0.0014046835872212
 50
212.2697439592662931
 51
258.9417560434183088
  0
ARC
  5
D847
  8
0
 10
3542.5178902320622001
 20
296.2832612689259122
 30
0.0
 40
0.0002675886832895
 50
139.1564120734144012
 51
183.5114361722328908
  0
ARC
  5
D848
  8
0
 10
3542.5189387294130938
 20
296.2821394571075189
 30
0.0
 40
0.0018018173954781
 50
107.1474194634026986
 51
133.9681826450461131
  0
ARC
  5
D849
  8
0
 10
3542.5260972314358696
 20
296.2578033406940108
 30
0.0
 40
0.0271687896548167
 50
96.0054020137851154
 51
106.4414614343671985
  0
ARC
  5
D84A
  8
0
 10
3542.5386536496039298
 20
296.1618172374621736
 30
0.0
 40
0.1239659234652592
 50
94.5043974236209152
 51
97.1356350524526846
  0
ARC
  5
D84B
  8
0
 10
3542.5628090039649578
 20
295.7906545068977948
 30
0.0
 40
0.4959052075299061
 50
89.5974587777429434
 51
93.9187557635323458
  0
ARC
  5
D84C
  8
0
 10
3542.5701398537357818
 20
295.9416784405656244
 30
0.0
 40
0.3448904887655578
 50
83.5867129548566936
 51
90.639074382545445
  0
ARC
  5
D84D
  8
0
 10
3542.6075829892820366
 20
296.2760482679191796
 30
0.0
 40
0.0084319220766784
 50
62.6257512732778565
 51
82.634766031066647
  0
ARC
  5
D84E
  8
0
 10
3542.6113288378451216
 20
296.2832741065180926
 30
0.0
 40
0.0002929002944429
 50
327.4148759404802718
 51
63.3985854451403128
  0
ARC
  5
D84F
  8
0
 10
3542.6038675096610859
 20
296.3011715230538812
 30
0.0
 40
0.0196317070723364
 50
272.9137842768150222
 51
293.118646580780478
  0
ARC
  5
D850
  8
0
 10
3542.5679532291392206
 20
296.7060754719834108
 30
0.0
 40
0.4261120580805205
 50
269.5521305767406943
 51
274.969511161755122
  0
ARC
  5
D851
  8
0
 10
3542.5608528147317884
 20
296.6861188560844198
 30
0.0
 40
0.4061599175383919
 50
264.688766278257674
 51
270.5317764055745897
  0
ARC
  5
D852
  8
0
 10
3542.5263526000180718
 20
296.3103082654407103
 30
0.0
 40
0.0287725938781091
 50
254.2476937919911109
 51
263.8222601909424725
  0
ARC
  5
D853
  8
0
 10
3542.5188108673760325
 20
296.2839948485996047
 30
0.0
 40
0.0014046835872212
 50
212.2697439592662931
 51
258.9417560434183088
  0
ARC
  5
D854
  8
0
 10
3544.217816428560127
 20
296.3269672485503747
 30
0.0
 40
0.0002675886832895
 50
139.1564120734144012
 51
183.5114361722328908
  0
ARC
  5
D855
  8
0
 10
3544.2188649259092017
 20
296.3258454367319814
 30
0.0
 40
0.0018018173954781
 50
107.1474194634026986
 51
133.9681826450461131
  0
ARC
  5
D856
  8
0
 10
3544.226023427932887
 20
296.3015093203184733
 30
0.0
 40
0.0271687896548167
 50
96.0054020137851154
 51
106.4414614343671985
  0
ARC
  5
D857
  8
0
 10
3544.2385798461000377
 20
296.205523217086693
 30
0.0
 40
0.1239659234652592
 50
94.5043974236209152
 51
97.1356350524526846
  0
ARC
  5
D858
  8
0
 10
3544.2627352004628847
 20
295.8343604865222005
 30
0.0
 40
0.4959052075299061
 50
89.5974587777429434
 51
93.9187557635323458
  0
ARC
  5
D859
  8
0
 10
3544.2700660502327992
 20
295.9853844201899733
 30
0.0
 40
0.3448904887655578
 50
83.5867129548566936
 51
90.639074382545445
  0
ARC
  5
D85A
  8
0
 10
3544.3075091857799634
 20
296.319754247543699
 30
0.0
 40
0.0084319220766784
 50
62.6257512732778565
 51
82.634766031066647
  0
ARC
  5
D85B
  8
0
 10
3544.311255034342139
 20
296.3269800861424983
 30
0.0
 40
0.0002929002944429
 50
327.4148759404802718
 51
63.3985854451403128
  0
ARC
  5
D85C
  8
0
 10
3544.3037937061581033
 20
296.3448775026782869
 30
0.0
 40
0.0196317070723364
 50
272.9137842768150222
 51
293.118646580780478
  0
ARC
  5
D85D
  8
0
 10
3544.2678794256371475
 20
296.7497814516078734
 30
0.0
 40
0.4261120580805205
 50
269.5521305767406943
 51
274.969511161755122
  0
ARC
  5
D85E
  8
0
 10
3544.2607790112278963
 20
296.7298248357088255
 30
0.0
 40
0.4061599175383919
 50
264.688766278257674
 51
270.5317764055745897
  0
ARC
  5
D85F
  8
0
 10
3544.2262787965150892
 20
296.3540142450651729
 30
0.0
 40
0.0287725938781091
 50
254.2476937919911109
 51
263.8222601909424725
  0
ARC
  5
D860
  8
0
 10
3544.2187370638730499
 20
296.3277008282240104
 30
0.0
 40
0.0014046835872212
 50
212.2697439592662931
 51
258.9417560434183088
  0
ARC
  5
D861
  8
0
 10
3544.220183299034943
 20
296.2395490785123116
 30
0.0
 40
0.0002675886832895
 50
139.1564120734144012
 51
183.5114361722328908
  0
ARC
  5
D862
  8
0
 10
3544.2212317963849273
 20
296.2384272666938045
 30
0.0
 40
0.0018018173954781
 50
107.1474194634026986
 51
133.9681826450461131
  0
ARC
  5
D863
  8
0
 10
3544.2283902984081578
 20
296.2140911502804101
 30
0.0
 40
0.0271687896548167
 50
96.0054020137851154
 51
106.4414614343671985
  0
ARC
  5
D864
  8
0
 10
3544.240946716576218
 20
296.1181050470485729
 30
0.0
 40
0.1239659234652592
 50
94.5043974236209152
 51
97.1356350524526846
  0
ARC
  5
D865
  8
0
 10
3544.2651020709381555
 20
295.7469423164841942
 30
0.0
 40
0.4959052075299061
 50
89.5974587777429434
 51
93.9187557635323458
  0
ARC
  5
D866
  8
0
 10
3544.27243292070807
 20
295.8979662501520238
 30
0.0
 40
0.3448904887655578
 50
83.5867129548566936
 51
90.639074382545445
  0
ARC
  5
D867
  8
0
 10
3544.3098760562547795
 20
296.2323360775056926
 30
0.0
 40
0.0084319220766784
 50
62.6257512732778565
 51
82.634766031066647
  0
ARC
  5
D868
  8
0
 10
3544.3136219048160456
 20
296.239561916104492
 30
0.0
 40
0.0002929002944429
 50
327.4148759404802718
 51
63.3985854451403128
  0
ARC
  5
D869
  8
0
 10
3544.3061605766329194
 20
296.2574593326402805
 30
0.0
 40
0.0196317070723364
 50
272.9137842768150222
 51
293.118646580780478
  0
ARC
  5
D86A
  8
0
 10
3544.2702462961110541
 20
296.6623632815698102
 30
0.0
 40
0.4261120580805205
 50
269.5521305767406943
 51
274.969511161755122
  0
ARC
  5
D86B
  8
0
 10
3544.2631458817040766
 20
296.6424066656708192
 30
0.0
 40
0.4061599175383919
 50
264.688766278257674
 51
270.5317764055745897
  0
ARC
  5
D86C
  8
0
 10
3544.2286456669899053
 20
296.2665960750271097
 30
0.0
 40
0.0287725938781091
 50
254.2476937919911109
 51
263.8222601909424725
  0
ARC
  5
D86D
  8
0
 10
3544.221103934347866
 20
296.2402826581858903
 30
0.0
 40
0.0014046835872212
 50
212.2697439592662931
 51
258.9417560434183088
  0
ARC
  5
D86E
  8
0
 10
3545.9574867642040772
 20
296.2832592382071084
 30
0.0
 40
0.0002675886832895
 50
139.1564120734144012
 51
183.5114361722328908
  0
ARC
  5
D86F
  8
0
 10
3545.9585352615531519
 20
296.2821374263887151
 30
0.0
 40
0.0018018173954781
 50
107.1474194634026986
 51
133.9681826450461131
  0
ARC
  5
D870
  8
0
 10
3545.9656937635768372
 20
296.257801309975207
 30
0.0
 40
0.0271687896548167
 50
96.0054020137851154
 51
106.4414614343671985
  0
ARC
  5
D871
  8
0
 10
3545.9782501817439879
 20
296.1618152067434835
 30
0.0
 40
0.1239659234652592
 50
94.5043974236209152
 51
97.1356350524526846
  0
ARC
  5
D872
  8
0
 10
3546.0024055361059254
 20
295.790652476178991
 30
0.0
 40
0.4959052075299061
 50
89.5974587777429434
 51
93.9187557635323458
  0
ARC
  5
D873
  8
0
 10
3546.0097363858758399
 20
295.9416764098468207
 30
0.0
 40
0.3448904887655578
 50
83.5867129548566936
 51
90.639074382545445
  0
ARC
  5
D874
  8
0
 10
3546.0471795214230042
 20
296.2760462372003758
 30
0.0
 40
0.0084319220766784
 50
62.6257512732778565
 51
82.634766031066647
  0
ARC
  5
D875
  8
0
 10
3546.0509253699851797
 20
296.2832720757992888
 30
0.0
 40
0.0002929002944429
 50
327.4148759404802718
 51
63.3985854451403128
  0
ARC
  5
D876
  8
0
 10
3546.043464041801144
 20
296.3011694923350774
 30
0.0
 40
0.0196317070723364
 50
272.9137842768150222
 51
293.118646580780478
  0
ARC
  5
D877
  8
0
 10
3546.0075497612810977
 20
296.7060734412647207
 30
0.0
 40
0.4261120580805205
 50
269.5521305767406943
 51
274.969511161755122
  0
ARC
  5
D878
  8
0
 10
3546.0004493468718465
 20
296.686116825365616
 30
0.0
 40
0.4061599175383919
 50
264.688766278257674
 51
270.5317764055745897
  0
ARC
  5
D879
  8
0
 10
3545.9659491321590394
 20
296.3103062347220202
 30
0.0
 40
0.0287725938781091
 50
254.2476937919911109
 51
263.8222601909424725
  0
ARC
  5
D87A
  8
0
 10
3545.9584073995170002
 20
296.2839928178806872
 30
0.0
 40
0.0014046835872212
 50
212.2697439592662931
 51
258.9417560434183088
  0
ARC
  5
D87B
  8
0
 10
3547.644336577213835
 20
296.3269659242890839
 30
0.0
 40
0.0002675886832895
 50
139.1564120734144012
 51
183.5114361722328908
  0
ARC
  5
D87C
  8
0
 10
3547.6453850745629097
 20
296.3258441124705769
 30
0.0
 40
0.0018018173954781
 50
107.1474194634026986
 51
133.9681826450461131
  0
ARC
  5
D87D
  8
0
 10
3547.6525435765870498
 20
296.3015079960571256
 30
0.0
 40
0.0271687896548167
 50
96.0054020137851154
 51
106.4414614343671985
  0
ARC
  5
D87E
  8
0
 10
3547.6650999947542005
 20
296.2055218928254021
 30
0.0
 40
0.1239659234652592
 50
94.5043974236209152
 51
97.1356350524526846
  0
ARC
  5
D87F
  8
0
 10
3547.6892553491161379
 20
295.8343591622610234
 30
0.0
 40
0.4959052075299061
 50
89.5974587777429434
 51
93.9187557635323458
  0
ARC
  5
D880
  8
0
 10
3547.6965861988860524
 20
295.9853830959286825
 30
0.0
 40
0.3448904887655578
 50
83.5867129548566936
 51
90.639074382545445
  0
ARC
  5
D881
  8
0
 10
3547.7340293344341262
 20
296.3197529232822944
 30
0.0
 40
0.0084319220766784
 50
62.6257512732778565
 51
82.634766031066647
  0
ARC
  5
D882
  8
0
 10
3547.7377751829949375
 20
296.3269787618813211
 30
0.0
 40
0.0002929002944429
 50
327.4148759404802718
 51
63.3985854451403128
  0
ARC
  5
D883
  8
0
 10
3547.7303138548118113
 20
296.344876178416996
 30
0.0
 40
0.0196317070723364
 50
272.9137842768150222
 51
293.118646580780478
  0
ARC
  5
D884
  8
0
 10
3547.694399574289946
 20
296.7497801273465825
 30
0.0
 40
0.4261120580805205
 50
269.5521305767406943
 51
274.969511161755122
  0
ARC
  5
D885
  8
0
 10
3547.687299159882059
 20
296.7298235114474778
 30
0.0
 40
0.4061599175383919
 50
264.688766278257674
 51
270.5317764055745897
  0
ARC
  5
D886
  8
0
 10
3547.6527989451687972
 20
296.3540129208038252
 30
0.0
 40
0.0287725938781091
 50
254.2476937919911109
 51
263.8222601909424725
  0
ARC
  5
D887
  8
0
 10
3547.6452572125272127
 20
296.3276995039627195
 30
0.0
 40
0.0014046835872212
 50
212.2697439592662931
 51
258.9417560434183088
  0
ARC
  5
D888
  8
0
 10
3547.6443612128641689
 20
296.2395572742086074
 30
0.0
 40
0.0002675886832895
 50
139.1564120734144012
 51
183.5114361722328908
  0
ARC
  5
D889
  8
0
 10
3547.6454097102127889
 20
296.2384354623901004
 30
0.0
 40
0.0018018173954781
 50
107.1474194634026986
 51
133.9681826450461131
  0
ARC
  5
D88A
  8
0
 10
3547.652568212236929
 20
296.214099345976706
 30
0.0
 40
0.0271687896548167
 50
96.0054020137851154
 51
106.4414614343671985
  0
ARC
  5
D88B
  8
0
 10
3547.6651246304040797
 20
296.1181132427449256
 30
0.0
 40
0.1239659234652592
 50
94.5043974236209152
 51
97.1356350524526846
  0
ARC
  5
D88C
  8
0
 10
3547.6892799847669266
 20
295.74695051218049
 30
0.0
 40
0.4959052075299061
 50
89.5974587777429434
 51
93.9187557635323458
  0
ARC
  5
D88D
  8
0
 10
3547.6966108345368411
 20
295.8979744458483196
 30
0.0
 40
0.3448904887655578
 50
83.5867129548566936
 51
90.639074382545445
  0
ARC
  5
D88E
  8
0
 10
3547.7340539700840054
 20
296.2323442732018748
 30
0.0
 40
0.0084319220766784
 50
62.6257512732778565
 51
82.634766031066647
  0
ARC
  5
D88F
  8
0
 10
3547.7377998186461809
 20
296.2395701118007878
 30
0.0
 40
0.0002929002944429
 50
327.4148759404802718
 51
63.3985854451403128
  0
ARC
  5
D890
  8
0
 10
3547.7303384904621453
 20
296.2574675283365195
 30
0.0
 40
0.0196317070723364
 50
272.9137842768150222
 51
293.118646580780478
  0
ARC
  5
D891
  8
0
 10
3547.6944242099411895
 20
296.662371477266106
 30
0.0
 40
0.4261120580805205
 50
269.5521305767406943
 51
274.969511161755122
  0
ARC
  5
D892
  8
0
 10
3547.6873237955319382
 20
296.642414861367115
 30
0.0
 40
0.4061599175383919
 50
264.688766278257674
 51
270.5317764055745897
  0
ARC
  5
D893
  8
0
 10
3547.6528235808191312
 20
296.2666042707234055
 30
0.0
 40
0.0287725938781091
 50
254.2476937919911109
 51
263.8222601909424725
  0
ARC
  5
D894
  8
0
 10
3547.6452818481780014
 20
296.2402908538821862
 30
0.0
 40
0.0014046835872212
 50
212.2697439592662931
 51
258.9417560434183088
  0
ARC
  5
D895
  8
0
 10
3549.3962898415788914
 20
296.283261247267717
 30
0.0
 40
0.0002675886832895
 50
139.1564120734144012
 51
183.5114361722328908
  0
ARC
  5
D896
  8
0
 10
3549.3973383389279661
 20
296.2821394354492099
 30
0.0
 40
0.0018018173954781
 50
107.1474194634026986
 51
133.9681826450461131
  0
ARC
  5
D897
  8
0
 10
3549.4044968409521061
 20
296.2578033190358155
 30
0.0
 40
0.0271687896548167
 50
96.0054020137851154
 51
106.4414614343671985
  0
ARC
  5
D898
  8
0
 10
3549.4170532591201663
 20
296.1618172158039783
 30
0.0
 40
0.1239659234652592
 50
94.5043974236209152
 51
97.1356350524526846
  0
ARC
  5
D899
  8
0
 10
3549.4412086134821038
 20
295.7906544852394859
 30
0.0
 40
0.4959052075299061
 50
89.5974587777429434
 51
93.9187557635323458
  0
ARC
  5
D89A
  8
0
 10
3549.4485394632520183
 20
295.9416784189073155
 30
0.0
 40
0.3448904887655578
 50
83.5867129548566936
 51
90.639074382545445
  0
ARC
  5
D89B
  8
0
 10
3549.4859825987991826
 20
296.2760482462609843
 30
0.0
 40
0.0084319220766784
 50
62.6257512732778565
 51
82.634766031066647
  0
ARC
  5
D89C
  8
0
 10
3549.4897284473599939
 20
296.2832740848598974
 30
0.0
 40
0.0002929002944429
 50
327.4148759404802718
 51
63.3985854451403128
  0
ARC
  5
D89D
  8
0
 10
3549.4822671191768677
 20
296.3011715013955722
 30
0.0
 40
0.0196317070723364
 50
272.9137842768150222
 51
293.118646580780478
  0
ARC
  5
D89E
  8
0
 10
3549.4463528386559119
 20
296.7060754503251019
 30
0.0
 40
0.4261120580805205
 50
269.5521305767406943
 51
274.969511161755122
  0
ARC
  5
D89F
  8
0
 10
3549.4392524242480249
 20
296.6861188344261109
 30
0.0
 40
0.4061599175383919
 50
264.688766278257674
 51
270.5317764055745897
  0
ARC
  5
D8A0
  8
0
 10
3549.4047522095352178
 20
296.3103082437825151
 30
0.0
 40
0.0287725938781091
 50
254.2476937919911109
 51
263.8222601909424725
  0
ARC
  5
D8A1
  8
0
 10
3549.3972104768918143
 20
296.2839948269412957
 30
0.0
 40
0.0014046835872212
 50
212.2697439592662931
 51
258.9417560434183088
  0
ARC
  5
D8A2
  8
0
 10
3551.0707159140538351
 20
296.2395569070133092
 30
0.0
 40
0.0002675886832895
 50
139.1564120734144012
 51
183.5114361722328908
  0
ARC
  5
D8A3
  8
0
 10
3551.0717644114029099
 20
296.2384350951948022
 30
0.0
 40
0.0018018173954781
 50
107.1474194634026986
 51
133.9681826450461131
  0
ARC
  5
D8A4
  8
0
 10
3551.0789229134261404
 20
296.2140989787814078
 30
0.0
 40
0.0271687896548167
 50
96.0054020137851154
 51
106.4414614343671985
  0
ARC
  5
D8A5
  8
0
 10
3551.0914793315942006
 20
296.1181128755496275
 30
0.0
 40
0.1239659234652592
 50
94.5043974236209152
 51
97.1356350524526846
  0
ARC
  5
D8A6
  8
0
 10
3551.1156346859561381
 20
295.7469501449850782
 30
0.0
 40
0.4959052075299061
 50
89.5974587777429434
 51
93.9187557635323458
  0
ARC
  5
D8A7
  8
0
 10
3551.1229655357260526
 20
295.8979740786530215
 30
0.0
 40
0.3448904887655578
 50
83.5867129548566936
 51
90.639074382545445
  0
ARC
  5
D8A8
  8
0
 10
3551.1604086712732169
 20
296.2323439060065766
 30
0.0
 40
0.0084319220766784
 50
62.6257512732778565
 51
82.634766031066647
  0
ARC
  5
D8A9
  8
0
 10
3551.1641545198349377
 20
296.2395697446054896
 30
0.0
 40
0.0002929002944429
 50
327.4148759404802718
 51
63.3985854451403128
  0
ARC
  5
D8AA
  8
0
 10
3551.156693191650902
 20
296.2574671611412214
 30
0.0
 40
0.0196317070723364
 50
272.9137842768150222
 51
293.118646580780478
  0
ARC
  5
D8AB
  8
0
 10
3551.1207789111299462
 20
296.6623711100708078
 30
0.0
 40
0.4261120580805205
 50
269.5521305767406943
 51
274.969511161755122
  0
ARC
  5
D8AC
  8
0
 10
3551.1136784967220592
 20
296.6424144941717032
 30
0.0
 40
0.4061599175383919
 50
264.688766278257674
 51
270.5317764055745897
  0
ARC
  5
D8AD
  8
0
 10
3551.0791782820087974
 20
296.2666039035279937
 30
0.0
 40
0.0287725938781091
 50
254.2476937919911109
 51
263.8222601909424725
  0
ARC
  5
D8AE
  8
0
 10
3551.0716365493672129
 20
296.240290486686888
 30
0.0
 40
0.0014046835872212
 50
212.2697439592662931
 51
258.9417560434183088
  0
ARC
  5
D8AF
  8
0
 10
3551.070495980639862
 20
296.3269666377893259
 30
0.0
 40
0.0002675886832895
 50
139.1564120734144012
 51
183.5114361722328908
  0
ARC
  5
D8B0
  8
0
 10
3551.0715444779889367
 20
296.3258448259708757
 30
0.0
 40
0.0018018173954781
 50
107.1474194634026986
 51
133.9681826450461131
  0
ARC
  5
D8B1
  8
0
 10
3551.0787029800121672
 20
296.3015087095574245
 30
0.0
 40
0.0271687896548167
 50
96.0054020137851154
 51
106.4414614343671985
  0
ARC
  5
D8B2
  8
0
 10
3551.0912593981797727
 20
296.2055226063255873
 30
0.0
 40
0.1239659234652592
 50
94.5043974236209152
 51
97.1356350524526846
  0
ARC
  5
D8B3
  8
0
 10
3551.1154147525430744
 20
295.8343598757612085
 30
0.0
 40
0.4959052075299061
 50
89.5974587777429434
 51
93.9187557635323458
  0
ARC
  5
D8B4
  8
0
 10
3551.1227456023120794
 20
295.9853838094289813
 30
0.0
 40
0.3448904887655578
 50
83.5867129548566936
 51
90.639074382545445
  0
ARC
  5
D8B5
  8
0
 10
3551.1601887378601532
 20
296.3197536367825933
 30
0.0
 40
0.0084319220766784
 50
62.6257512732778565
 51
82.634766031066647
  0
ARC
  5
D8B6
  8
0
 10
3551.1639345864209645
 20
296.3269794753815063
 30
0.0
 40
0.0002929002944429
 50
327.4148759404802718
 51
63.3985854451403128
  0
ARC
  5
D8B7
  8
0
 10
3551.1564732582369288
 20
296.3448768919171812
 30
0.0
 40
0.0196317070723364
 50
272.9137842768150222
 51
293.118646580780478
  0
ARC
  5
D8B8
  8
0
 10
3551.1205589777168825
 20
296.7497808408468245
 30
0.0
 40
0.4261120580805205
 50
269.5521305767406943
 51
274.969511161755122
  0
ARC
  5
D8B9
  8
0
 10
3551.113458563308086
 20
296.7298242249477767
 30
0.0
 40
0.4061599175383919
 50
264.688766278257674
 51
270.5317764055745897
  0
ARC
  5
D8BA
  8
0
 10
3551.0789583485948242
 20
296.354013634304124
 30
0.0
 40
0.0287725938781091
 50
254.2476937919911109
 51
263.8222601909424725
  0
ARC
  5
D8BB
  8
0
 10
3551.0714166159527849
 20
296.3277002174629047
 30
0.0
 40
0.0014046835872212
 50
212.2697439592662931
 51
258.9417560434183088
  0
ARC
  5
D8BC
  8
0
 10
3554.4971567014708853
 20
296.2395560993803088
 30
0.0
 40
0.0002675886832895
 50
139.1564120734144012
 51
183.5114361722328908
  0
ARC
  5
D8BD
  8
0
 10
3554.4982051988208696
 20
296.2384342875618017
 30
0.0
 40
0.0018018173954781
 50
107.1474194634026986
 51
133.9681826450461131
  0
ARC
  5
D8BE
  8
0
 10
3554.5053637008441001
 20
296.2140981711482937
 30
0.0
 40
0.0271687896548167
 50
96.0054020137851154
 51
106.4414614343671985
  0
ARC
  5
D8BF
  8
0
 10
3554.5179201190121603
 20
296.118112067916627
 30
0.0
 40
0.1239659234652592
 50
94.5043974236209152
 51
97.1356350524526846
  0
ARC
  5
D8C0
  8
0
 10
3554.5420754733731883
 20
295.7469493373521914
 30
0.0
 40
0.4959052075299061
 50
89.5974587777429434
 51
93.9187557635323458
  0
ARC
  5
D8C1
  8
0
 10
3554.5494063231440123
 20
295.897973271020021
 30
0.0
 40
0.3448904887655578
 50
83.5867129548566936
 51
90.639074382545445
  0
ARC
  5
D8C2
  8
0
 10
3554.5868494586898123
 20
296.2323430983735761
 30
0.0
 40
0.0084319220766784
 50
62.6257512732778565
 51
82.634766031066647
  0
ARC
  5
D8C3
  8
0
 10
3554.5905953072519878
 20
296.2395689369724892
 30
0.0
 40
0.0002929002944429
 50
327.4148759404802718
 51
63.3985854451403128
  0
ARC
  5
D8C4
  8
0
 10
3554.5831339790688617
 20
296.2574663535082209
 30
0.0
 40
0.0196317070723364
 50
272.9137842768150222
 51
293.118646580780478
  0
ARC
  5
D8C5
  8
0
 10
3554.5472196985479059
 20
296.6623703024378074
 30
0.0
 40
0.4261120580805205
 50
269.5521305767406943
 51
274.969511161755122
  0
ARC
  5
D8C6
  8
0
 10
3554.5401192841400189
 20
296.6424136865387027
 30
0.0
 40
0.4061599175383919
 50
264.688766278257674
 51
270.5317764055745897
  0
ARC
  5
D8C7
  8
0
 10
3554.5056190694258476
 20
296.2666030958951069
 30
0.0
 40
0.0287725938781091
 50
254.2476937919911109
 51
263.8222601909424725
  0
ARC
  5
D8C8
  8
0
 10
3554.4980773367838083
 20
296.2402896790538875
 30
0.0
 40
0.0014046835872212
 50
212.2697439592662931
 51
258.9417560434183088
  0
ARC
  5
D8C9
  8
0
 10
3554.496380948370188
 20
296.3269690473313176
 30
0.0
 40
0.0002675886832895
 50
139.1564120734144012
 51
183.5114361722328908
  0
ARC
  5
D8CA
  8
0
 10
3554.4974294457201722
 20
296.3258472355128106
 30
0.0
 40
0.0018018173954781
 50
107.1474194634026986
 51
133.9681826450461131
  0
ARC
  5
D8CB
  8
0
 10
3554.504587947742948
 20
296.3015111190994162
 30
0.0
 40
0.0271687896548167
 50
96.0054020137851154
 51
106.4414614343671985
  0
ARC
  5
D8CC
  8
0
 10
3554.5171443659110082
 20
296.205525015867579
 30
0.0
 40
0.1239659234652592
 50
94.5043974236209152
 51
97.1356350524526846
  0
ARC
  5
D8CD
  8
0
 10
3554.5412997202720362
 20
295.8343622853032002
 30
0.0
 40
0.4959052075299061
 50
89.5974587777429434
 51
93.9187557635323458
  0
ARC
  5
D8CE
  8
0
 10
3554.5486305700428602
 20
295.985386218970973
 30
0.0
 40
0.3448904887655578
 50
83.5867129548566936
 51
90.639074382545445
  0
ARC
  5
D8CF
  8
0
 10
3554.5860737055900245
 20
296.319756046324585
 30
0.0
 40
0.0084319220766784
 50
62.6257512732778565
 51
82.634766031066647
  0
ARC
  5
D8D0
  8
0
 10
3554.5898195541508358
 20
296.326981884923498
 30
0.0
 40
0.0002929002944429
 50
327.4148759404802718
 51
63.3985854451403128
  0
ARC
  5
D8D1
  8
0
 10
3554.5823582259681643
 20
296.3448793014591729
 30
0.0
 40
0.0196317070723364
 50
272.9137842768150222
 51
293.118646580780478
  0
ARC
  5
D8D2
  8
0
 10
3554.5464439454472085
 20
296.7497832503888162
 30
0.0
 40
0.4261120580805205
 50
269.5521305767406943
 51
274.969511161755122
  0
ARC
  5
D8D3
  8
0
 10
3554.5393435310388668
 20
296.7298266344898252
 30
0.0
 40
0.4061599175383919
 50
264.688766278257674
 51
270.5317764055745897
  0
ARC
  5
D8D4
  8
0
 10
3554.5048433163251502
 20
296.3540160438461157
 30
0.0
 40
0.0287725938781091
 50
254.2476937919911109
 51
263.8222601909424725
  0
ARC
  5
D8D5
  8
0
 10
3554.4973015836831109
 20
296.3277026270048964
 30
0.0
 40
0.0014046835872212
 50
212.2697439592662931
 51
258.9417560434183088
  0
ARC
  5
D8D6
  8
0
 10
3556.2738199551849902
 20
296.2832664716970044
 30
0.0
 40
0.0002675886832895
 50
139.1564120734144012
 51
183.5114361722328908
  0
ARC
  5
D8D7
  8
0
 10
3556.2748684525349745
 20
296.2821446598784974
 30
0.0
 40
0.0018018173954781
 50
107.1474194634026986
 51
133.9681826450461131
  0
ARC
  5
D8D8
  8
0
 10
3556.282026954558205
 20
296.257808543465103
 30
0.0
 40
0.0271687896548167
 50
96.0054020137851154
 51
106.4414614343671985
  0
ARC
  5
D8D9
  8
0
 10
3556.2945833727258105
 20
296.1618224402333226
 30
0.0
 40
0.1239659234652592
 50
94.5043974236209152
 51
97.1356350524526846
  0
ARC
  5
D8DA
  8
0
 10
3556.3187387270882027
 20
295.790659709668887
 30
0.0
 40
0.4959052075299061
 50
89.5974587777429434
 51
93.9187557635323458
  0
ARC
  5
D8DB
  8
0
 10
3556.3260695768581172
 20
295.9416836433367166
 30
0.0
 40
0.3448904887655578
 50
83.5867129548566936
 51
90.639074382545445
  0
ARC
  5
D8DC
  8
0
 10
3556.3635127124048267
 20
296.2760534706902718
 30
0.0
 40
0.0084319220766784
 50
62.6257512732778565
 51
82.634766031066647
  0
ARC
  5
D8DD
  8
0
 10
3556.3672585609670023
 20
296.2832793092891848
 30
0.0
 40
0.0002929002944429
 50
327.4148759404802718
 51
63.3985854451403128
  0
ARC
  5
D8DE
  8
0
 10
3556.3597972327829666
 20
296.3011767258249165
 30
0.0
 40
0.0196317070723364
 50
272.9137842768150222
 51
293.118646580780478
  0
ARC
  5
D8DF
  8
0
 10
3556.3238829522620108
 20
296.706080674754503
 30
0.0
 40
0.4261120580805205
 50
269.5521305767406943
 51
274.969511161755122
  0
ARC
  5
D8E0
  8
0
 10
3556.3167825378541238
 20
296.686124058855512
 30
0.0
 40
0.4061599175383919
 50
264.688766278257674
 51
270.5317764055745897
  0
ARC
  5
D8E1
  8
0
 10
3556.282282323140862
 20
296.3103134682118025
 30
0.0
 40
0.0287725938781091
 50
254.2476937919911109
 51
263.8222601909424725
  0
ARC
  5
D8E2
  8
0
 10
3556.2747405904988227
 20
296.2840000513705832
 30
0.0
 40
0.0014046835872212
 50
212.2697439592662931
 51
258.9417560434183088
  0
ARC
  5
D8E3
  8
0
 10
3557.9227665865250856
 20
296.3269684326921265
 30
0.0
 40
0.0002675886832895
 50
139.1564120734144012
 51
183.5114361722328908
  0
ARC
  5
D8E4
  8
0
 10
3557.9238150838750698
 20
296.3258466208736763
 30
0.0
 40
0.0018018173954781
 50
107.1474194634026986
 51
133.9681826450461131
  0
ARC
  5
D8E5
  8
0
 10
3557.9309735858978456
 20
296.3015105044602251
 30
0.0
 40
0.0271687896548167
 50
96.0054020137851154
 51
106.4414614343671985
  0
ARC
  5
D8E6
  8
0
 10
3557.9435300040659058
 20
296.2055244012285016
 30
0.0
 40
0.1239659234652592
 50
94.5043974236209152
 51
97.1356350524526846
  0
ARC
  5
D8E7
  8
0
 10
3557.9676853584278433
 20
295.8343616706640091
 30
0.0
 40
0.4959052075299061
 50
89.5974587777429434
 51
93.9187557635323458
  0
ARC
  5
D8E8
  8
0
 10
3557.975016208199122
 20
295.9853856043317819
 30
0.0
 40
0.3448904887655578
 50
83.5867129548566936
 51
90.639074382545445
  0
ARC
  5
D8E9
  8
0
 10
3558.0124593437449221
 20
296.3197554316853939
 30
0.0
 40
0.0084319220766784
 50
62.6257512732778565
 51
82.634766031066647
  0
ARC
  5
D8EA
  8
0
 10
3558.0162051923070976
 20
296.3269812702844206
 30
0.0
 40
0.0002929002944429
 50
327.4148759404802718
 51
63.3985854451403128
  0
ARC
  5
D8EB
  8
0
 10
3558.0087438641239714
 20
296.3448786868199818
 30
0.0
 40
0.0196317070723364
 50
272.9137842768150222
 51
293.118646580780478
  0
ARC
  5
D8EC
  8
0
 10
3557.9728295836021061
 20
296.7497826357496251
 30
0.0
 40
0.4261120580805205
 50
269.5521305767406943
 51
274.969511161755122
  0
ARC
  5
D8ED
  8
0
 10
3557.9657291691951286
 20
296.7298260198505773
 30
0.0
 40
0.4061599175383919
 50
264.688766278257674
 51
270.5317764055745897
  0
ARC
  5
D8EE
  8
0
 10
3557.9312289544809573
 20
296.3540154292069246
 30
0.0
 40
0.0287725938781091
 50
254.2476937919911109
 51
263.8222601909424725
  0
ARC
  5
D8EF
  8
0
 10
3557.923687221838918
 20
296.327702012365819
 30
0.0
 40
0.0014046835872212
 50
212.2697439592662931
 51
258.9417560434183088
  0
ARC
  5
D8F0
  8
0
 10
3557.9225138950159817
 20
296.2395615195633809
 30
0.0
 40
0.0002675886832895
 50
139.1564120734144012
 51
183.5114361722328908
  0
ARC
  5
D8F1
  8
0
 10
3557.9235623923659659
 20
296.2384397077449876
 30
0.0
 40
0.0018018173954781
 50
107.1474194634026986
 51
133.9681826450461131
  0
ARC
  5
D8F2
  8
0
 10
3557.9307208943891965
 20
296.2141035913314795
 30
0.0
 40
0.0271687896548167
 50
96.0054020137851154
 51
106.4414614343671985
  0
ARC
  5
D8F3
  8
0
 10
3557.9432773125568019
 20
296.1181174880998128
 30
0.0
 40
0.1239659234652592
 50
94.5043974236209152
 51
97.1356350524526846
  0
ARC
  5
D8F4
  8
0
 10
3557.9674326669191942
 20
295.7469547575353204
 30
0.0
 40
0.4959052075299061
 50
89.5974587777429434
 51
93.9187557635323458
  0
ARC
  5
D8F5
  8
0
 10
3557.9747635166891087
 20
295.8979786912030931
 30
0.0
 40
0.3448904887655578
 50
83.5867129548566936
 51
90.639074382545445
  0
ARC
  5
D8F6
  8
0
 10
3558.0122066522358182
 20
296.2323485185567051
 30
0.0
 40
0.0084319220766784
 50
62.6257512732778565
 51
82.634766031066647
  0
ARC
  5
D8F7
  8
0
 10
3558.0159525007979937
 20
296.239574357155675
 30
0.0
 40
0.0002929002944429
 50
327.4148759404802718
 51
63.3985854451403128
  0
ARC
  5
D8F8
  8
0
 10
3558.008491172613958
 20
296.257471773691293
 30
0.0
 40
0.0196317070723364
 50
272.9137842768150222
 51
293.118646580780478
  0
ARC
  5
D8F9
  8
0
 10
3557.9725768920930022
 20
296.6623757226208795
 30
0.0
 40
0.4261120580805205
 50
269.5521305767406943
 51
274.969511161755122
  0
ARC
  5
D8FA
  8
0
 10
3557.9654764776851152
 20
296.6424191067218885
 30
0.0
 40
0.4061599175383919
 50
264.688766278257674
 51
270.5317764055745897
  0
ARC
  5
D8FB
  8
0
 10
3557.9309762629718534
 20
296.266608516078179
 30
0.0
 40
0.0287725938781091
 50
254.2476937919911109
 51
263.8222601909424725
  0
ARC
  5
D8FC
  8
0
 10
3557.9234345303289047
 20
296.2402950992370734
 30
0.0
 40
0.0014046835872212
 50
212.2697439592662931
 51
258.9417560434183088
  0
ARC
  5
D8FD
  8
0
 10
3518.4433494257268649
 20
296.2832340482679001
 30
0.0
 40
0.0002675886832895
 50
139.1564120734144012
 51
183.5114361722328908
  0
ARC
  5
D8FE
  8
0
 10
3518.4443979230759396
 20
296.2821122364492794
 30
0.0
 40
0.0018018173954781
 50
107.1474194634026986
 51
133.9681826450483868
  0
ARC
  5
D8FF
  8
0
 10
3518.4515564250991702
 20
296.257776120035885
 30
0.0
 40
0.0271687896548167
 50
96.0054020137591948
 51
106.4414614343671985
  0
ARC
  5
D900
  8
0
 10
3518.4641128432681398
 20
296.1617900168041047
 30
0.0
 40
0.1239659234652592
 50
94.5043974236209152
 51
97.1356350524526846
  0
ARC
  5
D901
  8
0
 10
3518.4882681976291678
 20
295.7906272862397259
 30
0.0
 40
0.4959052075299061
 50
89.5974587777429434
 51
93.9187557635063541
  0
ARC
  5
D902
  8
0
 10
3518.4955990473999918
 20
295.9416512199074987
 30
0.0
 40
0.3448904887655578
 50
83.5867129548566936
 51
90.639074382545445
  0
ARC
  5
D903
  8
0
 10
3518.5330421829471561
 20
296.2760210472611107
 30
0.0
 40
0.0084319220766784
 50
62.6257512732778565
 51
82.634766031066647
  0
ARC
  5
D904
  8
0
 10
3518.5367880315079674
 20
296.2832468858600237
 30
0.0
 40
0.0002929002944429
 50
327.4148759404802718
 51
63.3985854451403128
  0
ARC
  5
D905
  8
0
 10
3518.5293267033248412
 20
296.3011443023958122
 30
0.0
 40
0.0196317070723364
 50
272.9137842768150222
 51
293.118646580780478
  0
ARC
  5
D906
  8
0
 10
3518.4934124228038854
 20
296.706048251325285
 30
0.0
 40
0.4261120580805205
 50
269.5521305767406943
 51
274.969511161755122
  0
ARC
  5
D907
  8
0
 10
3518.4863120083950889
 20
296.6860916354261803
 30
0.0
 40
0.4061599175383919
 50
264.688766278257674
 51
270.5317764055745897
  0
ARC
  5
D908
  8
0
 10
3518.4518117936818271
 20
296.3102810447825846
 30
0.0
 40
0.0287725938781091
 50
254.2476937919911109
 51
263.8222601909424725
  0
ARC
  5
D909
  8
0
 10
3518.4442700610397878
 20
296.2839676279414789
 30
0.0
 40
0.0014046835872212
 50
212.2697439592662931
 51
258.9417560434183088
  0
ARC
  5
D90A
  8
0
 10
3516.8076715138258805
 20
296.23952979076779
 30
0.0
 40
0.0002675886832895
 50
139.1564120734144012
 51
183.5114361722328908
  0
ARC
  5
D90B
  8
0
 10
3516.8087200111767743
 20
296.238407978949283
 30
0.0
 40
0.0018018173954781
 50
107.1474194634026986
 51
133.9681826450483868
  0
ARC
  5
D90C
  8
0
 10
3516.8158785131990953
 20
296.2140718625358886
 30
0.0
 40
0.0271687896548167
 50
96.0054020137591948
 51
106.4414614343671985
  0
ARC
  5
D90D
  8
0
 10
3516.828434931368065
 20
296.1180857593041083
 30
0.0
 40
0.1239659234652592
 50
94.5043974236209152
 51
97.1356350524526846
  0
ARC
  5
D90E
  8
0
 10
3516.852590285729093
 20
295.7469230287396726
 30
0.0
 40
0.4959052075299061
 50
89.5974587777429434
 51
93.9187557635063541
  0
ARC
  5
D90F
  8
0
 10
3516.859921135499917
 20
295.8979469624075023
 30
0.0
 40
0.3448904887655578
 50
83.5867129548566936
 51
90.639074382545445
  0
ARC
  5
D910
  8
0
 10
3516.8973642710470813
 20
296.2323167897611143
 30
0.0
 40
0.0084319220766784
 50
62.6257512732778565
 51
82.634766031066647
  0
ARC
  5
D911
  8
0
 10
3516.9011101196078926
 20
296.2395426283600273
 30
0.0
 40
0.0002929002944429
 50
327.4148759404802718
 51
63.3985854451403128
  0
ARC
  5
D912
  8
0
 10
3516.8936487914252211
 20
296.2574400448957022
 30
0.0
 40
0.0196317070723364
 50
272.9137842768150222
 51
293.118646580780478
  0
ARC
  5
D913
  8
0
 10
3516.8577345109029011
 20
296.6623439938252886
 30
0.0
 40
0.4261120580805205
 50
269.5521305767406943
 51
274.969511161755122
  0
ARC
  5
D914
  8
0
 10
3516.8506340964959236
 20
296.6423873779261839
 30
0.0
 40
0.4061599175383919
 50
264.688766278257674
 51
270.5317764055745897
  0
ARC
  5
D915
  8
0
 10
3516.816133881782207
 20
296.2665767872825882
 30
0.0
 40
0.0287725938781091
 50
254.2476937919911109
 51
263.8222601909424725
  0
ARC
  5
D916
  8
0
 10
3516.8085921491401677
 20
296.2402633704414256
 30
0.0
 40
0.0014046835872212
 50
212.2697439592662931
 51
258.9417560434183088
  0
ARC
  5
D917
  8
0
 10
3516.8076715138258805
 20
296.3269383057677828
 30
0.0
 40
0.0002675886832895
 50
139.1564120734144012
 51
183.5114361722328908
  0
ARC
  5
D918
  8
0
 10
3516.8087200111767743
 20
296.3258164939492758
 30
0.0
 40
0.0018018173954781
 50
107.1474194634026986
 51
133.9681826450483868
  0
ARC
  5
D919
  8
0
 10
3516.8158785131990953
 20
296.3014803775358814
 30
0.0
 40
0.0271687896548167
 50
96.0054020137591948
 51
106.4414614343671985
  0
ARC
  5
D91A
  8
0
 10
3516.828434931368065
 20
296.2054942743041011
 30
0.0
 40
0.1239659234652592
 50
94.5043974236209152
 51
97.1356350524526846
  0
ARC
  5
D91B
  8
0
 10
3516.852590285729093
 20
295.8343315437397223
 30
0.0
 40
0.4959052075299061
 50
89.5974587777429434
 51
93.9187557635063541
  0
ARC
  5
D91C
  8
0
 10
3516.859921135499917
 20
295.9853554774074951
 30
0.0
 40
0.3448904887655578
 50
83.5867129548566936
 51
90.639074382545445
  0
ARC
  5
D91D
  8
0
 10
3516.8973642710470813
 20
296.3197253047611071
 30
0.0
 40
0.0084319220766784
 50
62.6257512732778565
 51
82.634766031066647
  0
ARC
  5
D91E
  8
0
 10
3516.9011101196078926
 20
296.3269511433600201
 30
0.0
 40
0.0002929002944429
 50
327.4148759404802718
 51
63.3985854451403128
  0
ARC
  5
D91F
  8
0
 10
3516.8936487914252211
 20
296.3448485598958086
 30
0.0
 40
0.0196317070723364
 50
272.9137842768150222
 51
293.118646580780478
  0
ARC
  5
D920
  8
0
 10
3516.8577345109029011
 20
296.7497525088252814
 30
0.0
 40
0.4261120580805205
 50
269.5521305767406943
 51
274.969511161755122
  0
ARC
  5
D921
  8
0
 10
3516.8506340964959236
 20
296.7297958929262904
 30
0.0
 40
0.4061599175383919
 50
264.688766278257674
 51
270.5317764055745897
  0
ARC
  5
D922
  8
0
 10
3516.816133881782207
 20
296.353985302282581
 30
0.0
 40
0.0287725938781091
 50
254.2476937919911109
 51
263.8222601909424725
  0
ARC
  5
D923
  8
0
 10
3516.8085921491401677
 20
296.3276718854414185
 30
0.0
 40
0.0014046835872212
 50
212.2697439592662931
 51
258.9417560434183088
  0
ARC
  5
D924
  8
0
 10
3516.8076715138258805
 20
322.4125971135678128
 30
0.0
 40
0.0002675886832895
 50
139.1564120734144012
 51
183.5114361722328908
  0
ARC
  5
D925
  8
0
 10
3516.8087200111767743
 20
322.4114753017494195
 30
0.0
 40
0.0018018173954781
 50
107.1474194634026986
 51
133.9681826450461131
  0
ARC
  5
D926
  8
0
 10
3516.8158785131990953
 20
322.3871391853359114
 30
0.0
 40
0.0271687896548167
 50
96.0054020137591948
 51
106.4414614343671985
  0
ARC
  5
D927
  8
0
 10
3516.828434931368065
 20
322.2911530821040742
 30
0.0
 40
0.1239659234652592
 50
94.5043974236209152
 51
97.1356350524526846
  0
ARC
  5
D928
  8
0
 10
3516.852590285729093
 20
321.9199903515396954
 30
0.0
 40
0.4959052075299061
 50
89.5974587777429434
 51
93.9187557635063541
  0
ARC
  5
D929
  8
0
 10
3516.859921135499917
 20
322.0710142852075251
 30
0.0
 40
0.3448904887655578
 50
83.5867129548566936
 51
90.639074382545445
  0
ARC
  5
D92A
  8
0
 10
3516.8973642710470813
 20
322.4053841125610802
 30
0.0
 40
0.0084319220766784
 50
62.6257512732778565
 51
82.634766031066647
  0
ARC
  5
D92B
  8
0
 10
3516.9011101196078926
 20
322.4126099511599932
 30
0.0
 40
0.0002929002944429
 50
327.4148759404802718
 51
63.3985854451403128
  0
ARC
  5
D92C
  8
0
 10
3516.8936487914252211
 20
322.430507367695725
 30
0.0
 40
0.0196317070723364
 50
272.9137842768150222
 51
293.118646580780478
  0
ARC
  5
D92D
  8
0
 10
3516.8577345109029011
 20
322.8354113166253114
 30
0.0
 40
0.4261120580805205
 50
269.5521305767406943
 51
274.969511161755122
  0
ARC
  5
D92E
  8
0
 10
3516.8506340964959236
 20
322.8154547007263204
 30
0.0
 40
0.4061599175383919
 50
264.688766278257674
 51
270.5317764055745897
  0
ARC
  5
D92F
  8
0
 10
3516.816133881782207
 20
322.439644110082611
 30
0.0
 40
0.0287725938781091
 50
254.2476937919911109
 51
263.8222601909424725
  0
ARC
  5
D930
  8
0
 10
3516.8085921491401677
 20
322.4133306932413916
 30
0.0
 40
0.0014046835872212
 50
212.2697439592662931
 51
258.9417560434183088
  0
ARC
  5
D931
  8
0
 10
3516.8076715138258805
 20
322.3251885986678076
 30
0.0
 40
0.0002675886832895
 50
139.1564120734144012
 51
183.5114361722328908
  0
ARC
  5
D932
  8
0
 10
3516.8087200111767743
 20
322.3240667868493006
 30
0.0
 40
0.0018018173954781
 50
107.1474194634026986
 51
133.9681826450461131
  0
ARC
  5
D933
  8
0
 10
3516.8158785131990953
 20
322.2997306704359062
 30
0.0
 40
0.0271687896548167
 50
96.0054020137591948
 51
106.4414614343671985
  0
ARC
  5
D934
  8
0
 10
3516.828434931368065
 20
322.2037445672041258
 30
0.0
 40
0.1239659234652592
 50
94.5043974236209152
 51
97.1356350524526846
  0
ARC
  5
D935
  8
0
 10
3516.852590285729093
 20
321.8325818366396902
 30
0.0
 40
0.4959052075299061
 50
89.5974587777429434
 51
93.9187557635063541
  0
ARC
  5
D936
  8
0
 10
3516.859921135499917
 20
321.9836057703075198
 30
0.0
 40
0.3448904887655578
 50
83.5867129548566936
 51
90.639074382545445
  0
ARC
  5
D937
  8
0
 10
3516.8973642710470813
 20
322.317975597661075
 30
0.0
 40
0.0084319220766784
 50
62.6257512732778565
 51
82.634766031066647
  0
ARC
  5
D938
  8
0
 10
3516.9011101196078926
 20
322.325201436259988
 30
0.0
 40
0.0002929002944429
 50
327.4148759404802718
 51
63.3985854451403128
  0
ARC
  5
D939
  8
0
 10
3516.8936487914252211
 20
322.3430988527957197
 30
0.0
 40
0.0196317070723364
 50
272.9137842768150222
 51
293.118646580780478
  0
ARC
  5
D93A
  8
0
 10
3516.8577345109029011
 20
322.7480028017253062
 30
0.0
 40
0.4261120580805205
 50
269.5521305767406943
 51
274.969511161755122
  0
ARC
  5
D93B
  8
0
 10
3516.8506340964959236
 20
322.7280461858263152
 30
0.0
 40
0.4061599175383919
 50
264.688766278257674
 51
270.5317764055745897
  0
ARC
  5
D93C
  8
0
 10
3516.816133881782207
 20
322.3522355951826057
 30
0.0
 40
0.0287725938781091
 50
254.2476937919911109
 51
263.8222601909424725
  0
ARC
  5
D93D
  8
0
 10
3516.8085921491401677
 20
322.3259221783413864
 30
0.0
 40
0.0014046835872212
 50
212.2697439592662931
 51
258.9417560434183088
  0
ARC
  5
D93E
  8
0
 10
3518.4562603466270048
 20
322.368892856167804
 30
0.0
 40
0.0002675886832895
 50
139.1564120734144012
 51
183.5114361722328908
  0
ARC
  5
D93F
  8
0
 10
3518.4573088439760795
 20
322.3677710443494107
 30
0.0
 40
0.0018018173954781
 50
107.1474194634026986
 51
133.9681826450461131
  0
ARC
  5
D940
  8
0
 10
3518.4644673459988553
 20
322.3434349279359026
 30
0.0
 40
0.0271687896548167
 50
96.0054020137591948
 51
106.4414614343671985
  0
ARC
  5
D941
  8
0
 10
3518.4770237641669155
 20
322.2474488247041222
 30
0.0
 40
0.1239659234652592
 50
94.5043974236209152
 51
97.1356350524526846
  0
ARC
  5
D942
  8
0
 10
3518.5011791185302172
 20
321.8762860941396866
 30
0.0
 40
0.4959052075299061
 50
89.5974587777429434
 51
93.9187557635063541
  0
ARC
  5
D943
  8
0
 10
3518.5085099682992222
 20
322.0273100278074025
 30
0.0
 40
0.3448904887655578
 50
83.5867129548566936
 51
90.639074382545445
  0
ARC
  5
D944
  8
0
 10
3518.5459531038468413
 20
322.3616798551611282
 30
0.0
 40
0.0084319220766784
 50
62.6257512732778565
 51
82.634766031066647
  0
ARC
  5
D945
  8
0
 10
3518.5496989524081073
 20
322.3689056937600981
 30
0.0
 40
0.0002929002944429
 50
327.4148759404802718
 51
63.3985854451403128
  0
ARC
  5
D946
  8
0
 10
3518.5422376242240716
 20
322.386803110295773
 30
0.0
 40
0.0196317070723364
 50
272.9137842768150222
 51
293.118646580780478
  0
ARC
  5
D947
  8
0
 10
3518.5063233437040253
 20
322.7917070592253026
 30
0.0
 40
0.4261120580805205
 50
269.5521305767406943
 51
274.969511161755122
  0
ARC
  5
D948
  8
0
 10
3518.4992229292947741
 20
322.7717504433261979
 30
0.0
 40
0.4061599175383919
 50
264.688766278257674
 51
270.5317764055745897
  0
ARC
  5
D949
  8
0
 10
3518.4647227145828765
 20
322.3959398526826021
 30
0.0
 40
0.0287725938781091
 50
254.2476937919911109
 51
263.8222601909424725
  0
ARC
  5
D94A
  8
0
 10
3518.4571809819399277
 20
322.3696264358414965
 30
0.0
 40
0.0014046835872212
 50
212.2697439592662931
 51
258.9417560434183088
  0
ARC
  5
D94B
  8
0
 10
3520.2339583882271654
 20
322.4125971135678128
 30
0.0
 40
0.0002675886832895
 50
139.1564120734144012
 51
183.5114361722328908
  0
ARC
  5
D94C
  8
0
 10
3520.2350068855771497
 20
322.4114753017494195
 30
0.0
 40
0.0018018173954781
 50
107.1474194634026986
 51
133.9681826450461131
  0
ARC
  5
D94D
  8
0
 10
3520.2421653875999255
 20
322.3871391853359114
 30
0.0
 40
0.0271687896548167
 50
96.0054020137591948
 51
106.4414614343671985
  0
ARC
  5
D94E
  8
0
 10
3520.2547218057679856
 20
322.2911530821040742
 30
0.0
 40
0.1239659234652592
 50
94.5043974236209152
 51
97.1356350524526846
  0
ARC
  5
D94F
  8
0
 10
3520.2788771601299231
 20
321.9199903515396954
 30
0.0
 40
0.4959052075299061
 50
89.5974587777429434
 51
93.9187557635063541
  0
ARC
  5
D950
  8
0
 10
3520.2862080098989281
 20
322.0710142852075251
 30
0.0
 40
0.3448904887655578
 50
83.5867129548566936
 51
90.639074382545445
  0
ARC
  5
D951
  8
0
 10
3520.3236511454460924
 20
322.4053841125610802
 30
0.0
 40
0.0084319220766784
 50
62.6257512732778565
 51
82.634766031066647
  0
ARC
  5
D952
  8
0
 10
3520.3273969940091774
 20
322.4126099511599932
 30
0.0
 40
0.0002929002944429
 50
327.4148759404802718
 51
63.3985854451403128
  0
ARC
  5
D953
  8
0
 10
3520.3199356658251418
 20
322.430507367695725
 30
0.0
 40
0.0196317070723364
 50
272.9137842768150222
 51
293.118646580780478
  0
ARC
  5
D954
  8
0
 10
3520.284021385304186
 20
322.8354113166253114
 30
0.0
 40
0.4261120580805205
 50
269.5521305767406943
 51
274.969511161755122
  0
ARC
  5
D955
  8
0
 10
3520.2769209708949347
 20
322.8154547007263204
 30
0.0
 40
0.4061599175383919
 50
264.688766278257674
 51
270.5317764055745897
  0
ARC
  5
D956
  8
0
 10
3520.2424207561821277
 20
322.439644110082611
 30
0.0
 40
0.0287725938781091
 50
254.2476937919911109
 51
263.8222601909424725
  0
ARC
  5
D957
  8
0
 10
3520.2348790235400884
 20
322.4133306932413916
 30
0.0
 40
0.0014046835872212
 50
212.2697439592662931
 51
258.9417560434183088
  0
ARC
  5
D958
  8
0
 10
3520.2339583882271654
 20
322.3251885986678076
 30
0.0
 40
0.0002675886832895
 50
139.1564120734144012
 51
183.5114361722328908
  0
ARC
  5
D959
  8
0
 10
3520.2350068855771497
 20
322.3240667868493006
 30
0.0
 40
0.0018018173954781
 50
107.1474194634026986
 51
133.9681826450461131
  0
ARC
  5
D95A
  8
0
 10
3520.2421653875999255
 20
322.2997306704359062
 30
0.0
 40
0.0271687896548167
 50
96.0054020137591948
 51
106.4414614343671985
  0
ARC
  5
D95B
  8
0
 10
3520.2547218057679856
 20
322.2037445672041258
 30
0.0
 40
0.1239659234652592
 50
94.5043974236209152
 51
97.1356350524526846
  0
ARC
  5
D95C
  8
0
 10
3520.2788771601299231
 20
321.8325818366396902
 30
0.0
 40
0.4959052075299061
 50
89.5974587777429434
 51
93.9187557635063541
  0
ARC
  5
D95D
  8
0
 10
3520.2862080098989281
 20
321.9836057703075198
 30
0.0
 40
0.3448904887655578
 50
83.5867129548566936
 51
90.639074382545445
  0
ARC
  5
D95E
  8
0
 10
3520.3236511454460924
 20
322.317975597661075
 30
0.0
 40
0.0084319220766784
 50
62.6257512732778565
 51
82.634766031066647
  0
ARC
  5
D95F
  8
0
 10
3520.3273969940091774
 20
322.325201436259988
 30
0.0
 40
0.0002929002944429
 50
327.4148759404802718
 51
63.3985854451403128
  0
ARC
  5
D960
  8
0
 10
3520.3199356658251418
 20
322.3430988527957197
 30
0.0
 40
0.0196317070723364
 50
272.9137842768150222
 51
293.118646580780478
  0
ARC
  5
D961
  8
0
 10
3520.284021385304186
 20
322.7480028017253062
 30
0.0
 40
0.4261120580805205
 50
269.5521305767406943
 51
274.969511161755122
  0
ARC
  5
D962
  8
0
 10
3520.2769209708949347
 20
322.7280461858263152
 30
0.0
 40
0.4061599175383919
 50
264.688766278257674
 51
270.5317764055745897
  0
ARC
  5
D963
  8
0
 10
3520.2424207561821277
 20
322.3522355951826057
 30
0.0
 40
0.0287725938781091
 50
254.2476937919911109
 51
263.8222601909424725
  0
ARC
  5
D964
  8
0
 10
3520.2348790235400884
 20
322.3259221783413864
 30
0.0
 40
0.0014046835872212
 50
212.2697439592662931
 51
258.9417560434183088
  0
ARC
  5
D965
  8
0
 10
3525.3346559371270814
 20
322.368892856167804
 30
0.0
 40
0.0002675886832895
 50
139.1564120734144012
 51
183.5114361722328908
  0
ARC
  5
D966
  8
0
 10
3525.3357044344761562
 20
322.3677710443494107
 30
0.0
 40
0.0018018173954781
 50
107.1474194634026986
 51
133.9681826450461131
  0
ARC
  5
D967
  8
0
 10
3525.3428629364998415
 20
322.3434349279359026
 30
0.0
 40
0.0271687896548167
 50
96.0054020137851154
 51
106.4414614343671985
  0
ARC
  5
D968
  8
0
 10
3525.3554193546679016
 20
322.2474488247041222
 30
0.0
 40
0.1239659234652592
 50
94.5043974236209152
 51
97.1356350524526846
  0
ARC
  5
D969
  8
0
 10
3525.3795747090298391
 20
321.8762860941396866
 30
0.0
 40
0.4959052075299061
 50
89.5974587777429434
 51
93.9187557635063541
  0
ARC
  5
D96A
  8
0
 10
3525.3869055587988441
 20
322.0273100278074025
 30
0.0
 40
0.3448904887655578
 50
83.5867129548566936
 51
90.639074382545445
  0
ARC
  5
D96B
  8
0
 10
3525.4243486943469179
 20
322.3616798551611282
 30
0.0
 40
0.0084319220766784
 50
62.6257512732778565
 51
82.634766031066647
  0
ARC
  5
D96C
  8
0
 10
3525.4280945429081839
 20
322.3689056937600981
 30
0.0
 40
0.0002929002944429
 50
327.4148759404802718
 51
63.3985854451403128
  0
ARC
  5
D96D
  8
0
 10
3525.4206332147250578
 20
322.386803110295773
 30
0.0
 40
0.0196317070723364
 50
272.9137842768150222
 51
293.118646580780478
  0
ARC
  5
D96E
  8
0
 10
3525.384718934204102
 20
322.7917070592253026
 30
0.0
 40
0.4261120580805205
 50
269.5521305767406943
 51
274.969511161755122
  0
ARC
  5
D96F
  8
0
 10
3525.377618519796215
 20
322.7717504433261979
 30
0.0
 40
0.4061599175383919
 50
264.688766278257674
 51
270.5317764055745897
  0
ARC
  5
D970
  8
0
 10
3525.3431183050820437
 20
322.3959398526826021
 30
0.0
 40
0.0287725938781091
 50
254.2476937919911109
 51
263.8222601909424725
  0
ARC
  5
D971
  8
0
 10
3525.3355765724400044
 20
322.3696264358414965
 30
0.0
 40
0.0014046835872212
 50
212.2697439592662931
 51
258.9417560434183088
  0
ARC
  5
D972
  8
0
 10
3527.0865321370270067
 20
322.4125971135678128
 30
0.0
 40
0.0002675886832895
 50
139.1564120734144012
 51
183.5114361722328908
  0
ARC
  5
D973
  8
0
 10
3527.0875806343760814
 20
322.4114753017494195
 30
0.0
 40
0.0018018173954781
 50
107.1474194634026986
 51
133.9681826450461131
  0
ARC
  5
D974
  8
0
 10
3527.0947391364002215
 20
322.3871391853359114
 30
0.0
 40
0.0271687896548167
 50
96.0054020137851154
 51
106.4414614343671985
  0
ARC
  5
D975
  8
0
 10
3527.1072955545678269
 20
322.2911530821040742
 30
0.0
 40
0.1239659234652592
 50
94.5043974236209152
 51
97.1356350524526846
  0
ARC
  5
D976
  8
0
 10
3527.1314509089288549
 20
321.9199903515396954
 30
0.0
 40
0.4959052075299061
 50
89.5974587777429434
 51
93.9187557635063541
  0
ARC
  5
D977
  8
0
 10
3527.1387817586992242
 20
322.0710142852075251
 30
0.0
 40
0.3448904887655578
 50
83.5867129548566936
 51
90.639074382545445
  0
ARC
  5
D978
  8
0
 10
3527.1762248942468432
 20
322.4053841125610802
 30
0.0
 40
0.0084319220766784
 50
62.6257512732778565
 51
82.634766031066647
  0
ARC
  5
D979
  8
0
 10
3527.1799707428081092
 20
322.4126099511599932
 30
0.0
 40
0.0002929002944429
 50
327.4148759404802718
 51
63.3985854451403128
  0
ARC
  5
D97A
  8
0
 10
3527.172509414624983
 20
322.430507367695725
 30
0.0
 40
0.0196317070723364
 50
272.9137842768150222
 51
293.118646580780478
  0
ARC
  5
D97B
  8
0
 10
3527.1365951341031177
 20
322.8354113166253114
 30
0.0
 40
0.4261120580805205
 50
269.5521305767406943
 51
274.969511161755122
  0
ARC
  5
D97C
  8
0
 10
3527.1294947196961402
 20
322.8154547007263204
 30
0.0
 40
0.4061599175383919
 50
264.688766278257674
 51
270.5317764055745897
  0
ARC
  5
D97D
  8
0
 10
3527.0949945049819689
 20
322.439644110082611
 30
0.0
 40
0.0287725938781091
 50
254.2476937919911109
 51
263.8222601909424725
  0
ARC
  5
D97E
  8
0
 10
3527.0874527723399297
 20
322.4133306932413916
 30
0.0
 40
0.0014046835872212
 50
212.2697439592662931
 51
258.9417560434183088
  0
ARC
  5
D97F
  8
0
 10
3527.0865321370270067
 20
322.3251885986678076
 30
0.0
 40
0.0002675886832895
 50
139.1564120734144012
 51
183.5114361722328908
  0
ARC
  5
D980
  8
0
 10
3527.0875806343760814
 20
322.3240667868493006
 30
0.0
 40
0.0018018173954781
 50
107.1474194634026986
 51
133.9681826450461131
  0
ARC
  5
D981
  8
0
 10
3527.0947391364002215
 20
322.2997306704359062
 30
0.0
 40
0.0271687896548167
 50
96.0054020137851154
 51
106.4414614343671985
  0
ARC
  5
D982
  8
0
 10
3527.1072955545678269
 20
322.2037445672041258
 30
0.0
 40
0.1239659234652592
 50
94.5043974236209152
 51
97.1356350524526846
  0
ARC
  5
D983
  8
0
 10
3527.1314509089288549
 20
321.8325818366396902
 30
0.0
 40
0.4959052075299061
 50
89.5974587777429434
 51
93.9187557635063541
  0
ARC
  5
D984
  8
0
 10
3527.1387817586992242
 20
321.9836057703075198
 30
0.0
 40
0.3448904887655578
 50
83.5867129548566936
 51
90.639074382545445
  0
ARC
  5
D985
  8
0
 10
3527.1762248942468432
 20
322.317975597661075
 30
0.0
 40
0.0084319220766784
 50
62.6257512732778565
 51
82.634766031066647
  0
ARC
  5
D986
  8
0
 10
3527.1799707428081092
 20
322.325201436259988
 30
0.0
 40
0.0002929002944429
 50
327.4148759404802718
 51
63.3985854451403128
  0
ARC
  5
D987
  8
0
 10
3527.172509414624983
 20
322.3430988527957197
 30
0.0
 40
0.0196317070723364
 50
272.9137842768150222
 51
293.118646580780478
  0
ARC
  5
D988
  8
0
 10
3527.1365951341031177
 20
322.7480028017253062
 30
0.0
 40
0.4261120580805205
 50
269.5521305767406943
 51
274.969511161755122
  0
ARC
  5
D989
  8
0
 10
3527.1294947196961402
 20
322.7280461858263152
 30
0.0
 40
0.4061599175383919
 50
264.688766278257674
 51
270.5317764055745897
  0
ARC
  5
D98A
  8
0
 10
3527.0949945049819689
 20
322.3522355951826057
 30
0.0
 40
0.0287725938781091
 50
254.2476937919911109
 51
263.8222601909424725
  0
ARC
  5
D98B
  8
0
 10
3527.0874527723399297
 20
322.3259221783413864
 30
0.0
 40
0.0014046835872212
 50
212.2697439592662931
 51
258.9417560434183088
  0
ARC
  5
D98C
  8
0
 10
3528.7738537324271419
 20
322.3721794163271284
 30
0.0
 40
0.0002675886832895
 50
139.1564120734144012
 51
183.5114361722328908
  0
ARC
  5
D98D
  8
0
 10
3528.7749022297762167
 20
322.3710576045086782
 30
0.0
 40
0.0018018173954781
 50
107.1474194634026986
 51
133.9681826450461131
  0
ARC
  5
D98E
  8
0
 10
3528.782060731799902
 20
322.346721488095227
 30
0.0
 40
0.0271687896548167
 50
96.0054020137851154
 51
106.4414614343671985
  0
ARC
  5
D98F
  8
0
 10
3528.7946171499679622
 20
322.2507353848635034
 30
0.0
 40
0.1239659234652592
 50
94.5043974236209152
 51
97.1356350524526846
  0
ARC
  5
D990
  8
0
 10
3528.8187725043298997
 20
321.879572654299011
 30
0.0
 40
0.4959052075299061
 50
89.5974587777429434
 51
93.9187557635063541
  0
ARC
  5
D991
  8
0
 10
3528.8261033540998142
 20
322.0305965879667838
 30
0.0
 40
0.3448904887655578
 50
83.5867129548566936
 51
90.639074382545445
  0
ARC
  5
D992
  8
0
 10
3528.8635464896469784
 20
322.3649664153203958
 30
0.0
 40
0.0084319220766784
 50
62.6257512732778565
 51
82.634766031066647
  0
ARC
  5
D993
  8
0
 10
3528.8672923382077897
 20
322.3721922539193088
 30
0.0
 40
0.0002929002944429
 50
327.4148759404802718
 51
63.3985854451403128
  0
ARC
  5
D994
  8
0
 10
3528.8598310100251183
 20
322.3900896704550973
 30
0.0
 40
0.0196317070723364
 50
272.9137842768150222
 51
293.118646580780478
  0
ARC
  5
D995
  8
0
 10
3528.8239167295027983
 20
322.794993619384627
 30
0.0
 40
0.4261120580805205
 50
269.5521305767406943
 51
274.969511161755122
  0
ARC
  5
D996
  8
0
 10
3528.8168163150958208
 20
322.7750370034855791
 30
0.0
 40
0.4061599175383919
 50
264.688766278257674
 51
270.5317764055745897
  0
ARC
  5
D997
  8
0
 10
3528.7823161003811947
 20
322.3992264128419265
 30
0.0
 40
0.0287725938781091
 50
254.2476937919911109
 51
263.8222601909424725
  0
ARC
  5
D998
  8
0
 10
3528.7747743677400649
 20
322.3729129960007072
 30
0.0
 40
0.0014046835872212
 50
212.2697439592662931
 51
258.9417560434183088
  0
ARC
  5
D999
  8
0
 10
3530.5128190113268829
 20
322.4125971135678128
 30
0.0
 40
0.0002675886832895
 50
139.1564120734144012
 51
183.5114361722328908
  0
ARC
  5
D99A
  8
0
 10
3530.5138675086768671
 20
322.4114753017494195
 30
0.0
 40
0.0018018173954781
 50
107.1474194634026986
 51
133.9681826450461131
  0
ARC
  5
D99B
  8
0
 10
3530.5210260107000977
 20
322.3871391853359114
 30
0.0
 40
0.0271687896548167
 50
96.0054020137851154
 51
106.4414614343671985
  0
ARC
  5
D99C
  8
0
 10
3530.5335824288681579
 20
322.2911530821040742
 30
0.0
 40
0.1239659234652592
 50
94.5043974236209152
 51
97.1356350524526846
  0
ARC
  5
D99D
  8
0
 10
3530.5577377832300954
 20
321.9199903515396954
 30
0.0
 40
0.4959052075299061
 50
89.5974587777429434
 51
93.9187557635063541
  0
ARC
  5
D99E
  8
0
 10
3530.5650686330000099
 20
322.0710142852075251
 30
0.0
 40
0.3448904887655578
 50
83.5867129548566936
 51
90.639074382545445
  0
ARC
  5
D99F
  8
0
 10
3530.6025117685471741
 20
322.4053841125610802
 30
0.0
 40
0.0084319220766784
 50
62.6257512732778565
 51
82.634766031066647
  0
ARC
  5
D9A0
  8
0
 10
3530.6062576171079854
 20
322.4126099511599932
 30
0.0
 40
0.0002929002944429
 50
327.4148759404802718
 51
63.3985854451403128
  0
ARC
  5
D9A1
  8
0
 10
3530.5987962889248593
 20
322.430507367695725
 30
0.0
 40
0.0196317070723364
 50
272.9137842768150222
 51
293.118646580780478
  0
ARC
  5
D9A2
  8
0
 10
3530.5628820084039035
 20
322.8354113166253114
 30
0.0
 40
0.4261120580805205
 50
269.5521305767406943
 51
274.969511161755122
  0
ARC
  5
D9A3
  8
0
 10
3530.5557815939960165
 20
322.8154547007263204
 30
0.0
 40
0.4061599175383919
 50
264.688766278257674
 51
270.5317764055745897
  0
ARC
  5
D9A4
  8
0
 10
3530.5212813792818451
 20
322.439644110082611
 30
0.0
 40
0.0287725938781091
 50
254.2476937919911109
 51
263.8222601909424725
  0
ARC
  5
D9A5
  8
0
 10
3530.5137396466398059
 20
322.4133306932413916
 30
0.0
 40
0.0014046835872212
 50
212.2697439592662931
 51
258.9417560434183088
  0
ARC
  5
D9A6
  8
0
 10
3530.5128190113268829
 20
322.3251885986678076
 30
0.0
 40
0.0002675886832895
 50
139.1564120734144012
 51
183.5114361722328908
  0
ARC
  5
D9A7
  8
0
 10
3530.5138675086768671
 20
322.3240667868493006
 30
0.0
 40
0.0018018173954781
 50
107.1474194634026986
 51
133.9681826450461131
  0
ARC
  5
D9A8
  8
0
 10
3530.5210260107000977
 20
322.2997306704359062
 30
0.0
 40
0.0271687896548167
 50
96.0054020137851154
 51
106.4414614343671985
  0
ARC
  5
D9A9
  8
0
 10
3530.5335824288681579
 20
322.2037445672041258
 30
0.0
 40
0.1239659234652592
 50
94.5043974236209152
 51
97.1356350524526846
  0
ARC
  5
D9AA
  8
0
 10
3530.5577377832300954
 20
321.8325818366396902
 30
0.0
 40
0.4959052075299061
 50
89.5974587777429434
 51
93.9187557635063541
  0
ARC
  5
D9AB
  8
0
 10
3530.5650686330000099
 20
321.9836057703075198
 30
0.0
 40
0.3448904887655578
 50
83.5867129548566936
 51
90.639074382545445
  0
ARC
  5
D9AC
  8
0
 10
3530.6025117685471741
 20
322.317975597661075
 30
0.0
 40
0.0084319220766784
 50
62.6257512732778565
 51
82.634766031066647
  0
ARC
  5
D9AD
  8
0
 10
3530.6062576171079854
 20
322.325201436259988
 30
0.0
 40
0.0002929002944429
 50
327.4148759404802718
 51
63.3985854451403128
  0
ARC
  5
D9AE
  8
0
 10
3530.5987962889248593
 20
322.3430988527957197
 30
0.0
 40
0.0196317070723364
 50
272.9137842768150222
 51
293.118646580780478
  0
ARC
  5
D9AF
  8
0
 10
3530.5628820084039035
 20
322.7480028017253062
 30
0.0
 40
0.4261120580805205
 50
269.5521305767406943
 51
274.969511161755122
  0
ARC
  5
D9B0
  8
0
 10
3530.5557815939960165
 20
322.7280461858263152
 30
0.0
 40
0.4061599175383919
 50
264.688766278257674
 51
270.5317764055745897
  0
ARC
  5
D9B1
  8
0
 10
3530.5212813792818451
 20
322.3522355951826057
 30
0.0
 40
0.0287725938781091
 50
254.2476937919911109
 51
263.8222601909424725
  0
ARC
  5
D9B2
  8
0
 10
3530.5137396466398059
 20
322.3259221783413864
 30
0.0
 40
0.0014046835872212
 50
212.2697439592662931
 51
258.9417560434183088
  0
ARC
  5
D9B3
  8
0
 10
3532.2130515276271581
 20
322.368892856167804
 30
0.0
 40
0.0002675886832895
 50
139.1564120734144012
 51
183.5114361722328908
  0
ARC
  5
D9B4
  8
0
 10
3532.2141000249757781
 20
322.3677710443494107
 30
0.0
 40
0.0018018173954781
 50
107.1474194634026986
 51
133.9681826450461131
  0
ARC
  5
D9B5
  8
0
 10
3532.2212585269999181
 20
322.3434349279359026
 30
0.0
 40
0.0271687896548167
 50
96.0054020137851154
 51
106.4414614343671985
  0
ARC
  5
D9B6
  8
0
 10
3532.2338149451670688
 20
322.2474488247041222
 30
0.0
 40
0.1239659234652592
 50
94.5043974236209152
 51
97.1356350524526846
  0
ARC
  5
D9B7
  8
0
 10
3532.2579702995299158
 20
321.8762860941396866
 30
0.0
 40
0.4959052075299061
 50
89.5974587777429434
 51
93.9187557635063541
  0
ARC
  5
D9B8
  8
0
 10
3532.2653011492998303
 20
322.0273100278074025
 30
0.0
 40
0.3448904887655578
 50
83.5867129548566936
 51
90.639074382545445
  0
ARC
  5
D9B9
  8
0
 10
3532.3027442848469946
 20
322.3616798551611282
 30
0.0
 40
0.0084319220766784
 50
62.6257512732778565
 51
82.634766031066647
  0
ARC
  5
D9BA
  8
0
 10
3532.3064901334091701
 20
322.3689056937600981
 30
0.0
 40
0.0002929002944429
 50
327.4148759404802718
 51
63.3985854451403128
  0
ARC
  5
D9BB
  8
0
 10
3532.2990288052251344
 20
322.386803110295773
 30
0.0
 40
0.0196317070723364
 50
272.9137842768150222
 51
293.118646580780478
  0
ARC
  5
D9BC
  8
0
 10
3532.2631145247041786
 20
322.7917070592253026
 30
0.0
 40
0.4261120580805205
 50
269.5521305767406943
 51
274.969511161755122
  0
ARC
  5
D9BD
  8
0
 10
3532.2560141102949274
 20
322.7717504433261979
 30
0.0
 40
0.4061599175383919
 50
264.688766278257674
 51
270.5317764055745897
  0
ARC
  5
D9BE
  8
0
 10
3532.2215138955821203
 20
322.3959398526826021
 30
0.0
 40
0.0287725938781091
 50
254.2476937919911109
 51
263.8222601909424725
  0
ARC
  5
D9BF
  8
0
 10
3532.213972162940081
 20
322.3696264358414965
 30
0.0
 40
0.0014046835872212
 50
212.2697439592662931
 51
258.9417560434183088
  0
ARC
  5
D9C0
  8
0
 10
3533.9391058857268035
 20
322.3251885986678076
 30
0.0
 40
0.0002675886832895
 50
139.1564120734144012
 51
183.5114361722328908
  0
ARC
  5
D9C1
  8
0
 10
3533.9401543830767878
 20
322.3240667868493006
 30
0.0
 40
0.0018018173954781
 50
107.1474194634026986
 51
133.9681826450461131
  0
ARC
  5
D9C2
  8
0
 10
3533.9473128850991088
 20
322.2997306704359062
 30
0.0
 40
0.0271687896548167
 50
96.0054020137851154
 51
106.4414614343671985
  0
ARC
  5
D9C3
  8
0
 10
3533.9598693032680785
 20
322.2037445672041258
 30
0.0
 40
0.1239659234652592
 50
94.5043974236209152
 51
97.1356350524526846
  0
ARC
  5
D9C4
  8
0
 10
3533.9840246576291065
 20
321.8325818366396902
 30
0.0
 40
0.4959052075299061
 50
89.5974587777429434
 51
93.9187557635063541
  0
ARC
  5
D9C5
  8
0
 10
3533.9913555073999305
 20
321.9836057703075198
 30
0.0
 40
0.3448904887655578
 50
83.5867129548566936
 51
90.639074382545445
  0
ARC
  5
D9C6
  8
0
 10
3534.0287986429470948
 20
322.317975597661075
 30
0.0
 40
0.0084319220766784
 50
62.6257512732778565
 51
82.634766031066647
  0
ARC
  5
D9C7
  8
0
 10
3534.0325444915079061
 20
322.325201436259988
 30
0.0
 40
0.0002929002944429
 50
327.4148759404802718
 51
63.3985854451403128
  0
ARC
  5
D9C8
  8
0
 10
3534.0250831633247799
 20
322.3430988527957197
 30
0.0
 40
0.0196317070723364
 50
272.9137842768150222
 51
293.118646580780478
  0
ARC
  5
D9C9
  8
0
 10
3533.9891688828029146
 20
322.7480028017253062
 30
0.0
 40
0.4261120580805205
 50
269.5521305767406943
 51
274.969511161755122
  0
ARC
  5
D9CA
  8
0
 10
3533.9820684683959371
 20
322.7280461858263152
 30
0.0
 40
0.4061599175383919
 50
264.688766278257674
 51
270.5317764055745897
  0
ARC
  5
D9CB
  8
0
 10
3533.9475682536822205
 20
322.3522355951826057
 30
0.0
 40
0.0287725938781091
 50
254.2476937919911109
 51
263.8222601909424725
  0
ARC
  5
D9CC
  8
0
 10
3533.9400265210401813
 20
322.3259221783413864
 30
0.0
 40
0.0014046835872212
 50
212.2697439592662931
 51
258.9417560434183088
  0
ARC
  5
D9CD
  8
0
 10
3533.9391058857268035
 20
322.4125971135678128
 30
0.0
 40
0.0002675886832895
 50
139.1564120734144012
 51
183.5114361722328908
  0
ARC
  5
D9CE
  8
0
 10
3533.9401543830767878
 20
322.4114753017494195
 30
0.0
 40
0.0018018173954781
 50
107.1474194634026986
 51
133.9681826450461131
  0
ARC
  5
D9CF
  8
0
 10
3533.9473128850991088
 20
322.3871391853359114
 30
0.0
 40
0.0271687896548167
 50
96.0054020137851154
 51
106.4414614343671985
  0
ARC
  5
D9D0
  8
0
 10
3533.9598693032680785
 20
322.2911530821040742
 30
0.0
 40
0.1239659234652592
 50
94.5043974236209152
 51
97.1356350524526846
  0
ARC
  5
D9D1
  8
0
 10
3533.9840246576291065
 20
321.9199903515396954
 30
0.0
 40
0.4959052075299061
 50
89.5974587777429434
 51
93.9187557635063541
  0
ARC
  5
D9D2
  8
0
 10
3533.9913555073999305
 20
322.0710142852075251
 30
0.0
 40
0.3448904887655578
 50
83.5867129548566936
 51
90.639074382545445
  0
ARC
  5
D9D3
  8
0
 10
3534.0287986429470948
 20
322.4053841125610802
 30
0.0
 40
0.0084319220766784
 50
62.6257512732778565
 51
82.634766031066647
  0
ARC
  5
D9D4
  8
0
 10
3534.0325444915079061
 20
322.4126099511599932
 30
0.0
 40
0.0002929002944429
 50
327.4148759404802718
 51
63.3985854451403128
  0
ARC
  5
D9D5
  8
0
 10
3534.0250831633247799
 20
322.430507367695725
 30
0.0
 40
0.0196317070723364
 50
272.9137842768150222
 51
293.118646580780478
  0
ARC
  5
D9D6
  8
0
 10
3533.9891688828029146
 20
322.8354113166253114
 30
0.0
 40
0.4261120580805205
 50
269.5521305767406943
 51
274.969511161755122
  0
ARC
  5
D9D7
  8
0
 10
3533.9820684683959371
 20
322.8154547007263204
 30
0.0
 40
0.4061599175383919
 50
264.688766278257674
 51
270.5317764055745897
  0
ARC
  5
D9D8
  8
0
 10
3533.9475682536822205
 20
322.439644110082611
 30
0.0
 40
0.0287725938781091
 50
254.2476937919911109
 51
263.8222601909424725
  0
ARC
  5
D9D9
  8
0
 10
3533.9400265210401813
 20
322.4133306932413916
 30
0.0
 40
0.0014046835872212
 50
212.2697439592662931
 51
258.9417560434183088
  0
ARC
  5
D9DA
  8
0
 10
3535.6522493229258544
 20
322.368892856167804
 30
0.0
 40
0.0002675886832895
 50
139.1564120734144012
 51
183.5114361722328908
  0
ARC
  5
D9DB
  8
0
 10
3535.6532978202772028
 20
322.3677710443494107
 30
0.0
 40
0.0018018173954781
 50
107.1474194634026986
 51
133.9681826450461131
  0
ARC
  5
D9DC
  8
0
 10
3535.6604563222990691
 20
322.3434349279359026
 30
0.0
 40
0.0271687896548167
 50
96.0054020137851154
 51
106.4414614343671985
  0
ARC
  5
D9DD
  8
0
 10
3535.6730127404671293
 20
322.2474488247041222
 30
0.0
 40
0.1239659234652592
 50
94.5043974236209152
 51
97.1356350524526846
  0
ARC
  5
D9DE
  8
0
 10
3535.6971680948290668
 20
321.8762860941396866
 30
0.0
 40
0.4959052075299061
 50
89.5974587777429434
 51
93.9187557635063541
  0
ARC
  5
D9DF
  8
0
 10
3535.7044989445998908
 20
322.0273100278074025
 30
0.0
 40
0.3448904887655578
 50
83.5867129548566936
 51
90.639074382545445
  0
ARC
  5
D9E0
  8
0
 10
3535.7419420801470551
 20
322.3616798551611282
 30
0.0
 40
0.0084319220766784
 50
62.6257512732778565
 51
82.634766031066647
  0
ARC
  5
D9E1
  8
0
 10
3535.7456879287078664
 20
322.3689056937600981
 30
0.0
 40
0.0002929002944429
 50
327.4148759404802718
 51
63.3985854451403128
  0
ARC
  5
D9E2
  8
0
 10
3535.738226600525195
 20
322.386803110295773
 30
0.0
 40
0.0196317070723364
 50
272.9137842768150222
 51
293.118646580780478
  0
ARC
  5
D9E3
  8
0
 10
3535.7023123200037844
 20
322.7917070592253026
 30
0.0
 40
0.4261120580805205
 50
269.5521305767406943
 51
274.969511161755122
  0
ARC
  5
D9E4
  8
0
 10
3535.6952119055958974
 20
322.7717504433261979
 30
0.0
 40
0.4061599175383919
 50
264.688766278257674
 51
270.5317764055745897
  0
ARC
  5
D9E5
  8
0
 10
3535.6607116908821808
 20
322.3959398526826021
 30
0.0
 40
0.0287725938781091
 50
254.2476937919911109
 51
263.8222601909424725
  0
ARC
  5
D9E6
  8
0
 10
3535.6531699582401416
 20
322.3696264358414965
 30
0.0
 40
0.0014046835872212
 50
212.2697439592662931
 51
258.9417560434183088
  0
ARC
  5
D9E7
  8
0
 10
3537.3653927601271789
 20
322.4125971135678128
 30
0.0
 40
0.0002675886832895
 50
139.1564120734144012
 51
183.5114361722328908
  0
ARC
  5
D9E8
  8
0
 10
3537.3664412574757989
 20
322.4114753017494195
 30
0.0
 40
0.0018018173954781
 50
107.1474194634026986
 51
133.9681826450461131
  0
ARC
  5
D9E9
  8
0
 10
3537.373599759499939
 20
322.3871391853359114
 30
0.0
 40
0.0271687896548167
 50
96.0054020137591948
 51
106.4414614343671985
  0
ARC
  5
D9EA
  8
0
 10
3537.3861561776679991
 20
322.2911530821040742
 30
0.0
 40
0.1239659234652592
 50
94.5043974236209152
 51
97.1356350524526846
  0
ARC
  5
D9EB
  8
0
 10
3537.4103115320299366
 20
321.9199903515396954
 30
0.0
 40
0.4959052075299061
 50
89.5974587777429434
 51
93.9187557635063541
  0
ARC
  5
D9EC
  8
0
 10
3537.4176423817989416
 20
322.0710142852075251
 30
0.0
 40
0.3448904887655578
 50
83.5867129548566936
 51
90.639074382545445
  0
ARC
  5
D9ED
  8
0
 10
3537.4550855173470154
 20
322.4053841125610802
 30
0.0
 40
0.0084319220766784
 50
62.6257512732778565
 51
82.634766031066647
  0
ARC
  5
D9EE
  8
0
 10
3537.4588313659078267
 20
322.4126099511599932
 30
0.0
 40
0.0002929002944429
 50
327.4148759404802718
 51
63.3985854451403128
  0
ARC
  5
D9EF
  8
0
 10
3537.4513700377251553
 20
322.430507367695725
 30
0.0
 40
0.0196317070723364
 50
272.9137842768150222
 51
293.118646580780478
  0
ARC
  5
D9F0
  8
0
 10
3537.4154557572041995
 20
322.8354113166253114
 30
0.0
 40
0.4261120580805205
 50
269.5521305767406943
 51
274.969511161755122
  0
ARC
  5
D9F1
  8
0
 10
3537.4083553427958577
 20
322.8154547007263204
 30
0.0
 40
0.4061599175383919
 50
264.688766278257674
 51
270.5317764055745897
  0
ARC
  5
D9F2
  8
0
 10
3537.3738551280821412
 20
322.439644110082611
 30
0.0
 40
0.0287725938781091
 50
254.2476937919911109
 51
263.8222601909424725
  0
ARC
  5
D9F3
  8
0
 10
3537.3663133954401019
 20
322.4133306932413916
 30
0.0
 40
0.0014046835872212
 50
212.2697439592662931
 51
258.9417560434183088
  0
ARC
  5
D9F4
  8
0
 10
3537.3653927601271789
 20
322.3251885986678076
 30
0.0
 40
0.0002675886832895
 50
139.1564120734144012
 51
183.5114361722328908
  0
ARC
  5
D9F5
  8
0
 10
3537.3664412574757989
 20
322.3240667868493006
 30
0.0
 40
0.0018018173954781
 50
107.1474194634026986
 51
133.9681826450461131
  0
ARC
  5
D9F6
  8
0
 10
3537.373599759499939
 20
322.2997306704359062
 30
0.0
 40
0.0271687896548167
 50
96.0054020137591948
 51
106.4414614343671985
  0
ARC
  5
D9F7
  8
0
 10
3537.3861561776679991
 20
322.2037445672041258
 30
0.0
 40
0.1239659234652592
 50
94.5043974236209152
 51
97.1356350524526846
  0
ARC
  5
D9F8
  8
0
 10
3537.4103115320299366
 20
321.8325818366396902
 30
0.0
 40
0.4959052075299061
 50
89.5974587777429434
 51
93.9187557635063541
  0
ARC
  5
D9F9
  8
0
 10
3537.4176423817989416
 20
321.9836057703075198
 30
0.0
 40
0.3448904887655578
 50
83.5867129548566936
 51
90.639074382545445
  0
ARC
  5
D9FA
  8
0
 10
3537.4550855173470154
 20
322.317975597661075
 30
0.0
 40
0.0084319220766784
 50
62.6257512732778565
 51
82.634766031066647
  0
ARC
  5
D9FB
  8
0
 10
3537.4588313659078267
 20
322.325201436259988
 30
0.0
 40
0.0002929002944429
 50
327.4148759404802718
 51
63.3985854451403128
  0
ARC
  5
D9FC
  8
0
 10
3537.4513700377251553
 20
322.3430988527957197
 30
0.0
 40
0.0196317070723364
 50
272.9137842768150222
 51
293.118646580780478
  0
ARC
  5
D9FD
  8
0
 10
3537.4154557572041995
 20
322.7480028017253062
 30
0.0
 40
0.4261120580805205
 50
269.5521305767406943
 51
274.969511161755122
  0
ARC
  5
D9FE
  8
0
 10
3537.4083553427958577
 20
322.7280461858263152
 30
0.0
 40
0.4061599175383919
 50
264.688766278257674
 51
270.5317764055745897
  0
ARC
  5
D9FF
  8
0
 10
3537.3738551280821412
 20
322.3522355951826057
 30
0.0
 40
0.0287725938781091
 50
254.2476937919911109
 51
263.8222601909424725
  0
ARC
  5
DA00
  8
0
 10
3537.3663133954401019
 20
322.3259221783413864
 30
0.0
 40
0.0014046835872212
 50
212.2697439592662931
 51
258.9417560434183088
  0
ARC
  5
DA01
  8
0
 10
3539.0914471182259149
 20
322.3721794163271284
 30
0.0
 40
0.0002675886832895
 50
139.1564120734144012
 51
183.5114361722328908
  0
ARC
  5
DA02
  8
0
 10
3539.0924956155768086
 20
322.3710576045086782
 30
0.0
 40
0.0018018173954781
 50
107.1474194634026986
 51
133.9681826450461131
  0
ARC
  5
DA03
  8
0
 10
3539.0996541175991297
 20
322.346721488095227
 30
0.0
 40
0.0271687896548167
 50
96.0054020137591948
 51
106.4414614343671985
  0
ARC
  5
DA04
  8
0
 10
3539.1122105357680994
 20
322.2507353848635034
 30
0.0
 40
0.1239659234652592
 50
94.5043974236209152
 51
97.1356350524526846
  0
ARC
  5
DA05
  8
0
 10
3539.1363658901291274
 20
321.879572654299011
 30
0.0
 40
0.4959052075299061
 50
89.5974587777429434
 51
93.9187557635063541
  0
ARC
  5
DA06
  8
0
 10
3539.1436967398999514
 20
322.0305965879667838
 30
0.0
 40
0.3448904887655578
 50
83.5867129548566936
 51
90.639074382545445
  0
ARC
  5
DA07
  8
0
 10
3539.1811398754471156
 20
322.3649664153203958
 30
0.0
 40
0.0084319220766784
 50
62.6257512732778565
 51
82.634766031066647
  0
ARC
  5
DA08
  8
0
 10
3539.1848857240079269
 20
322.3721922539193088
 30
0.0
 40
0.0002929002944429
 50
327.4148759404802718
 51
63.3985854451403128
  0
ARC
  5
DA09
  8
0
 10
3539.1774243958248007
 20
322.3900896704550973
 30
0.0
 40
0.0196317070723364
 50
272.9137842768150222
 51
293.118646580780478
  0
ARC
  5
DA0A
  8
0
 10
3539.1415101153038449
 20
322.794993619384627
 30
0.0
 40
0.4261120580805205
 50
269.5521305767406943
 51
274.969511161755122
  0
ARC
  5
DA0B
  8
0
 10
3539.1344097008959579
 20
322.7750370034855791
 30
0.0
 40
0.4061599175383919
 50
264.688766278257674
 51
270.5317764055745897
  0
ARC
  5
DA0C
  8
0
 10
3539.0999094861817866
 20
322.3992264128419265
 30
0.0
 40
0.0287725938781091
 50
254.2476937919911109
 51
263.8222601909424725
  0
ARC
  5
DA0D
  8
0
 10
3539.0923677535402021
 20
322.3729129960007072
 30
0.0
 40
0.0014046835872212
 50
212.2697439592662931
 51
258.9417560434183088
  0
ARC
  5
DA0E
  8
0
 10
3540.7916796345270996
 20
322.3251885986678076
 30
0.0
 40
0.0002675886832895
 50
139.1564120734144012
 51
183.5114361722328908
  0
ARC
  5
DA0F
  8
0
 10
3540.7927281318761743
 20
322.3240667868493006
 30
0.0
 40
0.0018018173954781
 50
107.1474194634026986
 51
133.9681826450461131
  0
ARC
  5
DA10
  8
0
 10
3540.7998866338989501
 20
322.2997306704359062
 30
0.0
 40
0.0271687896548167
 50
96.0054020137591948
 51
106.4414614343671985
  0
ARC
  5
DA11
  8
0
 10
3540.8124430520670103
 20
322.2037445672041258
 30
0.0
 40
0.1239659234652592
 50
94.5043974236209152
 51
97.1356350524526846
  0
ARC
  5
DA12
  8
0
 10
3540.8365984064298573
 20
321.8325818366396902
 30
0.0
 40
0.4959052075299061
 50
89.5974587777429434
 51
93.9187557635063541
  0
ARC
  5
DA13
  8
0
 10
3540.8439292562002265
 20
321.9836057703075198
 30
0.0
 40
0.3448904887655578
 50
83.5867129548566936
 51
90.639074382545445
  0
ARC
  5
DA14
  8
0
 10
3540.881372391746936
 20
322.317975597661075
 30
0.0
 40
0.0084319220766784
 50
62.6257512732778565
 51
82.634766031066647
  0
ARC
  5
DA15
  8
0
 10
3540.8851182403082021
 20
322.325201436259988
 30
0.0
 40
0.0002929002944429
 50
327.4148759404802718
 51
63.3985854451403128
  0
ARC
  5
DA16
  8
0
 10
3540.8776569121250759
 20
322.3430988527957197
 30
0.0
 40
0.0196317070723364
 50
272.9137842768150222
 51
293.118646580780478
  0
ARC
  5
DA17
  8
0
 10
3540.8417426316041201
 20
322.7480028017253062
 30
0.0
 40
0.4261120580805205
 50
269.5521305767406943
 51
274.969511161755122
  0
ARC
  5
DA18
  8
0
 10
3540.8346422171948689
 20
322.7280461858263152
 30
0.0
 40
0.4061599175383919
 50
264.688766278257674
 51
270.5317764055745897
  0
ARC
  5
DA19
  8
0
 10
3540.8001420024829713
 20
322.3522355951826057
 30
0.0
 40
0.0287725938781091
 50
254.2476937919911109
 51
263.8222601909424725
  0
ARC
  5
DA1A
  8
0
 10
3540.792600269840932
 20
322.3259221783413864
 30
0.0
 40
0.0014046835872212
 50
212.2697439592662931
 51
258.9417560434183088
  0
ARC
  5
DA1B
  8
0
 10
3540.7916796345270996
 20
322.4125971135678128
 30
0.0
 40
0.0002675886832895
 50
139.1564120734144012
 51
183.5114361722328908
  0
ARC
  5
DA1C
  8
0
 10
3540.7927281318761743
 20
322.4114753017494195
 30
0.0
 40
0.0018018173954781
 50
107.1474194634026986
 51
133.9681826450461131
  0
ARC
  5
DA1D
  8
0
 10
3540.7998866338989501
 20
322.3871391853359114
 30
0.0
 40
0.0271687896548167
 50
96.0054020137591948
 51
106.4414614343671985
  0
ARC
  5
DA1E
  8
0
 10
3540.8124430520670103
 20
322.2911530821040742
 30
0.0
 40
0.1239659234652592
 50
94.5043974236209152
 51
97.1356350524526846
  0
ARC
  5
DA1F
  8
0
 10
3540.8365984064298573
 20
321.9199903515396954
 30
0.0
 40
0.4959052075299061
 50
89.5974587777429434
 51
93.9187557635063541
  0
ARC
  5
DA20
  8
0
 10
3540.8439292562002265
 20
322.0710142852075251
 30
0.0
 40
0.3448904887655578
 50
83.5867129548566936
 51
90.639074382545445
  0
ARC
  5
DA21
  8
0
 10
3540.881372391746936
 20
322.4053841125610802
 30
0.0
 40
0.0084319220766784
 50
62.6257512732778565
 51
82.634766031066647
  0
ARC
  5
DA22
  8
0
 10
3540.8851182403082021
 20
322.4126099511599932
 30
0.0
 40
0.0002929002944429
 50
327.4148759404802718
 51
63.3985854451403128
  0
ARC
  5
DA23
  8
0
 10
3540.8776569121250759
 20
322.430507367695725
 30
0.0
 40
0.0196317070723364
 50
272.9137842768150222
 51
293.118646580780478
  0
ARC
  5
DA24
  8
0
 10
3540.8417426316041201
 20
322.8354113166253114
 30
0.0
 40
0.4261120580805205
 50
269.5521305767406943
 51
274.969511161755122
  0
ARC
  5
DA25
  8
0
 10
3540.8346422171948689
 20
322.8154547007263204
 30
0.0
 40
0.4061599175383919
 50
264.688766278257674
 51
270.5317764055745897
  0
ARC
  5
DA26
  8
0
 10
3540.8001420024829713
 20
322.439644110082611
 30
0.0
 40
0.0287725938781091
 50
254.2476937919911109
 51
263.8222601909424725
  0
ARC
  5
DA27
  8
0
 10
3540.792600269840932
 20
322.4133306932413916
 30
0.0
 40
0.0014046835872212
 50
212.2697439592662931
 51
258.9417560434183088
  0
ARC
  5
DA28
  8
0
 10
3542.530644913425931
 20
322.368892856167804
 30
0.0
 40
0.0002675886832895
 50
139.1564120734144012
 51
183.5114361722328908
  0
ARC
  5
DA29
  8
0
 10
3542.5316934107759153
 20
322.3677710443494107
 30
0.0
 40
0.0018018173954781
 50
107.1474194634026986
 51
133.9681826450461131
  0
ARC
  5
DA2A
  8
0
 10
3542.5388519127991458
 20
322.3434349279359026
 30
0.0
 40
0.0271687896548167
 50
96.0054020137591948
 51
106.4414614343671985
  0
ARC
  5
DA2B
  8
0
 10
3542.5514083309681155
 20
322.2474488247041222
 30
0.0
 40
0.1239659234652592
 50
94.5043974236209152
 51
97.1356350524526846
  0
ARC
  5
DA2C
  8
0
 10
3542.5755636853291435
 20
321.8762860941396866
 30
0.0
 40
0.4959052075299061
 50
89.5974587777429434
 51
93.9187557635063541
  0
ARC
  5
DA2D
  8
0
 10
3542.5828945350999675
 20
322.0273100278074025
 30
0.0
 40
0.3448904887655578
 50
83.5867129548566936
 51
90.639074382545445
  0
ARC
  5
DA2E
  8
0
 10
3542.6203376706471317
 20
322.3616798551611282
 30
0.0
 40
0.0084319220766784
 50
62.6257512732778565
 51
82.634766031066647
  0
ARC
  5
DA2F
  8
0
 10
3542.624083519207943
 20
322.3689056937600981
 30
0.0
 40
0.0002929002944429
 50
327.4148759404802718
 51
63.3985854451403128
  0
ARC
  5
DA30
  8
0
 10
3542.6166221910248169
 20
322.386803110295773
 30
0.0
 40
0.0196317070723364
 50
272.9137842768150222
 51
293.118646580780478
  0
ARC
  5
DA31
  8
0
 10
3542.5807079105038611
 20
322.7917070592253026
 30
0.0
 40
0.4261120580805205
 50
269.5521305767406943
 51
274.969511161755122
  0
ARC
  5
DA32
  8
0
 10
3542.5736074960959741
 20
322.7717504433261979
 30
0.0
 40
0.4061599175383919
 50
264.688766278257674
 51
270.5317764055745897
  0
ARC
  5
DA33
  8
0
 10
3542.5391072813818027
 20
322.3959398526826021
 30
0.0
 40
0.0287725938781091
 50
254.2476937919911109
 51
263.8222601909424725
  0
ARC
  5
DA34
  8
0
 10
3542.5315655487402182
 20
322.3696264358414965
 30
0.0
 40
0.0014046835872212
 50
212.2697439592662931
 51
258.9417560434183088
  0
ARC
  5
DA35
  8
0
 10
3544.217966508830159
 20
322.4125971135679265
 30
0.0
 40
0.0002675886832895
 50
139.1564120734144012
 51
183.5114361722328908
  0
ARC
  5
DA36
  8
0
 10
3544.219015006178779
 20
322.4114753017494195
 30
0.0
 40
0.0018018173954781
 50
107.1474194634026986
 51
133.9681826450461131
  0
ARC
  5
DA37
  8
0
 10
3544.2261735082020095
 20
322.3871391853359114
 30
0.0
 40
0.0271687896548167
 50
96.0054020137591948
 51
106.4414614343671985
  0
ARC
  5
DA38
  8
0
 10
3544.2387299263700697
 20
322.2911530821040742
 30
0.0
 40
0.1239659234652592
 50
94.5043974236209152
 51
97.1356350524526846
  0
ARC
  5
DA39
  8
0
 10
3544.2628852807320072
 20
321.9199903515396954
 30
0.0
 40
0.4959052075299061
 50
89.5974587777429434
 51
93.9187557635063541
  0
ARC
  5
DA3A
  8
0
 10
3544.2702161305019217
 20
322.0710142852075251
 30
0.0
 40
0.3448904887655578
 50
83.5867129548566936
 51
90.639074382545445
  0
ARC
  5
DA3B
  8
0
 10
3544.3076592660499955
 20
322.4053841125610802
 30
0.0
 40
0.0084319220766784
 50
62.6257512732778565
 51
82.634766031066647
  0
ARC
  5
DA3C
  8
0
 10
3544.3114051146108068
 20
322.4126099511601069
 30
0.0
 40
0.0002929002944429
 50
327.4148759404802718
 51
63.3985854451403128
  0
ARC
  5
DA3D
  8
0
 10
3544.3039437864281354
 20
322.4305073676957818
 30
0.0
 40
0.0196317070723364
 50
272.9137842768150222
 51
293.118646580780478
  0
ARC
  5
DA3E
  8
0
 10
3544.2680295059058153
 20
322.8354113166254251
 30
0.0
 40
0.4261120580805205
 50
269.5521305767406943
 51
274.969511161755122
  0
ARC
  5
DA3F
  8
0
 10
3544.2609290914988378
 20
322.8154547007263204
 30
0.0
 40
0.4061599175383919
 50
264.688766278257674
 51
270.5317764055745897
  0
ARC
  5
DA40
  8
0
 10
3544.2264288767851212
 20
322.439644110082611
 30
0.0
 40
0.0287725938781091
 50
254.2476937919911109
 51
263.8222601909424725
  0
ARC
  5
DA41
  8
0
 10
3544.2188871441421725
 20
322.4133306932415053
 30
0.0
 40
0.0014046835872212
 50
212.2697439592662931
 51
258.9417560434183088
  0
ARC
  5
DA42
  8
0
 10
3544.217966508831978
 20
322.3251885986678076
 30
0.0
 40
0.0002675886832895
 50
139.1564120734144012
 51
183.5114361722328908
  0
ARC
  5
DA43
  8
0
 10
3544.2190150061819622
 20
322.3240667868493006
 30
0.0
 40
0.0018018173954781
 50
107.1474194634026986
 51
133.9681826450461131
  0
ARC
  5
DA44
  8
0
 10
3544.2261735082051928
 20
322.2997306704359062
 30
0.0
 40
0.0271687896548167
 50
96.0054020137591948
 51
106.4414614343671985
  0
ARC
  5
DA45
  8
0
 10
3544.2387299263741625
 20
322.2037445672041258
 30
0.0
 40
0.1239659234652592
 50
94.5043974236209152
 51
97.1356350524526846
  0
ARC
  5
DA46
  8
0
 10
3544.2628852807351905
 20
321.8325818366396902
 30
0.0
 40
0.4959052075299061
 50
89.5974587777429434
 51
93.9187557635063541
  0
ARC
  5
DA47
  8
0
 10
3544.270216130505105
 20
321.9836057703075198
 30
0.0
 40
0.3448904887655578
 50
83.5867129548566936
 51
90.639074382545445
  0
ARC
  5
DA48
  8
0
 10
3544.3076592660531787
 20
322.317975597661075
 30
0.0
 40
0.0084319220766784
 50
62.6257512732778565
 51
82.634766031066647
  0
ARC
  5
DA49
  8
0
 10
3544.31140511461399
 20
322.325201436259988
 30
0.0
 40
0.0002929002944429
 50
327.4148759404802718
 51
63.3985854451403128
  0
ARC
  5
DA4A
  8
0
 10
3544.3039437864308638
 20
322.3430988527957766
 30
0.0
 40
0.0196317070723364
 50
272.9137842768150222
 51
293.118646580780478
  0
ARC
  5
DA4B
  8
0
 10
3544.2680295059089985
 20
322.7480028017254199
 30
0.0
 40
0.4261120580805205
 50
269.5521305767406943
 51
274.969511161755122
  0
ARC
  5
DA4C
  8
0
 10
3544.2609290915011115
 20
322.7280461858263152
 30
0.0
 40
0.4061599175383919
 50
264.688766278257674
 51
270.5317764055745897
  0
ARC
  5
DA4D
  8
0
 10
3544.2264288767869402
 20
322.3522355951826057
 30
0.0
 40
0.0287725938781091
 50
254.2476937919911109
 51
263.8222601909424725
  0
ARC
  5
DA4E
  8
0
 10
3544.2188871441458105
 20
322.3259221783413864
 30
0.0
 40
0.0014046835872212
 50
212.2697439592662931
 51
258.9417560434183088
  0
ARC
  5
DA4F
  8
0
 10
3545.9698427087291748
 20
322.3688928561679177
 30
0.0
 40
0.0002675886832895
 50
139.1564120734144012
 51
183.5114361722328908
  0
ARC
  5
DA50
  8
0
 10
3545.970891206079159
 20
322.3677710443494107
 30
0.0
 40
0.0018018173954781
 50
107.1474194634026986
 51
133.9681826450461131
  0
ARC
  5
DA51
  8
0
 10
3545.9780497081019348
 20
322.3434349279360163
 30
0.0
 40
0.0271687896548167
 50
96.0054020137591948
 51
106.4414614343671985
  0
ARC
  5
DA52
  8
0
 10
3545.9906061262709045
 20
322.2474488247041222
 30
0.0
 40
0.1239659234652592
 50
94.5043974236209152
 51
97.1356350524526846
  0
ARC
  5
DA53
  8
0
 10
3546.0147614806319325
 20
321.8762860941398003
 30
0.0
 40
0.4959052075299061
 50
89.5974587777429434
 51
93.9187557635063541
  0
ARC
  5
DA54
  8
0
 10
3546.022092330401847
 20
322.0273100278075162
 30
0.0
 40
0.3448904887655578
 50
83.5867129548566936
 51
90.639074382545445
  0
ARC
  5
DA55
  8
0
 10
3546.0595354659499208
 20
322.3616798551611282
 30
0.0
 40
0.0084319220766784
 50
62.6257512732778565
 51
82.634766031066647
  0
ARC
  5
DA56
  8
0
 10
3546.0632813145111868
 20
322.3689056937600981
 30
0.0
 40
0.0002929002944429
 50
327.4148759404802718
 51
63.3985854451403128
  0
ARC
  5
DA57
  8
0
 10
3546.0558199863280606
 20
322.386803110295773
 30
0.0
 40
0.0196317070723364
 50
272.9137842768150222
 51
293.118646580780478
  0
ARC
  5
DA58
  8
0
 10
3546.0199057058071048
 20
322.7917070592253026
 30
0.0
 40
0.4261120580805205
 50
269.5521305767406943
 51
274.969511161755122
  0
ARC
  5
DA59
  8
0
 10
3546.0128052913992178
 20
322.7717504433263116
 30
0.0
 40
0.4061599175383919
 50
264.688766278257674
 51
270.5317764055745897
  0
ARC
  5
DA5A
  8
0
 10
3545.9783050766850465
 20
322.3959398526826021
 30
0.0
 40
0.0287725938781091
 50
254.2476937919911109
 51
263.8222601909424725
  0
ARC
  5
DA5B
  8
0
 10
3545.9707633440430072
 20
322.3696264358414965
 30
0.0
 40
0.0014046835872212
 50
212.2697439592662931
 51
258.9417560434183088
  0
ARC
  5
DA5C
  8
0
 10
3547.6442533832291701
 20
322.4125971135679265
 30
0.0
 40
0.0002675886832895
 50
139.1564120734144012
 51
183.5114361722328908
  0
ARC
  5
DA5D
  8
0
 10
3547.6453018805791544
 20
322.4114753017494195
 30
0.0
 40
0.0018018173954781
 50
107.1474194634026986
 51
133.9681826450461131
  0
ARC
  5
DA5E
  8
0
 10
3547.6524603826019302
 20
322.3871391853359114
 30
0.0
 40
0.0271687896548167
 50
96.0054020137591948
 51
106.4414614343671985
  0
ARC
  5
DA5F
  8
0
 10
3547.6650168007708999
 20
322.2911530821040742
 30
0.0
 40
0.1239659234652592
 50
94.5043974236209152
 51
97.1356350524526846
  0
ARC
  5
DA60
  8
0
 10
3547.6891721551319279
 20
321.9199903515396954
 30
0.0
 40
0.4959052075299061
 50
89.5974587777429434
 51
93.9187557635063541
  0
ARC
  5
DA61
  8
0
 10
3547.6965030049018424
 20
322.0710142852075251
 30
0.0
 40
0.3448904887655578
 50
83.5867129548566936
 51
90.639074382545445
  0
ARC
  5
DA62
  8
0
 10
3547.7339461404499161
 20
322.4053841125610802
 30
0.0
 40
0.0084319220766784
 50
62.6257512732778565
 51
82.634766031066647
  0
ARC
  5
DA63
  8
0
 10
3547.7376919890111822
 20
322.4126099511601069
 30
0.0
 40
0.0002929002944429
 50
327.4148759404802718
 51
63.3985854451403128
  0
ARC
  5
DA64
  8
0
 10
3547.730230660828056
 20
322.4305073676957818
 30
0.0
 40
0.0196317070723364
 50
272.9137842768150222
 51
293.118646580780478
  0
ARC
  5
DA65
  8
0
 10
3547.6943163803071002
 20
322.8354113166254251
 30
0.0
 40
0.4261120580805205
 50
269.5521305767406943
 51
274.969511161755122
  0
ARC
  5
DA66
  8
0
 10
3547.6872159658978489
 20
322.8154547007263204
 30
0.0
 40
0.4061599175383919
 50
264.688766278257674
 51
270.5317764055745897
  0
ARC
  5
DA67
  8
0
 10
3547.6527157511850419
 20
322.439644110082611
 30
0.0
 40
0.0287725938781091
 50
254.2476937919911109
 51
263.8222601909424725
  0
ARC
  5
DA68
  8
0
 10
3547.6451740185430026
 20
322.4133306932415053
 30
0.0
 40
0.0014046835872212
 50
212.2697439592662931
 51
258.9417560434183088
  0
ARC
  5
DA69
  8
0
 10
3547.6442533832291701
 20
322.3251885986678076
 30
0.0
 40
0.0002675886832895
 50
139.1564120734144012
 51
183.5114361722328908
  0
ARC
  5
DA6A
  8
0
 10
3547.6453018805791544
 20
322.3240667868493006
 30
0.0
 40
0.0018018173954781
 50
107.1474194634026986
 51
133.9681826450461131
  0
ARC
  5
DA6B
  8
0
 10
3547.6524603826019302
 20
322.2997306704359062
 30
0.0
 40
0.0271687896548167
 50
96.0054020137591948
 51
106.4414614343671985
  0
ARC
  5
DA6C
  8
0
 10
3547.6650168007708999
 20
322.2037445672041258
 30
0.0
 40
0.1239659234652592
 50
94.5043974236209152
 51
97.1356350524526846
  0
ARC
  5
DA6D
  8
0
 10
3547.6891721551319279
 20
321.8325818366396902
 30
0.0
 40
0.4959052075299061
 50
89.5974587777429434
 51
93.9187557635063541
  0
ARC
  5
DA6E
  8
0
 10
3547.6965030049018424
 20
321.9836057703075198
 30
0.0
 40
0.3448904887655578
 50
83.5867129548566936
 51
90.639074382545445
  0
ARC
  5
DA6F
  8
0
 10
3547.7339461404499161
 20
322.317975597661075
 30
0.0
 40
0.0084319220766784
 50
62.6257512732778565
 51
82.634766031066647
  0
ARC
  5
DA70
  8
0
 10
3547.7376919890111822
 20
322.325201436259988
 30
0.0
 40
0.0002929002944429
 50
327.4148759404802718
 51
63.3985854451403128
  0
ARC
  5
DA71
  8
0
 10
3547.730230660828056
 20
322.3430988527957766
 30
0.0
 40
0.0196317070723364
 50
272.9137842768150222
 51
293.118646580780478
  0
ARC
  5
DA72
  8
0
 10
3547.6943163803071002
 20
322.7480028017254199
 30
0.0
 40
0.4261120580805205
 50
269.5521305767406943
 51
274.969511161755122
  0
ARC
  5
DA73
  8
0
 10
3547.6872159658978489
 20
322.7280461858263152
 30
0.0
 40
0.4061599175383919
 50
264.688766278257674
 51
270.5317764055745897
  0
ARC
  5
DA74
  8
0
 10
3547.6527157511850419
 20
322.3522355951826057
 30
0.0
 40
0.0287725938781091
 50
254.2476937919911109
 51
263.8222601909424725
  0
ARC
  5
DA75
  8
0
 10
3547.6451740185430026
 20
322.3259221783413864
 30
0.0
 40
0.0014046835872212
 50
212.2697439592662931
 51
258.9417560434183088
  0
ARC
  5
DA76
  8
0
 10
3549.4090405040301448
 20
322.3688928561679177
 30
0.0
 40
0.0002675886832895
 50
139.1564120734144012
 51
183.5114361722328908
  0
ARC
  5
DA77
  8
0
 10
3549.4100890013792196
 20
322.3677710443494107
 30
0.0
 40
0.0018018173954781
 50
107.1474194634026986
 51
133.9681826450461131
  0
ARC
  5
DA78
  8
0
 10
3549.4172475034019953
 20
322.3434349279360163
 30
0.0
 40
0.0271687896548167
 50
96.0054020137591948
 51
106.4414614343671985
  0
ARC
  5
DA79
  8
0
 10
3549.4298039215700555
 20
322.2474488247041222
 30
0.0
 40
0.1239659234652592
 50
94.5043974236209152
 51
97.1356350524526846
  0
ARC
  5
DA7A
  8
0
 10
3549.4539592759329025
 20
321.8762860941398003
 30
0.0
 40
0.4959052075299061
 50
89.5974587777429434
 51
93.9187557635063541
  0
ARC
  5
DA7B
  8
0
 10
3549.4612901257019075
 20
322.0273100278075162
 30
0.0
 40
0.3448904887655578
 50
83.5867129548566936
 51
90.639074382545445
  0
ARC
  5
DA7C
  8
0
 10
3549.4987332612499813
 20
322.3616798551611282
 30
0.0
 40
0.0084319220766784
 50
62.6257512732778565
 51
82.634766031066647
  0
ARC
  5
DA7D
  8
0
 10
3549.5024791098107926
 20
322.3689056937600981
 30
0.0
 40
0.0002929002944429
 50
327.4148759404802718
 51
63.3985854451403128
  0
ARC
  5
DA7E
  8
0
 10
3549.4950177816281212
 20
322.386803110295773
 30
0.0
 40
0.0196317070723364
 50
272.9137842768150222
 51
293.118646580780478
  0
ARC
  5
DA7F
  8
0
 10
3549.4591035011058011
 20
322.7917070592253026
 30
0.0
 40
0.4261120580805205
 50
269.5521305767406943
 51
274.969511161755122
  0
ARC
  5
DA80
  8
0
 10
3549.4520030866988236
 20
322.7717504433263116
 30
0.0
 40
0.4061599175383919
 50
264.688766278257674
 51
270.5317764055745897
  0
ARC
  5
DA81
  8
0
 10
3549.4175028719841976
 20
322.3959398526826021
 30
0.0
 40
0.0287725938781091
 50
254.2476937919911109
 51
263.8222601909424725
  0
ARC
  5
DA82
  8
0
 10
3549.4099611393430678
 20
322.3696264358414965
 30
0.0
 40
0.0014046835872212
 50
212.2697439592662931
 51
258.9417560434183088
  0
ARC
  5
DA83
  8
0
 10
3551.0705402576300003
 20
322.4125971135679265
 30
0.0
 40
0.0002675886832895
 50
139.1564120734144012
 51
183.5114361722328908
  0
ARC
  5
DA84
  8
0
 10
3551.071588754979075
 20
322.4114753017494195
 30
0.0
 40
0.0018018173954781
 50
107.1474194634026986
 51
133.9681826450461131
  0
ARC
  5
DA85
  8
0
 10
3551.0787472570018508
 20
322.3871391853359114
 30
0.0
 40
0.0271687896548167
 50
96.0054020137591948
 51
106.4414614343671985
  0
ARC
  5
DA86
  8
0
 10
3551.091303675169911
 20
322.2911530821040742
 30
0.0
 40
0.1239659234652592
 50
94.5043974236209152
 51
97.1356350524526846
  0
ARC
  5
DA87
  8
0
 10
3551.1154590295332127
 20
321.9199903515396954
 30
0.0
 40
0.4959052075299061
 50
89.5974587777429434
 51
93.9187557635063541
  0
ARC
  5
DA88
  8
0
 10
3551.1227898793031272
 20
322.0710142852075251
 30
0.0
 40
0.3448904887655578
 50
83.5867129548566936
 51
90.639074382545445
  0
ARC
  5
DA89
  8
0
 10
3551.1602330148489273
 20
322.4053841125610802
 30
0.0
 40
0.0084319220766784
 50
62.6257512732778565
 51
82.634766031066647
  0
ARC
  5
DA8A
  8
0
 10
3551.1639788634111028
 20
322.4126099511601069
 30
0.0
 40
0.0002929002944429
 50
327.4148759404802718
 51
63.3985854451403128
  0
ARC
  5
DA8B
  8
0
 10
3551.1565175352279766
 20
322.4305073676957818
 30
0.0
 40
0.0196317070723364
 50
272.9137842768150222
 51
293.118646580780478
  0
ARC
  5
DA8C
  8
0
 10
3551.1206032547070208
 20
322.8354113166254251
 30
0.0
 40
0.4261120580805205
 50
269.5521305767406943
 51
274.969511161755122
  0
ARC
  5
DA8D
  8
0
 10
3551.1135028402982243
 20
322.8154547007263204
 30
0.0
 40
0.4061599175383919
 50
264.688766278257674
 51
270.5317764055745897
  0
ARC
  5
DA8E
  8
0
 10
3551.0790026255849625
 20
322.439644110082611
 30
0.0
 40
0.0287725938781091
 50
254.2476937919911109
 51
263.8222601909424725
  0
ARC
  5
DA8F
  8
0
 10
3551.0714608929429232
 20
322.4133306932415053
 30
0.0
 40
0.0014046835872212
 50
212.2697439592662931
 51
258.9417560434183088
  0
ARC
  5
DA90
  8
0
 10
3551.0671090084379102
 20
322.3251973686806195
 30
0.0
 40
0.0002675886832895
 50
139.1564120734144012
 51
183.5114361722328908
  0
ARC
  5
DA91
  8
0
 10
3551.068157505786985
 20
322.3240755568621125
 30
0.0
 40
0.0018018173954781
 50
107.1474194634026986
 51
133.9681826450461131
  0
ARC
  5
DA92
  8
0
 10
3551.0753160078102155
 20
322.2997394404487181
 30
0.0
 40
0.0271687896548167
 50
96.0054020137591948
 51
106.4414614343671985
  0
ARC
  5
DA93
  8
0
 10
3551.087872425977821
 20
322.2037533372168809
 30
0.0
 40
0.1239659234652592
 50
94.5043974236209152
 51
97.1356350524526846
  0
ARC
  5
DA94
  8
0
 10
3551.1120277803402132
 20
321.8325906066525022
 30
0.0
 40
0.4959052075299061
 50
89.5974587777429434
 51
93.9187557635063541
  0
ARC
  5
DA95
  8
0
 10
3551.1193586301101277
 20
321.983614540320275
 30
0.0
 40
0.3448904887655578
 50
83.5867129548566936
 51
90.639074382545445
  0
ARC
  5
DA96
  8
0
 10
3551.1568017656568372
 20
322.3179843676740006
 30
0.0
 40
0.0084319220766784
 50
62.6257512732778565
 51
82.634766031066647
  0
ARC
  5
DA97
  8
0
 10
3551.1605476142190128
 20
322.3252102062728
 30
0.0
 40
0.0002929002944429
 50
327.4148759404802718
 51
63.3985854451403128
  0
ARC
  5
DA98
  8
0
 10
3551.1530862860349771
 20
322.3431076228085885
 30
0.0
 40
0.0196317070723364
 50
272.9137842768150222
 51
293.118646580780478
  0
ARC
  5
DA99
  8
0
 10
3551.1171720055140213
 20
322.7480115717381182
 30
0.0
 40
0.4261120580805205
 50
269.5521305767406943
 51
274.969511161755122
  0
ARC
  5
DA9A
  8
0
 10
3551.1100715911061343
 20
322.7280549558391272
 30
0.0
 40
0.4061599175383919
 50
264.688766278257674
 51
270.5317764055745897
  0
ARC
  5
DA9B
  8
0
 10
3551.0755713763928725
 20
322.3522443651954177
 30
0.0
 40
0.0287725938781091
 50
254.2476937919911109
 51
263.8222601909424725
  0
ARC
  5
DA9C
  8
0
 10
3551.0680296437508332
 20
322.3259309483541983
 30
0.0
 40
0.0014046835872212
 50
212.2697439592662931
 51
258.9417560434183088
  0
ARC
  5
DA9D
  8
0
 10
3554.4968271320290114
 20
322.4125971135679265
 30
0.0
 40
0.0002675886832895
 50
139.1564120734144012
 51
183.5114361722328908
  0
ARC
  5
DA9E
  8
0
 10
3554.4978756293799051
 20
322.4114753017494195
 30
0.0
 40
0.0018018173954781
 50
107.1474194634026986
 51
133.9681826450461131
  0
ARC
  5
DA9F
  8
0
 10
3554.5050341314022262
 20
322.3871391853359114
 30
0.0
 40
0.0271687896548167
 50
96.0054020137591948
 51
106.4414614343671985
  0
ARC
  5
DAA0
  8
0
 10
3554.5175905495711959
 20
322.2911530821040742
 30
0.0
 40
0.1239659234652592
 50
94.5043974236209152
 51
97.1356350524526846
  0
ARC
  5
DAA1
  8
0
 10
3554.5417459039322239
 20
321.9199903515396954
 30
0.0
 40
0.4959052075299061
 50
89.5974587777429434
 51
93.9187557635063541
  0
ARC
  5
DAA2
  8
0
 10
3554.5490767537030479
 20
322.0710142852075251
 30
0.0
 40
0.3448904887655578
 50
83.5867129548566936
 51
90.639074382545445
  0
ARC
  5
DAA3
  8
0
 10
3554.5865198892488479
 20
322.4053841125610802
 30
0.0
 40
0.0084319220766784
 50
62.6257512732778565
 51
82.634766031066647
  0
ARC
  5
DAA4
  8
0
 10
3554.5902657378110234
 20
322.4126099511601069
 30
0.0
 40
0.0002929002944429
 50
327.4148759404802718
 51
63.3985854451403128
  0
ARC
  5
DAA5
  8
0
 10
3554.5828044096278973
 20
322.4305073676957818
 30
0.0
 40
0.0196317070723364
 50
272.9137842768150222
 51
293.118646580780478
  0
ARC
  5
DAA6
  8
0
 10
3554.546890129106032
 20
322.8354113166254251
 30
0.0
 40
0.4261120580805205
 50
269.5521305767406943
 51
274.969511161755122
  0
ARC
  5
DAA7
  8
0
 10
3554.5397897146990545
 20
322.8154547007263204
 30
0.0
 40
0.4061599175383919
 50
264.688766278257674
 51
270.5317764055745897
  0
ARC
  5
DAA8
  8
0
 10
3554.5052894999848832
 20
322.439644110082611
 30
0.0
 40
0.0287725938781091
 50
254.2476937919911109
 51
263.8222601909424725
  0
ARC
  5
DAA9
  8
0
 10
3554.4977477673428439
 20
322.4133306932415053
 30
0.0
 40
0.0014046835872212
 50
212.2697439592662931
 51
258.9417560434183088
  0
ARC
  5
DAAA
  8
0
 10
3554.4968271320290114
 20
322.3251885986678076
 30
0.0
 40
0.0002675886832895
 50
139.1564120734144012
 51
183.5114361722328908
  0
ARC
  5
DAAB
  8
0
 10
3554.4978756293799051
 20
322.3240667868493006
 30
0.0
 40
0.0018018173954781
 50
107.1474194634026986
 51
133.9681826450461131
  0
ARC
  5
DAAC
  8
0
 10
3554.5050341314022262
 20
322.2997306704359062
 30
0.0
 40
0.0271687896548167
 50
96.0054020137591948
 51
106.4414614343671985
  0
ARC
  5
DAAD
  8
0
 10
3554.5175905495711959
 20
322.2037445672041258
 30
0.0
 40
0.1239659234652592
 50
94.5043974236209152
 51
97.1356350524526846
  0
ARC
  5
DAAE
  8
0
 10
3554.5417459039322239
 20
321.8325818366396902
 30
0.0
 40
0.4959052075299061
 50
89.5974587777429434
 51
93.9187557635063541
  0
ARC
  5
DAAF
  8
0
 10
3554.5490767537030479
 20
321.9836057703075198
 30
0.0
 40
0.3448904887655578
 50
83.5867129548566936
 51
90.639074382545445
  0
ARC
  5
DAB0
  8
0
 10
3554.5865198892488479
 20
322.317975597661075
 30
0.0
 40
0.0084319220766784
 50
62.6257512732778565
 51
82.634766031066647
  0
ARC
  5
DAB1
  8
0
 10
3554.5902657378110234
 20
322.325201436259988
 30
0.0
 40
0.0002929002944429
 50
327.4148759404802718
 51
63.3985854451403128
  0
ARC
  5
DAB2
  8
0
 10
3554.5828044096278973
 20
322.3430988527957766
 30
0.0
 40
0.0196317070723364
 50
272.9137842768150222
 51
293.118646580780478
  0
ARC
  5
DAB3
  8
0
 10
3554.546890129106032
 20
322.7480028017254199
 30
0.0
 40
0.4261120580805205
 50
269.5521305767406943
 51
274.969511161755122
  0
ARC
  5
DAB4
  8
0
 10
3554.5397897146990545
 20
322.7280461858263152
 30
0.0
 40
0.4061599175383919
 50
264.688766278257674
 51
270.5317764055745897
  0
ARC
  5
DAB5
  8
0
 10
3554.5052894999848832
 20
322.3522355951826057
 30
0.0
 40
0.0287725938781091
 50
254.2476937919911109
 51
263.8222601909424725
  0
ARC
  5
DAB6
  8
0
 10
3554.4977477673428439
 20
322.3259221783413864
 30
0.0
 40
0.0014046835872212
 50
212.2697439592662931
 51
258.9417560434183088
  0
ARC
  5
DAB7
  8
0
 10
3556.2874360945302215
 20
322.3688928561679177
 30
0.0
 40
0.0002675886832895
 50
139.1564120734144012
 51
183.5114361722328908
  0
ARC
  5
DAB8
  8
0
 10
3556.2884845918788415
 20
322.3677710443494107
 30
0.0
 40
0.0018018173954781
 50
107.1474194634026986
 51
133.9681826450461131
  0
ARC
  5
DAB9
  8
0
 10
3556.2956430939029815
 20
322.3434349279360163
 30
0.0
 40
0.0271687896548167
 50
96.0054020137591948
 51
106.4414614343671985
  0
ARC
  5
DABA
  8
0
 10
3556.3081995120701322
 20
322.2474488247041222
 30
0.0
 40
0.1239659234652592
 50
94.5043974236209152
 51
97.1356350524526846
  0
ARC
  5
DABB
  8
0
 10
3556.3323548664320697
 20
321.8762860941398003
 30
0.0
 40
0.4959052075299061
 50
89.5974587777429434
 51
93.9187557635063541
  0
ARC
  5
DABC
  8
0
 10
3556.3396857162028937
 20
322.0273100278075162
 30
0.0
 40
0.3448904887655578
 50
83.5867129548566936
 51
90.639074382545445
  0
ARC
  5
DABD
  8
0
 10
3556.3771288517500579
 20
322.3616798551611282
 30
0.0
 40
0.0084319220766784
 50
62.6257512732778565
 51
82.634766031066647
  0
ARC
  5
DABE
  8
0
 10
3556.3808747003108692
 20
322.3689056937600981
 30
0.0
 40
0.0002929002944429
 50
327.4148759404802718
 51
63.3985854451403128
  0
ARC
  5
DABF
  8
0
 10
3556.3734133721281978
 20
322.386803110295773
 30
0.0
 40
0.0196317070723364
 50
272.9137842768150222
 51
293.118646580780478
  0
ARC
  5
DAC0
  8
0
 10
3556.3374990916058778
 20
322.7917070592253026
 30
0.0
 40
0.4261120580805205
 50
269.5521305767406943
 51
274.969511161755122
  0
ARC
  5
DAC1
  8
0
 10
3556.3303986771979908
 20
322.7717504433263116
 30
0.0
 40
0.4061599175383919
 50
264.688766278257674
 51
270.5317764055745897
  0
ARC
  5
DAC2
  8
0
 10
3556.2958984624851837
 20
322.3959398526826021
 30
0.0
 40
0.0287725938781091
 50
254.2476937919911109
 51
263.8222601909424725
  0
ARC
  5
DAC3
  8
0
 10
3556.2883567298431444
 20
322.3696264358414965
 30
0.0
 40
0.0014046835872212
 50
212.2697439592662931
 51
258.9417560434183088
  0
ARC
  5
DAC4
  8
0
 10
3557.9231140063288876
 20
322.4125971135679265
 30
0.0
 40
0.0002675886832895
 50
139.1564120734144012
 51
183.5114361722328908
  0
ARC
  5
DAC5
  8
0
 10
3557.9241625036788719
 20
322.4114753017494195
 30
0.0
 40
0.0018018173954781
 50
107.1474194634026986
 51
133.9681826450461131
  0
ARC
  5
DAC6
  8
0
 10
3557.9313210057021024
 20
322.3871391853359114
 30
0.0
 40
0.0271687896548167
 50
96.0054020137591948
 51
106.4414614343671985
  0
ARC
  5
DAC7
  8
0
 10
3557.9438774238701626
 20
322.2911530821040742
 30
0.0
 40
0.1239659234652592
 50
94.5043974236209152
 51
97.1356350524526846
  0
ARC
  5
DAC8
  8
0
 10
3557.9680327782321001
 20
321.9199903515396954
 30
0.0
 40
0.4959052075299061
 50
89.5974587777429434
 51
93.9187557635063541
  0
ARC
  5
DAC9
  8
0
 10
3557.9753636280029241
 20
322.0710142852075251
 30
0.0
 40
0.3448904887655578
 50
83.5867129548566936
 51
90.639074382545445
  0
ARC
  5
DACA
  8
0
 10
3558.0128067635491789
 20
322.4053841125610802
 30
0.0
 40
0.0084319220766784
 50
62.6257512732778565
 51
82.634766031066647
  0
ARC
  5
DACB
  8
0
 10
3558.0165526121108996
 20
322.4126099511601069
 30
0.0
 40
0.0002929002944429
 50
327.4148759404802718
 51
63.3985854451403128
  0
ARC
  5
DACC
  8
0
 10
3558.0090912839277735
 20
322.4305073676957818
 30
0.0
 40
0.0196317070723364
 50
272.9137842768150222
 51
293.118646580780478
  0
ARC
  5
DACD
  8
0
 10
3557.9731770034059082
 20
322.8354113166254251
 30
0.0
 40
0.4261120580805205
 50
269.5521305767406943
 51
274.969511161755122
  0
ARC
  5
DACE
  8
0
 10
3557.9660765889989307
 20
322.8154547007263204
 30
0.0
 40
0.4061599175383919
 50
264.688766278257674
 51
270.5317764055745897
  0
ARC
  5
DACF
  8
0
 10
3557.9315763742852141
 20
322.439644110082611
 30
0.0
 40
0.0287725938781091
 50
254.2476937919911109
 51
263.8222601909424725
  0
ARC
  5
DAD0
  8
0
 10
3557.9240346416431748
 20
322.4133306932415053
 30
0.0
 40
0.0014046835872212
 50
212.2697439592662931
 51
258.9417560434183088
  0
ARC
  5
DAD1
  8
0
 10
3557.9231140063288876
 20
322.3251885986678076
 30
0.0
 40
0.0002675886832895
 50
139.1564120734144012
 51
183.5114361722328908
  0
ARC
  5
DAD2
  8
0
 10
3557.9241625036788719
 20
322.3240667868493006
 30
0.0
 40
0.0018018173954781
 50
107.1474194634026986
 51
133.9681826450461131
  0
ARC
  5
DAD3
  8
0
 10
3557.9313210057021024
 20
322.2997306704359062
 30
0.0
 40
0.0271687896548167
 50
96.0054020137591948
 51
106.4414614343671985
  0
ARC
  5
DAD4
  8
0
 10
3557.9438774238701626
 20
322.2037445672041258
 30
0.0
 40
0.1239659234652592
 50
94.5043974236209152
 51
97.1356350524526846
  0
ARC
  5
DAD5
  8
0
 10
3557.9680327782321001
 20
321.8325818366396902
 30
0.0
 40
0.4959052075299061
 50
89.5974587777429434
 51
93.9187557635063541
  0
ARC
  5
DAD6
  8
0
 10
3557.9753636280029241
 20
321.9836057703075198
 30
0.0
 40
0.3448904887655578
 50
83.5867129548566936
 51
90.639074382545445
  0
ARC
  5
DAD7
  8
0
 10
3558.0128067635491789
 20
322.317975597661075
 30
0.0
 40
0.0084319220766784
 50
62.6257512732778565
 51
82.634766031066647
  0
ARC
  5
DAD8
  8
0
 10
3558.0165526121108996
 20
322.325201436259988
 30
0.0
 40
0.0002929002944429
 50
327.4148759404802718
 51
63.3985854451403128
  0
ARC
  5
DAD9
  8
0
 10
3558.0090912839277735
 20
322.3430988527957766
 30
0.0
 40
0.0196317070723364
 50
272.9137842768150222
 51
293.118646580780478
  0
ARC
  5
DADA
  8
0
 10
3557.9731770034059082
 20
322.7480028017254199
 30
0.0
 40
0.4261120580805205
 50
269.5521305767406943
 51
274.969511161755122
  0
ARC
  5
DADB
  8
0
 10
3557.9660765889989307
 20
322.7280461858263152
 30
0.0
 40
0.4061599175383919
 50
264.688766278257674
 51
270.5317764055745897
  0
ARC
  5
DADC
  8
0
 10
3557.9315763742852141
 20
322.3522355951826057
 30
0.0
 40
0.0287725938781091
 50
254.2476937919911109
 51
263.8222601909424725
  0
ARC
  5
DADD
  8
0
 10
3557.9240346416431748
 20
322.3259221783413864
 30
0.0
 40
0.0014046835872212
 50
212.2697439592662931
 51
258.9417560434183088
  0
ARC
  5
DADE
  8
0
 10
3559.6218208523728208
 20
322.248933135898028
 30
0.0
 40
0.0012002651707901
 50
138.1567543556348028
 51
242.5443249933364029
  0
ARC
  5
DADF
  8
0
 10
3559.6241107717128216
 20
322.2412474241385212
 30
0.0
 40
0.0090640730755425
 50
80.0044938119418134
 51
110.5660073499467018
  0
ARC
  5
DAE0
  8
0
 10
3559.5784823789499569
 20
322.0044460421639201
 30
0.0
 40
0.2502202718839099
 50
61.5166969911474268
 51
79.1265498178925242
  0
ARC
  5
DAE1
  8
0
 10
3559.6766064802809524
 20
322.1837884984299194
 30
0.0
 40
0.0457961053605747
 50
47.5950341378295434
 51
62.4148899271381907
  0
ARC
  5
DAE2
  8
0
 10
3559.7054637946639559
 20
322.2153360839485003
 30
0.0
 40
0.003041248028716
 50
15.1431876814597306
 51
48.226550486035741
  0
ARC
  5
DAE3
  8
0
 10
3559.7075162520059166
 20
322.2158915394865062
 30
0.0
 40
0.0009149573625516
 50
286.1726802695685024
 51
15.1431876813523196
  0
ARC
  5
DAE4
  8
0
 10
3559.7062745768807872
 20
322.2575087931513735
 30
0.0
 40
0.0425223453183796
 50
251.1046598639111096
 51
272.016870274318876
  0
ARC
  5
DAE5
  8
0
 10
3559.807175019288934
 20
322.6005773143691044
 30
0.0
 40
0.4000848065746233
 50
244.8842492382412956
 51
253.3445024063836968
  0
ARC
  5
DAE6
  8
0
 10
3559.6657740769728662
 20
322.3045419779638792
 30
0.0
 40
0.0720608938797153
 50
231.8570818049788897
 51
246.7769983433771017
  0
ARC
  5
DAE7
  8
0
 10
3560.8557315708471833
 20
321.3201512754778832
 30
0.0
 40
0.0033471999696935
 50
66.6225965700412246
 51
163.21544247825301
  0
ARC
  5
DAE8
  8
0
 10
3560.8071274722969974
 20
321.2557403714382076
 30
0.0
 40
0.0839477653648017
 50
23.1107548007903603
 51
53.5015481427863975
  0
ARC
  5
DAE9
  8
0
 10
3560.7770874884899968
 20
321.2312414510673761
 30
0.0
 40
0.1216681567049744
 50
8.2164049373046684
 51
28.1758812043561591
  0
ARC
  5
DAEA
  8
0
 10
3560.8830628427172087
 20
321.245997155462419
 30
0.0
 40
0.0146817988485953
 50
334.4136127673486953
 51
10.3279093264792898
  0
ARC
  5
DAEB
  8
0
 10
3560.8935733648181667
 20
321.2409644271016873
 30
0.0
 40
0.0030284976174705
 50
235.2309440265385945
 51
334.4136127672874181
  0
ARC
  5
DAEC
  8
0
 10
3560.9945298395400641
 20
321.341091027133416
 30
0.0
 40
0.145167557952593
 50
191.3297279016420021
 51
224.9806999451440106
  0
ARC
  5
DAED
  8
0
 10
3560.8695031698130151
 20
321.3161713571383871
 30
0.0
 40
0.0176821725663598
 50
163.755005383658613
 51
191.7446413179717979
  0
ARC
  5
DAEE
  8
0
 10
3560.6387419419679645
 20
321.2208577698588101
 30
0.0
 40
0.0012002651707901
 50
95.8009159796926468
 51
200.1884866173998034
  0
ARC
  5
DAEF
  8
0
 10
3560.6352560170421384
 20
321.2136354279081161
 30
0.0
 40
0.0090640730755425
 50
37.6486554360186432
 51
68.2101689739931345
  0
ARC
  5
DAF0
  8
0
 10
3560.4419968741758566
 20
321.0693865165434886
 30
0.0
 40
0.2502202718839099
 50
19.1608586152171405
 51
36.7707114419606285
  0
ARC
  5
DAF1
  8
0
 10
3560.6353370503861697
 20
321.1358066350666718
 30
0.0
 40
0.0457961053605747
 50
5.2391957618900173
 51
20.0590515512064904
  0
ARC
  5
DAF2
  8
0
 10
3560.6779165297548388
 20
321.139677382039622
 30
0.0
 40
0.003041248028716
 50
332.7873493055154199
 51
5.870712110100583
  0
ARC
  5
DAF3
  8
0
 10
3560.6798074728440042
 20
321.1387050414468831
 30
0.0
 40
0.0009149573625516
 50
243.8168418936365072
 51
332.7873493054074743
  0
ARC
  5
DAF4
  8
0
 10
3560.706928823787166
 20
321.1702957027691809
 30
0.0
 40
0.0425223453183796
 50
208.7488214879797113
 51
229.6610318983871082
  0
ARC
  5
DAF5
  8
0
 10
3561.0126283009931285
 20
321.3558347530125729
 30
0.0
 40
0.4000848065746233
 50
202.5284108623002908
 51
210.9886640304434025
  0
ARC
  5
DAF6
  8
0
 10
3560.7086877821589042
 20
321.2323385672409017
 30
0.0
 40
0.0720608938797153
 50
189.5012434290460988
 51
204.4211599674401043
  0
ARC
  5
DAF7
  8
0
 10
3561.111089909058137
 20
319.6466298487245012
 30
0.0
 40
0.0033471999696935
 50
214.9431584479357866
 51
311.5360043561532279
  0
ARC
  5
DAF8
  8
0
 10
3561.1862784141949305
 20
319.6759182705051785
 30
0.0
 40
0.0839477653648017
 50
171.431316678688006
 51
201.8221100206818051
  0
ARC
  5
DAF9
  8
0
 10
3561.2247084363448266
 20
319.6809908560397844
 30
0.0
 40
0.1216681567049744
 50
156.5369668151965925
 51
176.4964430822464863
  0
ARC
  5
DAFA
  8
0
 10
3561.1267742504492162
 20
319.7240884400649179
 30
0.0
 40
0.0146817988485953
 50
122.7341746452405999
 51
158.6484712043707077
  0
ARC
  5
DAFB
  8
0
 10
3561.1204728192637958
 20
319.7338910618879027
 30
0.0
 40
0.0030284976174705
 50
23.5515059044200115
 51
122.7341746451774043
  0
ARC
  5
DAFC
  8
0
 10
3560.9819757819100232
 20
319.7017022988450776
 30
0.0
 40
0.145167557952593
 50
339.6502897795339209
 51
13.3012618230408304
  0
ARC
  5
DAFD
  8
0
 10
3561.1014604023339416
 20
319.6572491372278932
 30
0.0
 40
0.0176821725663598
 50
312.0755672615406979
 51
340.0652031958653083
  0
ARC
  5
DAFE
  8
0
 10
3560.9406392923478961
 20
319.6786658688924945
 30
0.0
 40
0.006799723292611
 50
129.1698576564560881
 51
159.5059528642593989
  0
ARC
  5
DAFF
  8
0
 10
3560.9372218983648963
 20
319.6826207827302255
 30
0.0
 40
0.0015823318707308
 50
52.1093498012944991
 51
123.678658904488799
  0
ARC
  5
DB00
  8
0
 10
3560.9303139302751333
 20
319.676044008409292
 30
0.0
 40
0.0111053855495545
 50
13.8143896940854205
 51
44.8021176617636598
  0
ARC
  5
DB01
  8
0
 10
3560.7899341553479644
 20
319.6415260431837737
 30
0.0
 40
0.1556666913393881
 50
358.4086625356392233
 51
13.8143896940854205
  0
ARC
  5
DB02
  8
0
 10
3560.7749013039469901
 20
319.6340042062955717
 30
0.0
 40
0.1706694874027875
 50
347.531713104685025
 51
1.0739696533236489
  0
ARC
  5
DB03
  8
0
 10
3560.9221990532500968
 20
319.6020470373492799
 30
0.0
 40
0.0199550933469132
 50
328.1395610793542801
 51
345.8144955838819214
  0
ARC
  5
DB04
  8
0
 10
3560.936709196324955
 20
319.5930291632770945
 30
0.0
 40
0.0028709982637187
 50
280.1503908309491067
 51
328.1395610792880007
  0
ARC
  5
DB05
  8
0
 10
3560.9369732112509155
 20
319.5915545051286131
 30
0.0
 40
0.0013728926144516
 50
204.2614854531805122
 51
280.1503908309491067
  0
ARC
  5
DB06
  8
0
 10
3561.0011472998148747
 20
319.6204783002406202
 30
0.0
 40
0.0717639401036985
 50
177.4866167481249875
 51
204.2614854531776132
  0
ARC
  5
DB07
  8
0
 10
3561.1090186767892192
 20
319.6374727248987142
 30
0.0
 40
0.1800994142672628
 50
165.9987528183976906
 51
184.4096765787676873
  0
ARC
  5
DB08
  8
0
 10
3560.8485968693780706
 20
317.9289221870300821
 30
0.0
 40
0.006799723292611
 50
129.1698576564560881
 51
159.5059528642593989
  0
ARC
  5
DB09
  8
0
 10
3560.8451794753941613
 20
317.9328771008676995
 30
0.0
 40
0.0015823318707308
 50
52.1093498012944991
 51
123.678658904488799
  0
ARC
  5
DB0A
  8
0
 10
3560.8382715073039435
 20
317.9263003265468797
 30
0.0
 40
0.0111053855495545
 50
13.8143896940854205
 51
44.8021176617636598
  0
ARC
  5
DB0B
  8
0
 10
3560.6978917323767746
 20
317.8917823613214182
 30
0.0
 40
0.1556666913393881
 50
358.4086625356392233
 51
13.8143896940854205
  0
ARC
  5
DB0C
  8
0
 10
3560.6828588809771645
 20
317.8842605244331025
 30
0.0
 40
0.1706694874027875
 50
347.531713104685025
 51
1.0739696533236489
  0
ARC
  5
DB0D
  8
0
 10
3560.8301566302798165
 20
317.852303355486697
 30
0.0
 40
0.0199550933469132
 50
328.1395610793542801
 51
345.8144955838819214
  0
ARC
  5
DB0E
  8
0
 10
3560.8446667733542199
 20
317.8432854814146822
 30
0.0
 40
0.0028709982637187
 50
280.1503908309491067
 51
328.1395610792880007
  0
ARC
  5
DB0F
  8
0
 10
3560.8449307882801804
 20
317.841810823266087
 30
0.0
 40
0.0013728926144516
 50
204.2614854531805122
 51
280.1503908309491067
  0
ARC
  5
DB10
  8
0
 10
3560.9091048768441397
 20
317.8707346183780942
 30
0.0
 40
0.0717639401036985
 50
177.4866167481249875
 51
204.2614854531776132
  0
ARC
  5
DB11
  8
0
 10
3561.0169762538189389
 20
317.8877290430361882
 30
0.0
 40
0.1800994142672628
 50
165.9987528183976906
 51
184.4096765787676873
  0
ARC
  5
DB12
  8
0
 10
3561.0652318775541971
 20
317.8479947652082842
 30
0.0
 40
0.0033471999696935
 50
218.7540090906711896
 51
315.3468549988922973
  0
ARC
  5
DB13
  8
0
 10
3561.1383075410058154
 20
317.8822156706078204
 30
0.0
 40
0.0839477653648017
 50
175.2421673214257964
 51
205.6329606634209881
  0
ARC
  5
DB14
  8
0
 10
3561.1763154519589989
 20
317.8898312094160019
 30
0.0
 40
0.1216681567049744
 50
160.3478174579385893
 51
180.3072937249897052
  0
ARC
  5
DB15
  8
0
 10
3561.0757334196000556
 20
317.9263245140397203
 30
0.0
 40
0.0146817988485953
 50
126.5450252879751929
 51
162.4593218471092939
  0
ARC
  5
DB16
  8
0
 10
3561.0687944112091827
 20
317.9356866501274226
 30
0.0
 40
0.0030284976174705
 50
27.3623565471663284
 51
126.5450252879119972
  0
ARC
  5
DB17
  8
0
 10
3560.9327429620511793
 20
317.8943641501530806
 30
0.0
 40
0.145167557952593
 50
343.4611404222688975
 51
17.11211246577545
  0
ARC
  5
DB18
  8
0
 10
3561.0549178743281118
 20
317.8579505688181257
 30
0.0
 40
0.0176821725663598
 50
315.8864179042948876
 51
343.8760538386047756
  0
ARC
  5
DB19
  8
0
 10
3561.0652318775541971
 20
314.421707890837979
 30
0.0
 40
0.0033471999696935
 50
218.7540090906711896
 51
315.3468549988922973
  0
ARC
  5
DB1A
  8
0
 10
3561.1383075410058154
 20
314.4559287962374015
 30
0.0
 40
0.0839477653648017
 50
175.2421673214257964
 51
205.6329606634209881
  0
ARC
  5
DB1B
  8
0
 10
3561.1763154519589989
 20
314.463544335045583
 30
0.0
 40
0.1216681567049744
 50
160.3478174579385893
 51
180.3072937249897052
  0
ARC
  5
DB1C
  8
0
 10
3561.0757334196000556
 20
314.5000376396691877
 30
0.0
 40
0.0146817988485953
 50
126.5450252879751929
 51
162.4593218471092939
  0
ARC
  5
DB1D
  8
0
 10
3561.0687944112091827
 20
314.5093997757570037
 30
0.0
 40
0.0030284976174705
 50
27.3623565471663284
 51
126.5450252879119972
  0
ARC
  5
DB1E
  8
0
 10
3560.9327429620511793
 20
314.4680772757827754
 30
0.0
 40
0.145167557952593
 50
343.4611404222688975
 51
17.11211246577545
  0
ARC
  5
DB1F
  8
0
 10
3561.0549178743281118
 20
314.4316636944477068
 30
0.0
 40
0.0176821725663598
 50
315.8864179042948876
 51
343.8760538386047756
  0
ARC
  5
DB20
  8
0
 10
3561.0652318775541971
 20
310.9954210164651727
 30
0.0
 40
0.0033471999696935
 50
218.7540090906711896
 51
315.3468549988922973
  0
ARC
  5
DB21
  8
0
 10
3561.1383075410049059
 20
311.0296419218645951
 30
0.0
 40
0.0839477653648017
 50
175.2421673214257964
 51
205.6329606634209881
  0
ARC
  5
DB22
  8
0
 10
3561.1763154519589989
 20
311.0372574606728904
 30
0.0
 40
0.1216681567049744
 50
160.3478174579385893
 51
180.3072937249897052
  0
ARC
  5
DB23
  8
0
 10
3561.0757334196000556
 20
311.073750765296495
 30
0.0
 40
0.0146817988485953
 50
126.5450252879751929
 51
162.4593218471092939
  0
ARC
  5
DB24
  8
0
 10
3561.0687944112091827
 20
311.0831129013841974
 30
0.0
 40
0.0030284976174705
 50
27.3623565471663284
 51
126.5450252879119972
  0
ARC
  5
DB25
  8
0
 10
3560.9327429620511793
 20
311.0417904014100259
 30
0.0
 40
0.145167557952593
 50
343.4611404222688975
 51
17.11211246577545
  0
ARC
  5
DB26
  8
0
 10
3561.0549178743281118
 20
311.0053768200749005
 30
0.0
 40
0.0176821725663598
 50
315.8864179042948876
 51
343.8760538386047756
  0
ARC
  5
DB27
  8
0
 10
3561.0652318775541971
 20
307.569134142087421
 30
0.0
 40
0.0033471999696935
 50
218.7540090906711896
 51
315.3468549988922973
  0
ARC
  5
DB28
  8
0
 10
3561.1383075410058154
 20
307.6033550474867866
 30
0.0
 40
0.0839477653648017
 50
175.2421673214257964
 51
205.6329606634209881
  0
ARC
  5
DB29
  8
0
 10
3561.1763154519589989
 20
307.6109705862950818
 30
0.0
 40
0.1216681567049744
 50
160.3478174579385893
 51
180.3072937249897052
  0
ARC
  5
DB2A
  8
0
 10
3561.0757334196000556
 20
307.6474638909186865
 30
0.0
 40
0.0146817988485953
 50
126.5450252879751929
 51
162.4593218471092939
  0
ARC
  5
DB2B
  8
0
 10
3561.0687944112091827
 20
307.6568260270065025
 30
0.0
 40
0.0030284976174705
 50
27.3623565471663284
 51
126.5450252879119972
  0
ARC
  5
DB2C
  8
0
 10
3560.9327429620511793
 20
307.6155035270322173
 30
0.0
 40
0.145167557952593
 50
343.4611404222688975
 51
17.11211246577545
  0
ARC
  5
DB2D
  8
0
 10
3561.0549178743281118
 20
307.5790899456970919
 30
0.0
 40
0.0176821725663598
 50
315.8864179042948876
 51
343.8760538386047756
  0
ARC
  5
DB2E
  8
0
 10
3561.0652318775541971
 20
304.142847267708305
 30
0.0
 40
0.0033471999696935
 50
218.7540090906711896
 51
315.3468549988922973
  0
ARC
  5
DB2F
  8
0
 10
3561.1383075410058154
 20
304.1770681731077275
 30
0.0
 40
0.0839477653648017
 50
175.2421673214257964
 51
205.6329606634209881
  0
ARC
  5
DB30
  8
0
 10
3561.1763154519589989
 20
304.1846837119160227
 30
0.0
 40
0.1216681567049744
 50
160.3478174579385893
 51
180.3072937249897052
  0
ARC
  5
DB31
  8
0
 10
3561.0757334196000556
 20
304.2211770165396274
 30
0.0
 40
0.0146817988485953
 50
126.5450252879751929
 51
162.4593218471092939
  0
ARC
  5
DB32
  8
0
 10
3561.0687944112091827
 20
304.2305391526273866
 30
0.0
 40
0.0030284976174705
 50
27.3623565471663284
 51
126.5450252879119972
  0
ARC
  5
DB33
  8
0
 10
3560.9327429620511793
 20
304.1892166526531014
 30
0.0
 40
0.145167557952593
 50
343.4611404222688975
 51
17.11211246577545
  0
ARC
  5
DB34
  8
0
 10
3561.0549178743281118
 20
304.1528030713180897
 30
0.0
 40
0.0176821725663598
 50
315.8864179042948876
 51
343.8760538386047756
  0
ARC
  5
DB35
  8
0
 10
3561.0652318775551066
 20
300.716560614626303
 30
0.0
 40
0.0033471999696935
 50
218.7540090906711896
 51
315.3468549988922973
  0
ARC
  5
DB36
  8
0
 10
3561.1383075410058154
 20
300.7507815200257255
 30
0.0
 40
0.0839477653648017
 50
175.2421673214257964
 51
205.6329606634209881
  0
ARC
  5
DB37
  8
0
 10
3561.1763154519589989
 20
300.7583970588340208
 30
0.0
 40
0.1216681567049744
 50
160.3478174579385893
 51
180.3072937249897052
  0
ARC
  5
DB38
  8
0
 10
3561.0757334196000556
 20
300.7948903634576254
 30
0.0
 40
0.0146817988485953
 50
126.5450252879751929
 51
162.4593218471092939
  0
ARC
  5
DB39
  8
0
 10
3561.0687944112091827
 20
300.8042524995453846
 30
0.0
 40
0.0030284976174705
 50
27.3623565471663284
 51
126.5450252879119972
  0
ARC
  5
DB3A
  8
0
 10
3560.9327429620511793
 20
300.7629299995710994
 30
0.0
 40
0.145167557952593
 50
343.4611404222688975
 51
17.11211246577545
  0
ARC
  5
DB3B
  8
0
 10
3561.0549178743281118
 20
300.726516418235974
 30
0.0
 40
0.0176821725663598
 50
315.8864179042948876
 51
343.8760538386047756
  0
ARC
  5
DB3C
  8
0
 10
3560.9407160944438147
 20
316.2394701776217971
 30
0.0
 40
0.006799723292611
 50
129.1698576564560881
 51
159.5059528642593989
  0
ARC
  5
DB3D
  8
0
 10
3560.9372987004589959
 20
316.2434250914594145
 30
0.0
 40
0.0015823318707308
 50
52.1093498012944991
 51
123.678658904488799
  0
ARC
  5
DB3E
  8
0
 10
3560.9303907323687781
 20
316.2368483171387084
 30
0.0
 40
0.0111053855495545
 50
13.8143896940854205
 51
44.8021176617636598
  0
ARC
  5
DB3F
  8
0
 10
3560.790010957442064
 20
316.2023303519130764
 30
0.0
 40
0.1556666913393881
 50
358.4086625356392233
 51
13.8143896940854205
  0
ARC
  5
DB40
  8
0
 10
3560.7749781060419991
 20
316.1948085150248744
 30
0.0
 40
0.1706694874027875
 50
347.531713104685025
 51
1.0739696533236489
  0
ARC
  5
DB41
  8
0
 10
3560.9222758553451058
 20
316.1628513460785257
 30
0.0
 40
0.0199550933469132
 50
328.1395610793542801
 51
345.8144955838819214
  0
ARC
  5
DB42
  8
0
 10
3560.936785998419964
 20
316.1538334720063972
 30
0.0
 40
0.0028709982637187
 50
280.1503908309491067
 51
328.1395610792880007
  0
ARC
  5
DB43
  8
0
 10
3560.9370500133459245
 20
316.152358813857802
 30
0.0
 40
0.0013728926144516
 50
204.2614854531805122
 51
280.1503908309491067
  0
ARC
  5
DB44
  8
0
 10
3561.0012241019098838
 20
316.1812826089699229
 30
0.0
 40
0.0717639401036985
 50
177.4866167481249875
 51
204.2614854531776132
  0
ARC
  5
DB45
  8
0
 10
3561.109095478882864
 20
316.1982770336280169
 30
0.0
 40
0.1800994142672628
 50
165.9987528183976906
 51
184.4096765787676873
  0
ARC
  5
DB46
  8
0
 10
3560.8517727753492181
 20
314.5069582558925845
 30
0.0
 40
0.006799723292611
 50
129.1698576564560881
 51
159.5059528642593989
  0
ARC
  5
DB47
  8
0
 10
3560.8483553813639446
 20
314.5109131697302018
 30
0.0
 40
0.0015823318707308
 50
52.1093498012944991
 51
123.678658904488799
  0
ARC
  5
DB48
  8
0
 10
3560.8414474132741816
 20
314.504336395409382
 30
0.0
 40
0.0111053855495545
 50
13.8143896940854205
 51
44.8021176617636598
  0
ARC
  5
DB49
  8
0
 10
3560.7010676383479222
 20
314.4698184301839206
 30
0.0
 40
0.1556666913393881
 50
358.4086625356392233
 51
13.8143896940854205
  0
ARC
  5
DB4A
  8
0
 10
3560.6860347869478574
 20
314.4622965932956049
 30
0.0
 40
0.1706694874027875
 50
347.531713104685025
 51
1.0739696533236489
  0
ARC
  5
DB4B
  8
0
 10
3560.833332536250964
 20
314.430339424349313
 30
0.0
 40
0.0199550933469132
 50
328.1395610793542801
 51
345.8144955838819214
  0
ARC
  5
DB4C
  8
0
 10
3560.8478426793249128
 20
314.4213215502771277
 30
0.0
 40
0.0028709982637187
 50
280.1503908309491067
 51
328.1395610792880007
  0
ARC
  5
DB4D
  8
0
 10
3560.8481066942508733
 20
314.4198468921284757
 30
0.0
 40
0.0013728926144516
 50
204.2614854531805122
 51
280.1503908309491067
  0
ARC
  5
DB4E
  8
0
 10
3560.912280782813923
 20
314.4487706872405965
 30
0.0
 40
0.0717639401036985
 50
177.4866167481249875
 51
204.2614854531776132
  0
ARC
  5
DB4F
  8
0
 10
3561.0201521597891769
 20
314.4657651118986905
 30
0.0
 40
0.1800994142672628
 50
165.9987528183976906
 51
184.4096765787676873
  0
ARC
  5
DB50
  8
0
 10
3560.9406643260472265
 20
312.800270503492527
 30
0.0
 40
0.006799723292611
 50
129.1698576564560881
 51
159.5059528642593989
  0
ARC
  5
DB51
  8
0
 10
3560.9372469320628625
 20
312.8042254173299739
 30
0.0
 40
0.0015823318707308
 50
52.1093498012944991
 51
123.678658904488799
  0
ARC
  5
DB52
  8
0
 10
3560.93033896397219
 20
312.7976486430093246
 30
0.0
 40
0.0111053855495545
 50
13.8143896940854205
 51
44.8021176617636598
  0
ARC
  5
DB53
  8
0
 10
3560.7899591890459305
 20
312.7631306777836926
 30
0.0
 40
0.1556666913393881
 50
358.4086625356392233
 51
13.8143896940854205
  0
ARC
  5
DB54
  8
0
 10
3560.7749263376458657
 20
312.7556088408954906
 30
0.0
 40
0.1706694874027875
 50
347.531713104685025
 51
1.0739696533236489
  0
ARC
  5
DB55
  8
0
 10
3560.9222240869498819
 20
312.7236516719490851
 30
0.0
 40
0.0199550933469132
 50
328.1395610793542801
 51
345.8144955838819214
  0
ARC
  5
DB56
  8
0
 10
3560.9367342300229211
 20
312.7146337978770134
 30
0.0
 40
0.0028709982637187
 50
280.1503908309491067
 51
328.1395610792880007
  0
ARC
  5
DB57
  8
0
 10
3560.9369982449488816
 20
312.7131591397284183
 30
0.0
 40
0.0013728926144516
 50
204.2614854531805122
 51
280.1503908309491067
  0
ARC
  5
DB58
  8
0
 10
3561.0011723335128409
 20
312.7420829348404823
 30
0.0
 40
0.0717639401036985
 50
177.4866167481249875
 51
204.2614854531776132
  0
ARC
  5
DB59
  8
0
 10
3561.1090437104871853
 20
312.7590773594985762
 30
0.0
 40
0.1800994142672628
 50
165.9987528183976906
 51
184.4096765787676873
  0
ARC
  5
DB5A
  8
0
 10
3560.8517730246380779
 20
311.0806713815504168
 30
0.0
 40
0.006799723292611
 50
129.1698576564560881
 51
159.5059528642593989
  0
ARC
  5
DB5B
  8
0
 10
3560.8483556306541686
 20
311.0846262953879773
 30
0.0
 40
0.0015823318707308
 50
52.1093498012944991
 51
123.678658904488799
  0
ARC
  5
DB5C
  8
0
 10
3560.8414476625630414
 20
311.0780495210672143
 30
0.0
 40
0.0111053855495545
 50
13.8143896940854205
 51
44.8021176617636598
  0
ARC
  5
DB5D
  8
0
 10
3560.701067887636782
 20
311.043531555841696
 30
0.0
 40
0.1556666913393881
 50
358.4086625356392233
 51
13.8143896940854205
  0
ARC
  5
DB5E
  8
0
 10
3560.6860350362371719
 20
311.036009718953494
 30
0.0
 40
0.1706694874027875
 50
347.531713104685025
 51
1.0739696533236489
  0
ARC
  5
DB5F
  8
0
 10
3560.8333327855398238
 20
311.0040525500070885
 30
0.0
 40
0.0199550933469132
 50
328.1395610793542801
 51
345.8144955838819214
  0
ARC
  5
DB60
  8
0
 10
3560.8478429286151368
 20
310.9950346759350168
 30
0.0
 40
0.0028709982637187
 50
280.1503908309491067
 51
328.1395610792880007
  0
ARC
  5
DB61
  8
0
 10
3560.8481069435410973
 20
310.993560017786308
 30
0.0
 40
0.0013728926144516
 50
204.2614854531805122
 51
280.1503908309491067
  0
ARC
  5
DB62
  8
0
 10
3560.912281032104147
 20
311.022483812898372
 30
0.0
 40
0.0717639401036985
 50
177.4866167481249875
 51
204.2614854531776132
  0
ARC
  5
DB63
  8
0
 10
3561.0201524090780367
 20
311.0394782375565228
 30
0.0
 40
0.1800994142672628
 50
165.9987528183976906
 51
184.4096765787676873
  0
ARC
  5
DB64
  8
0
 10
3560.9406392923478961
 20
309.3610724830925847
 30
0.0
 40
0.006799723292611
 50
129.1698576564560881
 51
159.5059528642593989
  0
ARC
  5
DB65
  8
0
 10
3560.9372218983648963
 20
309.365027396930202
 30
0.0
 40
0.0015823318707308
 50
52.1093498012944991
 51
123.678658904488799
  0
ARC
  5
DB66
  8
0
 10
3560.9303139302751333
 20
309.3584506226093822
 30
0.0
 40
0.0111053855495545
 50
13.8143896940854205
 51
44.8021176617636598
  0
ARC
  5
DB67
  8
0
 10
3560.7899341553479644
 20
309.3239326573839207
 30
0.0
 40
0.1556666913393881
 50
358.4086625356392233
 51
13.8143896940854205
  0
ARC
  5
DB68
  8
0
 10
3560.7749013039469901
 20
309.3164108204957188
 30
0.0
 40
0.1706694874027875
 50
347.531713104685025
 51
1.0739696533236489
  0
ARC
  5
DB69
  8
0
 10
3560.9221990532500968
 20
309.2844536515493132
 30
0.0
 40
0.0199550933469132
 50
328.1395610793542801
 51
345.8144955838819214
  0
ARC
  5
DB6A
  8
0
 10
3560.936709196324955
 20
309.2754357774771279
 30
0.0
 40
0.0028709982637187
 50
280.1503908309491067
 51
328.1395610792880007
  0
ARC
  5
DB6B
  8
0
 10
3560.9369732112509155
 20
309.2739611193284759
 30
0.0
 40
0.0013728926144516
 50
204.2614854531805122
 51
280.1503908309491067
  0
ARC
  5
DB6C
  8
0
 10
3561.0011472998148747
 20
309.3028849144405967
 30
0.0
 40
0.0717639401036985
 50
177.4866167481249875
 51
204.2614854531776132
  0
ARC
  5
DB6D
  8
0
 10
3561.1090186767892192
 20
309.3198793390988044
 30
0.0
 40
0.1800994142672628
 50
165.9987528183976906
 51
184.4096765787676873
  0
ARC
  5
DB6E
  8
0
 10
3560.8517727753492181
 20
307.6543845070925727
 30
0.0
 40
0.006799723292611
 50
129.1698576564560881
 51
159.5059528642593989
  0
ARC
  5
DB6F
  8
0
 10
3560.8483553813639446
 20
307.65833942093019
 30
0.0
 40
0.0015823318707308
 50
52.1093498012944991
 51
123.678658904488799
  0
ARC
  5
DB70
  8
0
 10
3560.8414474132741816
 20
307.6517626466094271
 30
0.0
 40
0.0111053855495545
 50
13.8143896940854205
 51
44.8021176617636598
  0
ARC
  5
DB71
  8
0
 10
3560.7010676383479222
 20
307.6172446813837951
 30
0.0
 40
0.1556666913393881
 50
358.4086625356392233
 51
13.8143896940854205
  0
ARC
  5
DB72
  8
0
 10
3560.6860347869478574
 20
307.6097228444957068
 30
0.0
 40
0.1706694874027875
 50
347.531713104685025
 51
1.0739696533236489
  0
ARC
  5
DB73
  8
0
 10
3560.833332536250964
 20
307.5777656755493012
 30
0.0
 40
0.0199550933469132
 50
328.1395610793542801
 51
345.8144955838819214
  0
ARC
  5
DB74
  8
0
 10
3560.8478426793249128
 20
307.5687478014771159
 30
0.0
 40
0.0028709982637187
 50
280.1503908309491067
 51
328.1395610792880007
  0
ARC
  5
DB75
  8
0
 10
3560.8481066942508733
 20
307.5672731433285776
 30
0.0
 40
0.0013728926144516
 50
204.2614854531805122
 51
280.1503908309491067
  0
ARC
  5
DB76
  8
0
 10
3560.912280782813923
 20
307.5961969384405847
 30
0.0
 40
0.0717639401036985
 50
177.4866167481249875
 51
204.2614854531776132
  0
ARC
  5
DB77
  8
0
 10
3561.0201521597891769
 20
307.6131913630986787
 30
0.0
 40
0.1800994142672628
 50
165.9987528183976906
 51
184.4096765787676873
  0
ARC
  5
DB78
  8
0
 10
3560.9406499504998465
 20
305.9218747287804945
 30
0.0
 40
0.006799723292611
 50
129.1698576564560881
 51
159.5059528642593989
  0
ARC
  5
DB79
  8
0
 10
3560.9372325565159372
 20
305.9258296426182255
 30
0.0
 40
0.0015823318707308
 50
52.1093498012944991
 51
123.678658904488799
  0
ARC
  5
DB7A
  8
0
 10
3560.9303245884261742
 20
305.9192528682974057
 30
0.0
 40
0.0111053855495545
 50
13.8143896940854205
 51
44.8021176617636598
  0
ARC
  5
DB7B
  8
0
 10
3560.7899448134999147
 20
305.8847349030717737
 30
0.0
 40
0.1556666913393881
 50
358.4086625356392233
 51
13.8143896940854205
  0
ARC
  5
DB7C
  8
0
 10
3560.7749119620989404
 20
305.8772130661835718
 30
0.0
 40
0.1706694874027875
 50
347.531713104685025
 51
1.0739696533236489
  0
ARC
  5
DB7D
  8
0
 10
3560.9222097114020471
 20
305.8452558972372799
 30
0.0
 40
0.0199550933469132
 50
328.1395610793542801
 51
345.8144955838819214
  0
ARC
  5
DB7E
  8
0
 10
3560.9367198544759958
 20
305.8362380231652082
 30
0.0
 40
0.0028709982637187
 50
280.1503908309491067
 51
328.1395610792880007
  0
ARC
  5
DB7F
  8
0
 10
3560.9369838694019563
 20
305.8347633650166131
 30
0.0
 40
0.0013728926144516
 50
204.2614854531805122
 51
280.1503908309491067
  0
ARC
  5
DB80
  8
0
 10
3561.0011579579659156
 20
305.8636871601286202
 30
0.0
 40
0.0717639401036985
 50
177.4866167481249875
 51
204.2614854531776132
  0
ARC
  5
DB81
  8
0
 10
3561.1090293349411695
 20
305.8806815847867142
 30
0.0
 40
0.1800994142672628
 50
165.9987528183976906
 51
184.4096765787676873
  0
ARC
  5
DB82
  8
0
 10
3560.8517728999418068
 20
304.2280976327069766
 30
0.0
 40
0.006799723292611
 50
129.1698576564560881
 51
159.5059528642593989
  0
ARC
  5
DB83
  8
0
 10
3560.8483555059578975
 20
304.232052546544594
 30
0.0
 40
0.0015823318707308
 50
52.1093498012944991
 51
123.678658904488799
  0
ARC
  5
DB84
  8
0
 10
3560.841447537867225
 20
304.2254757722237741
 30
0.0
 40
0.0111053855495545
 50
13.8143896940854205
 51
44.8021176617636598
  0
ARC
  5
DB85
  8
0
 10
3560.7010677629400561
 20
304.190957806998199
 30
0.0
 40
0.1556666913393881
 50
358.4086625356392233
 51
13.8143896940854205
  0
ARC
  5
DB86
  8
0
 10
3560.6860349115399913
 20
304.1834359701101107
 30
0.0
 40
0.1706694874027875
 50
347.531713104685025
 51
1.0739696533236489
  0
ARC
  5
DB87
  8
0
 10
3560.8333326608440075
 20
304.1514788011637052
 30
0.0
 40
0.0199550933469132
 50
328.1395610793542801
 51
345.8144955838819214
  0
ARC
  5
DB88
  8
0
 10
3560.8478428039179562
 20
304.1424609270915767
 30
0.0
 40
0.0028709982637187
 50
280.1503908309491067
 51
328.1395610792880007
  0
ARC
  5
DB89
  8
0
 10
3560.8481068188439167
 20
304.1409862689429815
 30
0.0
 40
0.0013728926144516
 50
204.2614854531805122
 51
280.1503908309491067
  0
ARC
  5
DB8A
  8
0
 10
3560.9122809074078759
 20
304.1699100640549887
 30
0.0
 40
0.0717639401036985
 50
177.4866167481249875
 51
204.2614854531776132
  0
ARC
  5
DB8B
  8
0
 10
3561.0201522843822204
 20
304.1869044887130826
 30
0.0
 40
0.1800994142672628
 50
165.9987528183976906
 51
184.4096765787676873
  0
ARC
  5
DB8C
  8
0
 10
3560.9406475728428632
 20
302.4826769172811964
 30
0.0
 40
0.006799723292611
 50
129.1698576564560881
 51
159.5059528642593989
  0
ARC
  5
DB8D
  8
0
 10
3560.9372301788589539
 20
302.4866318311188138
 30
0.0
 40
0.0015823318707308
 50
52.1093498012944991
 51
123.678658904488799
  0
ARC
  5
DB8E
  8
0
 10
3560.9303222107691909
 20
302.480055056797994
 30
0.0
 40
0.0111053855495545
 50
13.8143896940854205
 51
44.8021176617636598
  0
ARC
  5
DB8F
  8
0
 10
3560.789942435842022
 20
302.4455370915724757
 30
0.0
 40
0.1556666913393881
 50
358.4086625356392233
 51
13.8143896940854205
  0
ARC
  5
DB90
  8
0
 10
3560.7749095844419571
 20
302.4380152546842737
 30
0.0
 40
0.1706694874027875
 50
347.531713104685025
 51
1.0739696533236489
  0
ARC
  5
DB91
  8
0
 10
3560.9222073337450638
 20
302.406058085737925
 30
0.0
 40
0.0199550933469132
 50
328.1395610793542801
 51
345.8144955838819214
  0
ARC
  5
DB92
  8
0
 10
3560.9367174768190125
 20
302.3970402116657965
 30
0.0
 40
0.0028709982637187
 50
280.1503908309491067
 51
328.1395610792880007
  0
ARC
  5
DB93
  8
0
 10
3560.936981491744973
 20
302.3955655535172014
 30
0.0
 40
0.0013728926144516
 50
204.2614854531805122
 51
280.1503908309491067
  0
ARC
  5
DB94
  8
0
 10
3561.0011555803089323
 20
302.4244893486293222
 30
0.0
 40
0.0717639401036985
 50
177.4866167481249875
 51
204.2614854531776132
  0
ARC
  5
DB95
  8
0
 10
3561.1090269572841862
 20
302.4414837732873025
 30
0.0
 40
0.1800994142672628
 50
165.9987528183976906
 51
184.4096765787676873
  0
ARC
  5
DB96
  8
0
 10
3560.8517727753492181
 20
300.8018107583926053
 30
0.0
 40
0.006799723292611
 50
129.1698576564560881
 51
159.5059528642593989
  0
ARC
  5
DB97
  8
0
 10
3560.8483553813639446
 20
300.8057656722302227
 30
0.0
 40
0.0015823318707308
 50
52.1093498012944991
 51
123.678658904488799
  0
ARC
  5
DB98
  8
0
 10
3560.8414474132741816
 20
300.7991888979092892
 30
0.0
 40
0.0111053855495545
 50
13.8143896940854205
 51
44.8021176617636598
  0
ARC
  5
DB99
  8
0
 10
3560.7010676383479222
 20
300.7646709326838277
 30
0.0
 40
0.1556666913393881
 50
358.4086625356392233
 51
13.8143896940854205
  0
ARC
  5
DB9A
  8
0
 10
3560.6860347869478574
 20
300.7571490957956257
 30
0.0
 40
0.1706694874027875
 50
347.531713104685025
 51
1.0739696533236489
  0
ARC
  5
DB9B
  8
0
 10
3560.833332536250964
 20
300.725191926849277
 30
0.0
 40
0.0199550933469132
 50
328.1395610793542801
 51
345.8144955838819214
  0
ARC
  5
DB9C
  8
0
 10
3560.8478426793249128
 20
300.7161740527770917
 30
0.0
 40
0.0028709982637187
 50
280.1503908309491067
 51
328.1395610792880007
  0
ARC
  5
DB9D
  8
0
 10
3560.8481066942508733
 20
300.7146993946286102
 30
0.0
 40
0.0013728926144516
 50
204.2614854531805122
 51
280.1503908309491067
  0
ARC
  5
DB9E
  8
0
 10
3560.912280782813923
 20
300.7436231897406174
 30
0.0
 40
0.0717639401036985
 50
177.4866167481249875
 51
204.2614854531776132
  0
ARC
  5
DB9F
  8
0
 10
3561.0201521597891769
 20
300.7606176143987113
 30
0.0
 40
0.1800994142672628
 50
165.9987528183976906
 51
184.4096765787676873
  0
ARC
  5
DBA0
  8
0
 10
3560.9406460625159525
 20
299.0434791138000037
 30
0.0
 40
0.006799723292611
 50
129.1698576564560881
 51
159.5059528642593989
  0
ARC
  5
DBA1
  8
0
 10
3560.9372286685320432
 20
299.0474340276376779
 30
0.0
 40
0.0015823318707308
 50
52.1093498012944991
 51
123.678658904488799
  0
ARC
  5
DBA2
  8
0
 10
3560.9303207004418255
 20
299.0408572533169149
 30
0.0
 40
0.0111053855495545
 50
13.8143896940854205
 51
44.8021176617636598
  0
ARC
  5
DBA3
  8
0
 10
3560.7899409255151113
 20
299.0063392880912829
 30
0.0
 40
0.1556666913393881
 50
358.4086625356392233
 51
13.8143896940854205
  0
ARC
  5
DBA4
  8
0
 10
3560.774908074114137
 20
298.998817451203081
 30
0.0
 40
0.1706694874027875
 50
347.531713104685025
 51
1.0739696533236489
  0
ARC
  5
DBA5
  8
0
 10
3560.9222058234181532
 20
298.9668602822567891
 30
0.0
 40
0.0199550933469132
 50
328.1395610793542801
 51
345.8144955838819214
  0
ARC
  5
DBA6
  8
0
 10
3560.9367159664921019
 20
298.9578424081847174
 30
0.0
 40
0.0028709982637187
 50
280.1503908309491067
 51
328.1395610792880007
  0
ARC
  5
DBA7
  8
0
 10
3560.9369799814189719
 20
298.9563677500361223
 30
0.0
 40
0.0013728926144516
 50
204.2614854531805122
 51
280.1503908309491067
  0
ARC
  5
DBA8
  8
0
 10
3561.0011540699820216
 20
298.9852915451480726
 30
0.0
 40
0.0717639401036985
 50
177.4866167481249875
 51
204.2614854531776132
  0
ARC
  5
DBA9
  8
0
 10
3561.1090254469568208
 20
299.0022859698062234
 30
0.0
 40
0.1800994142672628
 50
165.9987528183976906
 51
184.4096765787676873
  0
ARC
  5
DBAA
  8
0
 10
3560.6832516893800857
 20
297.5082837128413757
 30
0.0
 40
0.006799723292611
 50
104.0164302447919056
 51
134.3525254525895889
  0
ARC
  5
DBAB
  8
0
 10
3560.6818393682201531
 20
297.5133161351258195
 30
0.0
 40
0.0015823318707308
 50
26.9559223896231295
 51
98.525231492825597
  0
ARC
  5
DBAC
  8
0
 10
3560.6727910468111986
 20
297.5102992056832818
 30
0.0
 40
0.0111053855495545
 50
348.6609622824253165
 51
19.6486902500933809
  0
ARC
  5
DBAD
  8
0
 10
3560.5310514438970131
 20
297.5387220151430938
 30
0.0
 40
0.1556666913393881
 50
333.2552351239796735
 51
348.6609622824253165
  0
ARC
  5
DBAE
  8
0
 10
3560.5142470058772233
 20
297.5383030709214722
 30
0.0
 40
0.1706694874027875
 50
322.3782856930300795
 51
335.9205422416569036
  0
ARC
  5
DBAF
  8
0
 10
3560.6339937365660262
 20
297.4467683338733082
 30
0.0
 40
0.0199550933469132
 50
302.9861336677046779
 51
320.6610681722220875
  0
ARC
  5
DBB0
  8
0
 10
3560.6432949338059188
 20
297.432438154715328
 30
0.0
 40
0.0028709982637187
 50
254.9969634193001014
 51
302.986133667617878
  0
ARC
  5
DBB1
  8
0
 10
3560.6429071188417765
 20
297.4309911163297215
 30
0.0
 40
0.0013728926144516
 50
179.1080580415188024
 51
254.9969634193001014
  0
ARC
  5
DBB2
  8
0
 10
3560.7132896371640527
 20
297.4298953603520204
 30
0.0
 40
0.0717639401036985
 50
152.3331893364602081
 51
179.1080580415188024
  0
ARC
  5
DBB3
  8
0
 10
3560.8181552510441179
 20
297.3994282064716117
 30
0.0
 40
0.1800994142672628
 50
140.8453254067289038
 51
159.2562491671058069
  0
ARC
  5
DBB4
  8
0
 10
3559.6111545488170123
 20
296.4067740838709142
 30
0.0
 40
0.006799723292611
 50
237.7830679619077898
 51
268.1191631697001867
  0
ARC
  5
DBB5
  8
0
 10
3559.6084972537300928
 20
296.4022731164279207
 30
0.0
 40
0.0015823318707308
 50
160.7225601067252114
 51
232.2918692099370901
  0
ARC
  5
DBB6
  8
0
 10
3559.6169348990529215
 20
296.3978256311826271
 30
0.0
 40
0.0111053855495545
 50
122.4275999995271036
 51
153.415327967198408
  0
ARC
  5
DBB7
  8
0
 10
3559.694453507477192
 20
296.2758058111547257
 30
0.0
 40
0.1556666913393881
 50
107.0218728410872018
 51
122.4275999995253983
  0
ARC
  5
DBB8
  8
0
 10
3559.706380066276779
 20
296.2639600588955204
 30
0.0
 40
0.1706694874027875
 50
96.1449234101125967
 51
109.6871799587732994
  0
ARC
  5
DBB9
  8
0
 10
3559.6896515358048418
 20
296.4137533960808923
 30
0.0
 40
0.0199550933469132
 50
76.7527713847951105
 51
94.427705889321885
  0
ARC
  5
DBBA
  8
0
 10
3559.6935664127158816
 20
296.4303828892656156
 30
0.0
 40
0.0028709982637187
 50
28.7636011364045707
 51
76.7527713847152739
  0
ARC
  5
DBBB
  8
0
 10
3559.6948796709320959
 20
296.4311037730251996
 30
0.0
 40
0.0013728926144516
 50
312.8746957586154736
 51
28.7636011364045707
  0
ARC
  5
DBBC
  8
0
 10
3559.6469857936390326
 20
296.4826893919952226
 30
0.0
 40
0.0717639401036985
 50
286.0998270535570782
 51
312.8746957586133135
  0
ARC
  5
DBBD
  8
0
 10
3559.5964501139051208
 20
296.5794942963839844
 30
0.0
 40
0.1800994142672628
 50
274.6119631238448733
 51
293.0228868842066277
  0
ARC
  5
DBBE
  8
0
 10
3560.8994346055342248
 20
297.4070258933676882
 30
0.0
 40
0.006799723292611
 50
104.0164302447919056
 51
134.3525254525895889
  0
ARC
  5
DBBF
  8
0
 10
3560.8980222843738375
 20
297.4120583156520183
 30
0.0
 40
0.0015823318707308
 50
26.9559223896231295
 51
98.525231492825597
  0
ARC
  5
DBC0
  8
0
 10
3560.888973962964883
 20
297.4090413862094806
 30
0.0
 40
0.0111053855495545
 50
348.6609622824253165
 51
19.6486902500933809
  0
ARC
  5
DBC1
  8
0
 10
3560.7472343600511522
 20
297.4374641956694063
 30
0.0
 40
0.1556666913393881
 50
333.2552351239796735
 51
348.6609622824253165
  0
ARC
  5
DBC2
  8
0
 10
3560.7304299220318171
 20
297.4370452514477279
 30
0.0
 40
0.1706694874027875
 50
322.3782856930300795
 51
335.9205422416569036
  0
ARC
  5
DBC3
  8
0
 10
3560.8501766527188011
 20
297.3455105143996207
 30
0.0
 40
0.0199550933469132
 50
302.9861336677046779
 51
320.6610681722220875
  0
ARC
  5
DBC4
  8
0
 10
3560.8594778499600579
 20
297.3311803352415836
 30
0.0
 40
0.0028709982637187
 50
254.9969634193001014
 51
302.986133667617878
  0
ARC
  5
DBC5
  8
0
 10
3560.8590900349950061
 20
297.3297332968559772
 30
0.0
 40
0.0013728926144516
 50
179.1080580415188024
 51
254.9969634193001014
  0
ARC
  5
DBC6
  8
0
 10
3560.9294725533181918
 20
297.328637540878276
 30
0.0
 40
0.0717639401036985
 50
152.3331893364602081
 51
179.1080580415188024
  0
ARC
  5
DBC7
  8
0
 10
3561.0343381671978022
 20
297.2981703869979242
 30
0.0
 40
0.1800994142672628
 50
140.8453254067289038
 51
159.2562491671058069
  0
ARC
  5
DBC8
  8
0
 10
3513.9685183492911165
 20
321.3201512754779969
 30
0.0
 40
0.0033471999696935
 50
16.7845575217470007
 51
113.3774034299587044
  0
ARC
  5
DBC9
  8
0
 10
3514.0171224478422118
 20
321.2557403714383213
 30
0.0
 40
0.0839477653648017
 50
126.4984518572135954
 51
156.8892451992095971
  0
ARC
  5
DBCA
  8
0
 10
3514.0471624316478483
 20
321.2312414510674898
 30
0.0
 40
0.1216681567049744
 50
151.8241187956438125
 51
171.7835950626952979
  0
ARC
  5
DBCB
  8
0
 10
3513.9411870774210911
 20
321.245997155462419
 30
0.0
 40
0.0146817988485953
 50
169.6720906735206995
 51
205.5863872326513047
  0
ARC
  5
DBCC
  8
0
 10
3513.930676555320133
 20
321.2409644271016873
 30
0.0
 40
0.0030284976174705
 50
205.5863872327124966
 51
304.7690559734613771
  0
ARC
  5
DBCD
  8
0
 10
3513.8297200805977809
 20
321.341091027133416
 30
0.0
 40
0.145167557952593
 50
315.0193000548559894
 51
348.6702720983579979
  0
ARC
  5
DBCE
  8
0
 10
3513.9547467503248299
 20
321.3161713571383871
 30
0.0
 40
0.0176821725663598
 50
348.2553586820280884
 51
16.2449946163414012
  0
ARC
  5
DBCF
  8
0
 10
3514.18550797817079
 20
321.2208577698588101
 30
0.0
 40
0.0012002651707901
 50
339.8115133826001966
 51
84.1990840203073532
  0
ARC
  5
DBD0
  8
0
 10
3514.1889939030961614
 20
321.2136354279081729
 30
0.0
 40
0.0090640730755425
 50
111.7898310260068939
 51
142.3513445639813142
  0
ARC
  5
DBD1
  8
0
 10
3514.3822530459619884
 20
321.0693865165434886
 30
0.0
 40
0.2502202718839099
 50
143.2292885580394
 51
160.8391413847828915
  0
ARC
  5
DBD2
  8
0
 10
3514.1889128697521301
 20
321.1358066350666718
 30
0.0
 40
0.0457961053605747
 50
159.940948448793506
 51
174.760804238110012
  0
ARC
  5
DBD3
  8
0
 10
3514.1463333903830062
 20
321.139677382039622
 30
0.0
 40
0.003041248028716
 50
174.1292878898993877
 51
207.2126506944846938
  0
ARC
  5
DBD4
  8
0
 10
3514.1444424472938408
 20
321.1387050414468831
 30
0.0
 40
0.0009149573625516
 50
207.2126506945924973
 51
296.1831581063634076
  0
ARC
  5
DBD5
  8
0
 10
3514.1173210963511337
 20
321.1702957027691809
 30
0.0
 40
0.0425223453183796
 50
310.3389681016129202
 51
331.251178512020374
  0
ARC
  5
DBD6
  8
0
 10
3513.8116216191460808
 20
321.3558347530125729
 30
0.0
 40
0.4000848065746233
 50
329.011335969556626
 51
337.4715891376997092
  0
ARC
  5
DBD7
  8
0
 10
3514.1155621379789409
 20
321.2323385672409017
 30
0.0
 40
0.0720608938797153
 50
335.5788400325599241
 51
350.4987565709539012
  0
ARC
  5
DBD8
  8
0
 10
3513.7131600110810723
 20
319.6466298487245012
 30
0.0
 40
0.0033471999696935
 50
228.4639956438468005
 51
325.0568415520614849
  0
ARC
  5
DBD9
  8
0
 10
3513.6379715059429145
 20
319.6759182705051785
 30
0.0
 40
0.0839477653648017
 50
338.1778899793151254
 51
8.5686833213119691
  0
ARC
  5
DBDA
  8
0
 10
3513.5995414837939279
 20
319.6809908560398981
 30
0.0
 40
0.1216681567049744
 50
3.503556917753476
 51
23.4630331848033897
  0
ARC
  5
DBDB
  8
0
 10
3513.6974756696890836
 20
319.7240884400649179
 30
0.0
 40
0.0146817988485953
 50
21.3515287956292816
 51
57.265825354759393
  0
ARC
  5
DBDC
  8
0
 10
3513.7037771008740492
 20
319.7338910618880163
 30
0.0
 40
0.0030284976174705
 50
57.2658253548226028
 51
156.4484940955800027
  0
ARC
  5
DBDD
  8
0
 10
3513.8422741382291861
 20
319.7017022988451913
 30
0.0
 40
0.145167557952593
 50
166.6987381769592105
 51
200.3497102204661076
  0
ARC
  5
DBDE
  8
0
 10
3513.7227895178039034
 20
319.6572491372278932
 30
0.0
 40
0.0176821725663598
 50
199.9347968041346917
 51
227.9244327384593021
  0
ARC
  5
DBDF
  8
0
 10
3513.8836106277890394
 20
319.6786658688926082
 30
0.0
 40
0.006799723292611
 50
20.4940471357405691
 51
50.8301423435438195
  0
ARC
  5
DBE0
  8
0
 10
3513.8870280217738582
 20
319.6826207827302255
 30
0.0
 40
0.0015823318707308
 50
56.3213410955111797
 51
127.8906501987055009
  0
ARC
  5
DBE1
  8
0
 10
3513.893935989864076
 20
319.676044008409292
 30
0.0
 40
0.0111053855495545
 50
135.1978823382362975
 51
166.1856103059145937
  0
ARC
  5
DBE2
  8
0
 10
3514.0343157647898806
 20
319.6415260431837737
 30
0.0
 40
0.1556666913393881
 50
166.1856103059145937
 51
181.5913374643608051
  0
ARC
  5
DBE3
  8
0
 10
3514.049348616190855
 20
319.6340042062955717
 30
0.0
 40
0.1706694874027875
 50
178.9260303466762991
 51
192.4682868953150034
  0
ARC
  5
DBE4
  8
0
 10
3513.9020508668868388
 20
319.6020470373492799
 30
0.0
 40
0.0199550933469132
 50
194.185504416118107
 51
211.8604389206456915
  0
ARC
  5
DBE5
  8
0
 10
3513.8875407238128901
 20
319.5930291632770945
 30
0.0
 40
0.0028709982637187
 50
211.8604389207119993
 51
259.8496091690507797
  0
ARC
  5
DBE6
  8
0
 10
3513.8872767088869296
 20
319.5915545051286131
 30
0.0
 40
0.0013728926144516
 50
259.8496091690507797
 51
335.7385145468193741
  0
ARC
  5
DBE7
  8
0
 10
3513.8231026203238798
 20
319.6204783002406202
 30
0.0
 40
0.0717639401036985
 50
335.7385145468223868
 51
2.5133832518749948
  0
ARC
  5
DBE8
  8
0
 10
3513.7152312433490806
 20
319.6374727248988279
 30
0.0
 40
0.1800994142672628
 50
355.5903234212323127
 51
14.0012471816022508
  0
ARC
  5
DBE9
  8
0
 10
3513.9756530507597745
 20
317.9289221870300821
 30
0.0
 40
0.006799723292611
 50
20.4940471357405691
 51
50.8301423435438195
  0
ARC
  5
DBEA
  8
0
 10
3513.9790704447441385
 20
317.9328771008676995
 30
0.0
 40
0.0015823318707308
 50
56.3213410955111797
 51
127.8906501987055009
  0
ARC
  5
DBEB
  8
0
 10
3513.985978412834811
 20
317.9263003265468797
 30
0.0
 40
0.0111053855495545
 50
135.1978823382362975
 51
166.1856103059145937
  0
ARC
  5
DBEC
  8
0
 10
3514.1263581877610704
 20
317.8917823613214182
 30
0.0
 40
0.1556666913393881
 50
166.1856103059145937
 51
181.5913374643608051
  0
ARC
  5
DBED
  8
0
 10
3514.1413910391611353
 20
317.8842605244331025
 30
0.0
 40
0.1706694874027875
 50
178.9260303466762991
 51
192.4682868953150034
  0
ARC
  5
DBEE
  8
0
 10
3513.9940932898580286
 20
317.8523033554868107
 30
0.0
 40
0.0199550933469132
 50
194.185504416118107
 51
211.8604389206456915
  0
ARC
  5
DBEF
  8
0
 10
3513.9795831467840799
 20
317.8432854814146822
 30
0.0
 40
0.0028709982637187
 50
211.8604389207119993
 51
259.8496091690507797
  0
ARC
  5
DBF0
  8
0
 10
3513.9793191318581194
 20
317.841810823266087
 30
0.0
 40
0.0013728926144516
 50
259.8496091690507797
 51
335.7385145468193741
  0
ARC
  5
DBF1
  8
0
 10
3513.9151450432941601
 20
317.8707346183780942
 30
0.0
 40
0.0717639401036985
 50
335.7385145468223868
 51
2.5133832518749948
  0
ARC
  5
DBF2
  8
0
 10
3513.8072736663198157
 20
317.8877290430361882
 30
0.0
 40
0.1800994142672628
 50
355.5903234212323127
 51
14.0012471816022508
  0
ARC
  5
DBF3
  8
0
 10
3513.7590180425841027
 20
317.8479947652082842
 30
0.0
 40
0.0033471999696935
 50
224.6531450011077027
 51
321.2459909093288957
  0
ARC
  5
DBF4
  8
0
 10
3513.6859423791329391
 20
317.8822156706078204
 30
0.0
 40
0.0839477653648017
 50
334.3670393365790119
 51
4.7578326785741796
  0
ARC
  5
DBF5
  8
0
 10
3513.6479344681788461
 20
317.8898312094160019
 30
0.0
 40
0.1216681567049744
 50
359.6927062750102095
 51
19.6521825420613716
  0
ARC
  5
DBF6
  8
0
 10
3513.7485165005377894
 20
317.9263245140397203
 30
0.0
 40
0.0146817988485953
 50
17.5406781528906492
 51
53.4549747120248
  0
ARC
  5
DBF7
  8
0
 10
3513.7554555089300266
 20
317.9356866501274226
 30
0.0
 40
0.0030284976174705
 50
53.4549747120880028
 51
152.6376434528336858
  0
ARC
  5
DBF8
  8
0
 10
3513.8915069580880299
 20
317.8943641501531943
 30
0.0
 40
0.145167557952593
 50
162.8878875342244896
 51
196.5388595777309888
  0
ARC
  5
DBF9
  8
0
 10
3513.769332045810188
 20
317.8579505688181257
 30
0.0
 40
0.0176821725663598
 50
196.123946161395196
 51
224.1135820957051124
  0
ARC
  5
DBFA
  8
0
 10
3513.7590180425841027
 20
314.421707890837979
 30
0.0
 40
0.0033471999696935
 50
224.6531450011077027
 51
321.2459909093288957
  0
ARC
  5
DBFB
  8
0
 10
3513.6859423791329391
 20
314.4559287962374015
 30
0.0
 40
0.0839477653648017
 50
334.3670393365790119
 51
4.7578326785741796
  0
ARC
  5
DBFC
  8
0
 10
3513.6479344681788461
 20
314.4635443350456967
 30
0.0
 40
0.1216681567049744
 50
359.6927062750102095
 51
19.6521825420613716
  0
ARC
  5
DBFD
  8
0
 10
3513.7485165005377894
 20
314.5000376396693014
 30
0.0
 40
0.0146817988485953
 50
17.5406781528906492
 51
53.4549747120248
  0
ARC
  5
DBFE
  8
0
 10
3513.7554555089300266
 20
314.5093997757570037
 30
0.0
 40
0.0030284976174705
 50
53.4549747120880028
 51
152.6376434528336858
  0
ARC
  5
DBFF
  8
0
 10
3513.8915069580880299
 20
314.4680772757827754
 30
0.0
 40
0.145167557952593
 50
162.8878875342244896
 51
196.5388595777309888
  0
ARC
  5
DC00
  8
0
 10
3513.769332045810188
 20
314.4316636944477068
 30
0.0
 40
0.0176821725663598
 50
196.123946161395196
 51
224.1135820957051124
  0
ARC
  5
DC01
  8
0
 10
3513.7590180425841027
 20
310.9954210164651727
 30
0.0
 40
0.0033471999696935
 50
224.6531450011077027
 51
321.2459909093288957
  0
ARC
  5
DC02
  8
0
 10
3513.6859423791329391
 20
311.0296419218645951
 30
0.0
 40
0.0839477653648017
 50
334.3670393365790119
 51
4.7578326785741796
  0
ARC
  5
DC03
  8
0
 10
3513.6479344681788461
 20
311.0372574606728904
 30
0.0
 40
0.1216681567049744
 50
359.6927062750102095
 51
19.6521825420613716
  0
ARC
  5
DC04
  8
0
 10
3513.7485165005377894
 20
311.073750765296495
 30
0.0
 40
0.0146817988485953
 50
17.5406781528906492
 51
53.4549747120248
  0
ARC
  5
DC05
  8
0
 10
3513.7554555089300266
 20
311.0831129013841974
 30
0.0
 40
0.0030284976174705
 50
53.4549747120880028
 51
152.6376434528336858
  0
ARC
  5
DC06
  8
0
 10
3513.8915069580880299
 20
311.0417904014100259
 30
0.0
 40
0.145167557952593
 50
162.8878875342244896
 51
196.5388595777309888
  0
ARC
  5
DC07
  8
0
 10
3513.769332045810188
 20
311.0053768200750142
 30
0.0
 40
0.0176821725663598
 50
196.123946161395196
 51
224.1135820957051124
  0
ARC
  5
DC08
  8
0
 10
3513.7590180425841027
 20
307.569134142087421
 30
0.0
 40
0.0033471999696935
 50
224.6531450011077027
 51
321.2459909093288957
  0
ARC
  5
DC09
  8
0
 10
3513.6859423791329391
 20
307.6033550474867866
 30
0.0
 40
0.0839477653648017
 50
334.3670393365790119
 51
4.7578326785741796
  0
ARC
  5
DC0A
  8
0
 10
3513.6479344681788461
 20
307.6109705862950818
 30
0.0
 40
0.1216681567049744
 50
359.6927062750102095
 51
19.6521825420613716
  0
ARC
  5
DC0B
  8
0
 10
3513.7485165005377894
 20
307.6474638909186865
 30
0.0
 40
0.0146817988485953
 50
17.5406781528906492
 51
53.4549747120248
  0
ARC
  5
DC0C
  8
0
 10
3513.7554555089300266
 20
307.6568260270065025
 30
0.0
 40
0.0030284976174705
 50
53.4549747120880028
 51
152.6376434528336858
  0
ARC
  5
DC0D
  8
0
 10
3513.8915069580880299
 20
307.6155035270322173
 30
0.0
 40
0.145167557952593
 50
162.8878875342244896
 51
196.5388595777309888
  0
ARC
  5
DC0E
  8
0
 10
3513.769332045810188
 20
307.5790899456970919
 30
0.0
 40
0.0176821725663598
 50
196.123946161395196
 51
224.1135820957051124
  0
ARC
  5
DC0F
  8
0
 10
3513.7590180425841027
 20
304.142847267708305
 30
0.0
 40
0.0033471999696935
 50
224.6531450011077027
 51
321.2459909093288957
  0
ARC
  5
DC10
  8
0
 10
3513.6859423791329391
 20
304.1770681731077843
 30
0.0
 40
0.0839477653648017
 50
334.3670393365790119
 51
4.7578326785741796
  0
ARC
  5
DC11
  8
0
 10
3513.6479344681788461
 20
304.1846837119160227
 30
0.0
 40
0.1216681567049744
 50
359.6927062750102095
 51
19.6521825420613716
  0
ARC
  5
DC12
  8
0
 10
3513.7485165005377894
 20
304.2211770165396274
 30
0.0
 40
0.0146817988485953
 50
17.5406781528906492
 51
53.4549747120248
  0
ARC
  5
DC13
  8
0
 10
3513.7554555089300266
 20
304.2305391526273866
 30
0.0
 40
0.0030284976174705
 50
53.4549747120880028
 51
152.6376434528336858
  0
ARC
  5
DC14
  8
0
 10
3513.8915069580880299
 20
304.1892166526531014
 30
0.0
 40
0.145167557952593
 50
162.8878875342244896
 51
196.5388595777309888
  0
ARC
  5
DC15
  8
0
 10
3513.769332045810188
 20
304.1528030713180897
 30
0.0
 40
0.0176821725663598
 50
196.123946161395196
 51
224.1135820957051124
  0
ARC
  5
DC16
  8
0
 10
3513.7590180425841027
 20
300.716560614626303
 30
0.0
 40
0.0033471999696935
 50
224.6531450011077027
 51
321.2459909093288957
  0
ARC
  5
DC17
  8
0
 10
3513.6859423791329391
 20
300.7507815200257255
 30
0.0
 40
0.0839477653648017
 50
334.3670393365790119
 51
4.7578326785741796
  0
ARC
  5
DC18
  8
0
 10
3513.6479344681788461
 20
300.7583970588340208
 30
0.0
 40
0.1216681567049744
 50
359.6927062750102095
 51
19.6521825420613716
  0
ARC
  5
DC19
  8
0
 10
3513.7485165005377894
 20
300.7948903634576254
 30
0.0
 40
0.0146817988485953
 50
17.5406781528906492
 51
53.4549747120248
  0
ARC
  5
DC1A
  8
0
 10
3513.7554555089300266
 20
300.8042524995453846
 30
0.0
 40
0.0030284976174705
 50
53.4549747120880028
 51
152.6376434528336858
  0
ARC
  5
DC1B
  8
0
 10
3513.8915069580880299
 20
300.7629299995710994
 30
0.0
 40
0.145167557952593
 50
162.8878875342244896
 51
196.5388595777309888
  0
ARC
  5
DC1C
  8
0
 10
3513.769332045810188
 20
300.7265164182360877
 30
0.0
 40
0.0176821725663598
 50
196.123946161395196
 51
224.1135820957051124
  0
ARC
  5
DC1D
  8
0
 10
3513.8835338256949399
 20
316.2394701776217971
 30
0.0
 40
0.006799723292611
 50
20.4940471357405691
 51
50.8301423435438195
  0
ARC
  5
DC1E
  8
0
 10
3513.8869512196779397
 20
316.2434250914595282
 30
0.0
 40
0.0015823318707308
 50
56.3213410955111797
 51
127.8906501987055009
  0
ARC
  5
DC1F
  8
0
 10
3513.8938591877690669
 20
316.2368483171387084
 30
0.0
 40
0.0111053855495545
 50
135.1978823382362975
 51
166.1856103059145937
  0
ARC
  5
DC20
  8
0
 10
3514.0342389626948716
 20
316.2023303519130764
 30
0.0
 40
0.1556666913393881
 50
166.1856103059145937
 51
181.5913374643608051
  0
ARC
  5
DC21
  8
0
 10
3514.0492718140958459
 20
316.1948085150248744
 30
0.0
 40
0.1706694874027875
 50
178.9260303466762991
 51
192.4682868953150034
  0
ARC
  5
DC22
  8
0
 10
3513.9019740647918297
 20
316.1628513460785257
 30
0.0
 40
0.0199550933469132
 50
194.185504416118107
 51
211.8604389206456915
  0
ARC
  5
DC23
  8
0
 10
3513.8874639217187905
 20
316.1538334720065109
 30
0.0
 40
0.0028709982637187
 50
211.8604389207119993
 51
259.8496091690507797
  0
ARC
  5
DC24
  8
0
 10
3513.8871999067919205
 20
316.1523588138579157
 30
0.0
 40
0.0013728926144516
 50
259.8496091690507797
 51
335.7385145468193741
  0
ARC
  5
DC25
  8
0
 10
3513.8230258182288708
 20
316.1812826089699229
 30
0.0
 40
0.0717639401036985
 50
335.7385145468223868
 51
2.5133832518749948
  0
ARC
  5
DC26
  8
0
 10
3513.7151544412540716
 20
316.1982770336280169
 30
0.0
 40
0.1800994142672628
 50
355.5903234212323127
 51
14.0012471816022508
  0
ARC
  5
DC27
  8
0
 10
3513.9724771447899911
 20
314.5069582558925845
 30
0.0
 40
0.006799723292611
 50
20.4940471357405691
 51
50.8301423435438195
  0
ARC
  5
DC28
  8
0
 10
3513.9758945387739004
 20
314.5109131697302018
 30
0.0
 40
0.0015823318707308
 50
56.3213410955111797
 51
127.8906501987055009
  0
ARC
  5
DC29
  8
0
 10
3513.9828025068641182
 20
314.504336395409382
 30
0.0
 40
0.0111053855495545
 50
135.1978823382362975
 51
166.1856103059145937
  0
ARC
  5
DC2A
  8
0
 10
3514.1231822817899229
 20
314.4698184301839206
 30
0.0
 40
0.1556666913393881
 50
166.1856103059145937
 51
181.5913374643608051
  0
ARC
  5
DC2B
  8
0
 10
3514.1382151331899877
 20
314.4622965932957186
 30
0.0
 40
0.1706694874027875
 50
178.9260303466762991
 51
192.4682868953150034
  0
ARC
  5
DC2C
  8
0
 10
3513.990917383886881
 20
314.430339424349313
 30
0.0
 40
0.0199550933469132
 50
194.185504416118107
 51
211.8604389206456915
  0
ARC
  5
DC2D
  8
0
 10
3513.9764072408129323
 20
314.4213215502771845
 30
0.0
 40
0.0028709982637187
 50
211.8604389207119993
 51
259.8496091690507797
  0
ARC
  5
DC2E
  8
0
 10
3513.9761432258878813
 20
314.4198468921285894
 30
0.0
 40
0.0013728926144516
 50
259.8496091690507797
 51
335.7385145468193741
  0
ARC
  5
DC2F
  8
0
 10
3513.911969137323922
 20
314.4487706872407102
 30
0.0
 40
0.0717639401036985
 50
335.7385145468223868
 51
2.5133832518749948
  0
ARC
  5
DC30
  8
0
 10
3513.8040977603491228
 20
314.4657651118988042
 30
0.0
 40
0.1800994142672628
 50
355.5903234212323127
 51
14.0012471816022508
  0
ARC
  5
DC31
  8
0
 10
3513.8835855940910733
 20
312.800270503492527
 30
0.0
 40
0.006799723292611
 50
20.4940471357405691
 51
50.8301423435438195
  0
ARC
  5
DC32
  8
0
 10
3513.8870029880749826
 20
312.8042254173300876
 30
0.0
 40
0.0015823318707308
 50
56.3213410955111797
 51
127.8906501987055009
  0
ARC
  5
DC33
  8
0
 10
3513.8939109561652003
 20
312.7976486430093246
 30
0.0
 40
0.0111053855495545
 50
135.1978823382362975
 51
166.1856103059145937
  0
ARC
  5
DC34
  8
0
 10
3514.0342907310919145
 20
312.7631306777836926
 30
0.0
 40
0.1556666913393881
 50
166.1856103059145937
 51
181.5913374643608051
  0
ARC
  5
DC35
  8
0
 10
3514.0493235824919793
 20
312.7556088408954906
 30
0.0
 40
0.1706694874027875
 50
178.9260303466762991
 51
192.4682868953150034
  0
ARC
  5
DC36
  8
0
 10
3513.9020258331888726
 20
312.7236516719490851
 30
0.0
 40
0.0199550933469132
 50
194.185504416118107
 51
211.8604389206456915
  0
ARC
  5
DC37
  8
0
 10
3513.8875156901149239
 20
312.7146337978770134
 30
0.0
 40
0.0028709982637187
 50
211.8604389207119993
 51
259.8496091690507797
  0
ARC
  5
DC38
  8
0
 10
3513.8872516751889634
 20
312.7131591397284751
 30
0.0
 40
0.0013728926144516
 50
259.8496091690507797
 51
335.7385145468193741
  0
ARC
  5
DC39
  8
0
 10
3513.8230775866250042
 20
312.7420829348404823
 30
0.0
 40
0.0717639401036985
 50
335.7385145468223868
 51
2.5133832518749948
  0
ARC
  5
DC3A
  8
0
 10
3513.7152062096511145
 20
312.7590773594985762
 30
0.0
 40
0.1800994142672628
 50
355.5903234212323127
 51
14.0012471816022508
  0
ARC
  5
DC3B
  8
0
 10
3513.9724768955002219
 20
311.0806713815504168
 30
0.0
 40
0.006799723292611
 50
20.4940471357405691
 51
50.8301423435438195
  0
ARC
  5
DC3C
  8
0
 10
3513.9758942894841311
 20
311.0846262953879773
 30
0.0
 40
0.0015823318707308
 50
56.3213410955111797
 51
127.8906501987055009
  0
ARC
  5
DC3D
  8
0
 10
3513.9828022575738942
 20
311.0780495210672143
 30
0.0
 40
0.0111053855495545
 50
135.1978823382362975
 51
166.1856103059145937
  0
ARC
  5
DC3E
  8
0
 10
3514.1231820325010631
 20
311.043531555841696
 30
0.0
 40
0.1556666913393881
 50
166.1856103059145937
 51
181.5913374643608051
  0
ARC
  5
DC3F
  8
0
 10
3514.1382148839020374
 20
311.036009718953494
 30
0.0
 40
0.1706694874027875
 50
178.9260303466762991
 51
192.4682868953150034
  0
ARC
  5
DC40
  8
0
 10
3513.9909171345980212
 20
311.0040525500070885
 30
0.0
 40
0.0199550933469132
 50
194.185504416118107
 51
211.8604389206456915
  0
ARC
  5
DC41
  8
0
 10
3513.9764069915240725
 20
310.9950346759350168
 30
0.0
 40
0.0028709982637187
 50
211.8604389207119993
 51
259.8496091690507797
  0
ARC
  5
DC42
  8
0
 10
3513.976142976598112
 20
310.9935600177864217
 30
0.0
 40
0.0013728926144516
 50
259.8496091690507797
 51
335.7385145468193741
  0
ARC
  5
DC43
  8
0
 10
3513.9119688880341528
 20
311.022483812898372
 30
0.0
 40
0.0717639401036985
 50
335.7385145468223868
 51
2.5133832518749948
  0
ARC
  5
DC44
  8
0
 10
3513.8040975110588988
 20
311.0394782375565228
 30
0.0
 40
0.1800994142672628
 50
355.5903234212323127
 51
14.0012471816022508
  0
ARC
  5
DC45
  8
0
 10
3513.8836106277890394
 20
309.3610724830925847
 30
0.0
 40
0.006799723292611
 50
20.4940471357405691
 51
50.8301423435438195
  0
ARC
  5
DC46
  8
0
 10
3513.8870280217738582
 20
309.365027396930202
 30
0.0
 40
0.0015823318707308
 50
56.3213410955111797
 51
127.8906501987055009
  0
ARC
  5
DC47
  8
0
 10
3513.893935989864076
 20
309.3584506226093822
 30
0.0
 40
0.0111053855495545
 50
135.1978823382362975
 51
166.1856103059145937
  0
ARC
  5
DC48
  8
0
 10
3514.0343157647898806
 20
309.3239326573839207
 30
0.0
 40
0.1556666913393881
 50
166.1856103059145937
 51
181.5913374643608051
  0
ARC
  5
DC49
  8
0
 10
3514.049348616190855
 20
309.3164108204957188
 30
0.0
 40
0.1706694874027875
 50
178.9260303466762991
 51
192.4682868953150034
  0
ARC
  5
DC4A
  8
0
 10
3513.9020508668868388
 20
309.2844536515493132
 30
0.0
 40
0.0199550933469132
 50
194.185504416118107
 51
211.8604389206456915
  0
ARC
  5
DC4B
  8
0
 10
3513.8875407238128901
 20
309.2754357774771847
 30
0.0
 40
0.0028709982637187
 50
211.8604389207119993
 51
259.8496091690507797
  0
ARC
  5
DC4C
  8
0
 10
3513.8872767088869296
 20
309.2739611193285896
 30
0.0
 40
0.0013728926144516
 50
259.8496091690507797
 51
335.7385145468193741
  0
ARC
  5
DC4D
  8
0
 10
3513.8231026203238798
 20
309.3028849144405967
 30
0.0
 40
0.0717639401036985
 50
335.7385145468223868
 51
2.5133832518749948
  0
ARC
  5
DC4E
  8
0
 10
3513.7152312433490806
 20
309.3198793390988044
 30
0.0
 40
0.1800994142672628
 50
355.5903234212323127
 51
14.0012471816022508
  0
ARC
  5
DC4F
  8
0
 10
3513.9724771447899911
 20
307.6543845070925727
 30
0.0
 40
0.006799723292611
 50
20.4940471357405691
 51
50.8301423435438195
  0
ARC
  5
DC50
  8
0
 10
3513.9758945387739004
 20
307.65833942093019
 30
0.0
 40
0.0015823318707308
 50
56.3213410955111797
 51
127.8906501987055009
  0
ARC
  5
DC51
  8
0
 10
3513.9828025068641182
 20
307.6517626466094271
 30
0.0
 40
0.0111053855495545
 50
135.1978823382362975
 51
166.1856103059145937
  0
ARC
  5
DC52
  8
0
 10
3514.1231822817899229
 20
307.6172446813837951
 30
0.0
 40
0.1556666913393881
 50
166.1856103059145937
 51
181.5913374643608051
  0
ARC
  5
DC53
  8
0
 10
3514.1382151331899877
 20
307.6097228444957068
 30
0.0
 40
0.1706694874027875
 50
178.9260303466762991
 51
192.4682868953150034
  0
ARC
  5
DC54
  8
0
 10
3513.990917383886881
 20
307.5777656755493012
 30
0.0
 40
0.0199550933469132
 50
194.185504416118107
 51
211.8604389206456915
  0
ARC
  5
DC55
  8
0
 10
3513.9764072408129323
 20
307.5687478014771727
 30
0.0
 40
0.0028709982637187
 50
211.8604389207119993
 51
259.8496091690507797
  0
ARC
  5
DC56
  8
0
 10
3513.9761432258878813
 20
307.5672731433285776
 30
0.0
 40
0.0013728926144516
 50
259.8496091690507797
 51
335.7385145468193741
  0
ARC
  5
DC57
  8
0
 10
3513.911969137323922
 20
307.5961969384405847
 30
0.0
 40
0.0717639401036985
 50
335.7385145468223868
 51
2.5133832518749948
  0
ARC
  5
DC58
  8
0
 10
3513.8040977603491228
 20
307.6131913630986787
 30
0.0
 40
0.1800994142672628
 50
355.5903234212323127
 51
14.0012471816022508
  0
ARC
  5
DC59
  8
0
 10
3513.8835999696379986
 20
305.9218747287806082
 30
0.0
 40
0.006799723292611
 50
20.4940471357405691
 51
50.8301423435438195
  0
ARC
  5
DC5A
  8
0
 10
3513.8870173636219079
 20
305.9258296426182255
 30
0.0
 40
0.0015823318707308
 50
56.3213410955111797
 51
127.8906501987055009
  0
ARC
  5
DC5B
  8
0
 10
3513.8939253317121256
 20
305.9192528682974057
 30
0.0
 40
0.0111053855495545
 50
135.1978823382362975
 51
166.1856103059145937
  0
ARC
  5
DC5C
  8
0
 10
3514.0343051066388398
 20
305.8847349030717737
 30
0.0
 40
0.1556666913393881
 50
166.1856103059145937
 51
181.5913374643608051
  0
ARC
  5
DC5D
  8
0
 10
3514.0493379580389046
 20
305.8772130661836854
 30
0.0
 40
0.1706694874027875
 50
178.9260303466762991
 51
192.4682868953150034
  0
ARC
  5
DC5E
  8
0
 10
3513.9020402087357979
 20
305.8452558972372799
 30
0.0
 40
0.0199550933469132
 50
194.185504416118107
 51
211.8604389206456915
  0
ARC
  5
DC5F
  8
0
 10
3513.8875300656618492
 20
305.8362380231652082
 30
0.0
 40
0.0028709982637187
 50
211.8604389207119993
 51
259.8496091690507797
  0
ARC
  5
DC60
  8
0
 10
3513.8872660507358887
 20
305.8347633650166131
 30
0.0
 40
0.0013728926144516
 50
259.8496091690507797
 51
335.7385145468193741
  0
ARC
  5
DC61
  8
0
 10
3513.8230919621719295
 20
305.8636871601286202
 30
0.0
 40
0.0717639401036985
 50
335.7385145468223868
 51
2.5133832518749948
  0
ARC
  5
DC62
  8
0
 10
3513.7152205851971303
 20
305.8806815847868279
 30
0.0
 40
0.1800994142672628
 50
355.5903234212323127
 51
14.0012471816022508
  0
ARC
  5
DC63
  8
0
 10
3513.9724770201960382
 20
304.2280976327070903
 30
0.0
 40
0.006799723292611
 50
20.4940471357405691
 51
50.8301423435438195
  0
ARC
  5
DC64
  8
0
 10
3513.9758944141799475
 20
304.232052546544594
 30
0.0
 40
0.0015823318707308
 50
56.3213410955111797
 51
127.8906501987055009
  0
ARC
  5
DC65
  8
0
 10
3513.9828023822710747
 20
304.2254757722237741
 30
0.0
 40
0.0111053855495545
 50
135.1978823382362975
 51
166.1856103059145937
  0
ARC
  5
DC66
  8
0
 10
3514.1231821571968794
 20
304.1909578069983127
 30
0.0
 40
0.1556666913393881
 50
166.1856103059145937
 51
181.5913374643608051
  0
ARC
  5
DC67
  8
0
 10
3514.1382150085978537
 20
304.1834359701101107
 30
0.0
 40
0.1706694874027875
 50
178.9260303466762991
 51
192.4682868953150034
  0
ARC
  5
DC68
  8
0
 10
3513.9909172592938376
 20
304.1514788011637052
 30
0.0
 40
0.0199550933469132
 50
194.185504416118107
 51
211.8604389206456915
  0
ARC
  5
DC69
  8
0
 10
3513.9764071162198888
 20
304.1424609270915767
 30
0.0
 40
0.0028709982637187
 50
211.8604389207119993
 51
259.8496091690507797
  0
ARC
  5
DC6A
  8
0
 10
3513.9761431012939283
 20
304.1409862689429815
 30
0.0
 40
0.0013728926144516
 50
259.8496091690507797
 51
335.7385145468193741
  0
ARC
  5
DC6B
  8
0
 10
3513.9119690127299691
 20
304.1699100640549887
 30
0.0
 40
0.0717639401036985
 50
335.7385145468223868
 51
2.5133832518749948
  0
ARC
  5
DC6C
  8
0
 10
3513.8040976357560794
 20
304.1869044887131963
 30
0.0
 40
0.1800994142672628
 50
355.5903234212323127
 51
14.0012471816022508
  0
ARC
  5
DC6D
  8
0
 10
3513.8836023472949819
 20
302.4826769172813101
 30
0.0
 40
0.006799723292611
 50
20.4940471357405691
 51
50.8301423435438195
  0
ARC
  5
DC6E
  8
0
 10
3513.8870197412788912
 20
302.4866318311189275
 30
0.0
 40
0.0015823318707308
 50
56.3213410955111797
 51
127.8906501987055009
  0
ARC
  5
DC6F
  8
0
 10
3513.8939277093691089
 20
302.480055056797994
 30
0.0
 40
0.0111053855495545
 50
135.1978823382362975
 51
166.1856103059145937
  0
ARC
  5
DC70
  8
0
 10
3514.0343074842949136
 20
302.4455370915724757
 30
0.0
 40
0.1556666913393881
 50
166.1856103059145937
 51
181.5913374643608051
  0
ARC
  5
DC71
  8
0
 10
3514.0493403356958879
 20
302.4380152546842737
 30
0.0
 40
0.1706694874027875
 50
178.9260303466762991
 51
192.4682868953150034
  0
ARC
  5
DC72
  8
0
 10
3513.9020425863927812
 20
302.406058085737925
 30
0.0
 40
0.0199550933469132
 50
194.185504416118107
 51
211.8604389206456915
  0
ARC
  5
DC73
  8
0
 10
3513.8875324433188325
 20
302.3970402116657965
 30
0.0
 40
0.0028709982637187
 50
211.8604389207119993
 51
259.8496091690507797
  0
ARC
  5
DC74
  8
0
 10
3513.887268428392872
 20
302.395565553517315
 30
0.0
 40
0.0013728926144516
 50
259.8496091690507797
 51
335.7385145468193741
  0
ARC
  5
DC75
  8
0
 10
3513.8230943398289128
 20
302.4244893486293222
 30
0.0
 40
0.0717639401036985
 50
335.7385145468223868
 51
2.5133832518749948
  0
ARC
  5
DC76
  8
0
 10
3513.7152229628550231
 20
302.4414837732873025
 30
0.0
 40
0.1800994142672628
 50
355.5903234212323127
 51
14.0012471816022508
  0
ARC
  5
DC77
  8
0
 10
3513.9724771447899911
 20
300.8018107583926053
 30
0.0
 40
0.006799723292611
 50
20.4940471357405691
 51
50.8301423435438195
  0
ARC
  5
DC78
  8
0
 10
3513.9758945387739004
 20
300.8057656722302227
 30
0.0
 40
0.0015823318707308
 50
56.3213410955111797
 51
127.8906501987055009
  0
ARC
  5
DC79
  8
0
 10
3513.9828025068641182
 20
300.7991888979094028
 30
0.0
 40
0.0111053855495545
 50
135.1978823382362975
 51
166.1856103059145937
  0
ARC
  5
DC7A
  8
0
 10
3514.1231822817899229
 20
300.7646709326838845
 30
0.0
 40
0.1556666913393881
 50
166.1856103059145937
 51
181.5913374643608051
  0
ARC
  5
DC7B
  8
0
 10
3514.1382151331899877
 20
300.7571490957956257
 30
0.0
 40
0.1706694874027875
 50
178.9260303466762991
 51
192.4682868953150034
  0
ARC
  5
DC7C
  8
0
 10
3513.990917383886881
 20
300.725191926849277
 30
0.0
 40
0.0199550933469132
 50
194.185504416118107
 51
211.8604389206456915
  0
ARC
  5
DC7D
  8
0
 10
3513.9764072408129323
 20
300.7161740527770917
 30
0.0
 40
0.0028709982637187
 50
211.8604389207119993
 51
259.8496091690507797
  0
ARC
  5
DC7E
  8
0
 10
3513.9761432258878813
 20
300.7146993946286102
 30
0.0
 40
0.0013728926144516
 50
259.8496091690507797
 51
335.7385145468193741
  0
ARC
  5
DC7F
  8
0
 10
3513.911969137323922
 20
300.7436231897406174
 30
0.0
 40
0.0717639401036985
 50
335.7385145468223868
 51
2.5133832518749948
  0
ARC
  5
DC80
  8
0
 10
3513.8040977603491228
 20
300.7606176143987113
 30
0.0
 40
0.1800994142672628
 50
355.5903234212323127
 51
14.0012471816022508
  0
ARC
  5
DC81
  8
0
 10
3513.8836038576218925
 20
299.0434791138000037
 30
0.0
 40
0.006799723292611
 50
20.4940471357405691
 51
50.8301423435438195
  0
ARC
  5
DC82
  8
0
 10
3513.8870212516058018
 20
299.0474340276376779
 30
0.0
 40
0.0015823318707308
 50
56.3213410955111797
 51
127.8906501987055009
  0
ARC
  5
DC83
  8
0
 10
3513.8939292196960196
 20
299.0408572533169149
 30
0.0
 40
0.0111053855495545
 50
135.1978823382362975
 51
166.1856103059145937
  0
ARC
  5
DC84
  8
0
 10
3514.0343089946218242
 20
299.0063392880912829
 30
0.0
 40
0.1556666913393881
 50
166.1856103059145937
 51
181.5913374643608051
  0
ARC
  5
DC85
  8
0
 10
3514.0493418460227986
 20
298.998817451203081
 30
0.0
 40
0.1706694874027875
 50
178.9260303466762991
 51
192.4682868953150034
  0
ARC
  5
DC86
  8
0
 10
3513.9020440967201466
 20
298.9668602822567891
 30
0.0
 40
0.0199550933469132
 50
194.185504416118107
 51
211.8604389206456915
  0
ARC
  5
DC87
  8
0
 10
3513.8875339536461979
 20
298.9578424081847174
 30
0.0
 40
0.0028709982637187
 50
211.8604389207119993
 51
259.8496091690507797
  0
ARC
  5
DC88
  8
0
 10
3513.8872699387188732
 20
298.9563677500361223
 30
0.0
 40
0.0013728926144516
 50
259.8496091690507797
 51
335.7385145468193741
  0
ARC
  5
DC89
  8
0
 10
3513.8230958501558234
 20
298.9852915451480726
 30
0.0
 40
0.0717639401036985
 50
335.7385145468223868
 51
2.5133832518749948
  0
ARC
  5
DC8A
  8
0
 10
3513.7152244731810242
 20
299.0022859698062234
 30
0.0
 40
0.1800994142672628
 50
355.5903234212323127
 51
14.0012471816022508
  0
ARC
  5
DC8B
  8
0
 10
3514.1409982307591235
 20
297.5082837128414894
 30
0.0
 40
0.006799723292611
 50
45.6474745474104111
 51
75.9835697552080376
  0
ARC
  5
DC8C
  8
0
 10
3514.1424105519167824
 20
297.5133161351258195
 30
0.0
 40
0.0015823318707308
 50
81.4747685071744172
 51
153.0440776103768883
  0
ARC
  5
DC8D
  8
0
 10
3514.1514588733280107
 20
297.5102992056832818
 30
0.0
 40
0.0111053855495545
 50
160.3513097499065907
 51
191.3390377175747119
  0
ARC
  5
DC8E
  8
0
 10
3514.293198476240832
 20
297.5387220151430938
 30
0.0
 40
0.1556666913393881
 50
191.3390377175747119
 51
206.7447648760202128
  0
ARC
  5
DC8F
  8
0
 10
3514.310002914260167
 20
297.5383030709214722
 30
0.0
 40
0.1706694874027875
 50
204.0794577583432101
 51
217.621714306969892
  0
ARC
  5
DC90
  8
0
 10
3514.1902561835718188
 20
297.4467683338733082
 30
0.0
 40
0.0199550933469132
 50
219.3389318277779125
 51
237.0138663322952937
  0
ARC
  5
DC91
  8
0
 10
3514.1809549863319262
 20
297.432438154715328
 30
0.0
 40
0.0028709982637187
 50
237.0138663323820936
 51
285.0030365806999271
  0
ARC
  5
DC92
  8
0
 10
3514.181342801296978
 20
297.4309911163297215
 30
0.0
 40
0.0013728926144516
 50
285.0030365806999271
 51
0.8919419584811111
  0
ARC
  5
DC93
  8
0
 10
3514.1109602829737923
 20
297.4298953603520204
 30
0.0
 40
0.0717639401036985
 50
0.8919419584811111
 51
27.6668106635397386
  0
ARC
  5
DC94
  8
0
 10
3514.0060946690941819
 20
297.3994282064716117
 30
0.0
 40
0.1800994142672628
 50
20.7437508328942215
 51
39.1546745932710465
  0
ARC
  5
DC95
  8
0
 10
3515.2130953713208328
 20
296.4067740838709142
 30
0.0
 40
0.006799723292611
 50
271.8808368302998133
 51
302.2169320380921818
  0
ARC
  5
DC96
  8
0
 10
3515.2157526664091165
 20
296.4022731164279207
 30
0.0
 40
0.0015823318707308
 50
307.7081307900629099
 51
19.2774398932747317
  0
ARC
  5
DC97
  8
0
 10
3515.2073150210849235
 20
296.3978256311826271
 30
0.0
 40
0.0111053855495545
 50
26.584672032801631
 51
57.5724000004728609
  0
ARC
  5
DC98
  8
0
 10
3515.1297964126611078
 20
296.2758058111547257
 30
0.0
 40
0.1556666913393881
 50
57.5724000004746088
 51
72.978127158912784
  0
ARC
  5
DC99
  8
0
 10
3515.1178698538610661
 20
296.2639600588955773
 30
0.0
 40
0.1706694874027875
 50
70.3128200412267148
 51
83.8550765898874033
  0
ARC
  5
DC9A
  8
0
 10
3515.1345983843330032
 20
296.4137533960808923
 30
0.0
 40
0.0199550933469132
 50
85.5722941106781008
 51
103.2472286152049037
  0
ARC
  5
DC9B
  8
0
 10
3515.1306835074219634
 20
296.4303828892656725
 30
0.0
 40
0.0028709982637187
 50
103.2472286152846976
 51
151.2363988635954115
  0
ARC
  5
DC9C
  8
0
 10
3515.1293702492062039
 20
296.4311037730253133
 30
0.0
 40
0.0013728926144516
 50
151.2363988635954115
 51
227.125304241384498
  0
ARC
  5
DC9D
  8
0
 10
3515.1772641264988124
 20
296.4826893919952226
 30
0.0
 40
0.0717639401036985
 50
227.1253042413866865
 51
253.9001729464428081
  0
ARC
  5
DC9E
  8
0
 10
3515.227799806233179
 20
296.5794942963839844
 30
0.0
 40
0.1800994142672628
 50
246.9771131157934008
 51
265.3880368761551267
  0
ARC
  5
DC9F
  8
0
 10
3513.924815314604075
 20
297.4070258933676882
 30
0.0
 40
0.006799723292611
 50
45.6474745474104111
 51
75.9835697552080376
  0
ARC
  5
DCA0
  8
0
 10
3513.9262276357640076
 20
297.4120583156520183
 30
0.0
 40
0.0015823318707308
 50
81.4747685071744172
 51
153.0440776103768883
  0
ARC
  5
DCA1
  8
0
 10
3513.9352759571738716
 20
297.4090413862095943
 30
0.0
 40
0.0111053855495545
 50
160.3513097499065907
 51
191.3390377175747119
  0
ARC
  5
DCA2
  8
0
 10
3514.0770155600871476
 20
297.4374641956694063
 30
0.0
 40
0.1556666913393881
 50
191.3390377175747119
 51
206.7447648760202128
  0
ARC
  5
DCA3
  8
0
 10
3514.0938199981060279
 20
297.4370452514477279
 30
0.0
 40
0.1706694874027875
 50
204.0794577583432101
 51
217.621714306969892
  0
ARC
  5
DCA4
  8
0
 10
3513.9740732674181345
 20
297.3455105143996207
 30
0.0
 40
0.0199550933469132
 50
219.3389318277779125
 51
237.0138663322952937
  0
ARC
  5
DCA5
  8
0
 10
3513.9647720701777871
 20
297.3311803352415836
 30
0.0
 40
0.0028709982637187
 50
237.0138663323820936
 51
285.0030365806999271
  0
ARC
  5
DCA6
  8
0
 10
3513.9651598851419294
 20
297.3297332968559772
 30
0.0
 40
0.0013728926144516
 50
285.0030365806999271
 51
0.8919419584811111
  0
ARC
  5
DCA7
  8
0
 10
3513.894777366820108
 20
297.328637540878276
 30
0.0
 40
0.0717639401036985
 50
0.8919419584811111
 51
27.6668106635397386
  0
ARC
  5
DCA8
  8
0
 10
3513.7899117529400428
 20
297.2981703869979242
 30
0.0
 40
0.1800994142672628
 50
20.7437508328942215
 51
39.1546745932710465
  0
ENDSEC
  0
EOF
