  0
SECTION
  2
HEADER
  9
$ACADVER
  1
AC1009
  9
$INSBASE
 10
3997.4121805706331543
 20
316.4312399209151181
 30
0.0
  9
$EXTMIN
 10
3967.1683182806877994
 20
300.4112653059005993
 30
-0.0000000000000058
  9
$EXTMAX
 10
4027.6560962822100009
 20
332.4416751221995128
 30
0.0000000000000104
  9
$LIMMIN
 10
0.0
 20
0.0
  9
$LIMMAX
 10
11.6929133858000007
 20
8.2677165353999982
  9
$ORTHOMODE
 70
     0
  9
$REGENMODE
 70
     1
  9
$FILLMODE
 70
     1
  9
$QTEXTMODE
 70
     0
  9
$MIRRTEXT
 70
     0
  9
$DRAGMODE
 70
     2
  9
$LTSCALE
 40
0.6431102362
  9
$OSMODE
 70
  4095
  9
$ATTMODE
 70
     1
  9
$TEXTSIZE
 40
0.2
  9
$TRACEWID
 40
0.05
  9
$TEXTSTYLE
  7
STANDARD
  9
$CLAYER
  8
0
  9
$CELTYPE
  6
BYLAYER
  9
$CECOLOR
 62
   256
  9
$DIMSCALE
 40
1.0
  9
$DIMASZ
 40
0.1875
  9
$DIMEXO
 40
0.0625
  9
$DIMDLI
 40
0.4443307087
  9
$DIMRND
 40
0.0
  9
$DIMDLE
 40
0.0
  9
$DIMEXE
 40
0.125
  9
$DIMTP
 40
0.01
  9
$DIMTM
 40
0.01
  9
$DIMTXT
 40
2.0
  9
$DIMCEN
 40
0.1052362205
  9
$DIMTSZ
 40
0.0
  9
$DIMTOL
 70
     1
  9
$DIMLIM
 70
     0
  9
$DIMTIH
 70
     1
  9
$DIMTOH
 70
     1
  9
$DIMSE1
 70
     0
  9
$DIMSE2
 70
     0
  9
$DIMTAD
 70
     0
  9
$DIMZIN
 70
     0
  9
$DIMBLK
  1

  9
$DIMASO
 70
     1
  9
$DIMSHO
 70
     1
  9
$DIMPOST
  1
\X
  9
$DIMAPOST
  1

  9
$DIMALT
 70
     1
  9
$DIMALTD
 70
     2
  9
$DIMALTF
 40
25.3999999999999986
  9
$DIMLFAC
 40
1.0
  9
$DIMTOFL
 70
     0
  9
$DIMTVP
 40
0.0
  9
$DIMTIX
 70
     0
  9
$DIMSOXD
 70
     0
  9
$DIMSAH
 70
     0
  9
$DIMBLK1
  1

  9
$DIMBLK2
  1

  9
$DIMSTYLE
  2
STANDARD
  9
$DIMCLRD
 70
     0
  9
$DIMCLRE
 70
     0
  9
$DIMCLRT
 70
     0
  9
$DIMTFAC
 40
1.0
  9
$DIMGAP
 40
0.09
  9
$LUNITS
 70
     2
  9
$LUPREC
 70
     4
  9
$SKETCHINC
 40
0.1
  9
$FILLETRAD
 40
0.0
  9
$AUNITS
 70
     0
  9
$AUPREC
 70
     0
  9
$MENU
  1
.
  9
$ELEVATION
 40
0.0
  9
$PELEVATION
 40
0.0
  9
$THICKNESS
 40
0.0
  9
$LIMCHECK
 70
     0
  9
$BLIPMODE
 70
     0
  9
$CHAMFERA
 40
0.0
  9
$CHAMFERB
 40
0.0
  9
$SKPOLY
 70
     0
  9
$TDCREATE
 40
2458060.468368056230247
  9
$TDUPDATE
 40
2460895.9157986110076308
  9
$TDINDWG
 40
0.5458982639
  9
$TDUSRTIMER
 40
0.5458982639
  9
$USRTIMER
 70
     1
  9
$ANGBASE
 50
0.0
  9
$ANGDIR
 70
     0
  9
$PDMODE
 70
     0
  9
$PDSIZE
 40
0.3125
  9
$PLINEWID
 40
0.0
  9
$COORDS
 70
     1
  9
$SPLFRAME
 70
     0
  9
$SPLINETYPE
 70
     6
  9
$SPLINESEGS
 70
     8
  9
$ATTDIA
 70
     1
  9
$ATTREQ
 70
     1
  9
$HANDLING
 70
     1
  9
$HANDSEED
  5
FF57
  9
$SURFTAB1
 70
     6
  9
$SURFTAB2
 70
     6
  9
$SURFTYPE
 70
     6
  9
$SURFU
 70
     6
  9
$SURFV
 70
     6
  9
$UCSNAME
  2

  9
$UCSORG
 10
0.0
 20
0.0
 30
0.0
  9
$UCSXDIR
 10
1.0
 20
0.0
 30
0.0
  9
$UCSYDIR
 10
0.0
 20
1.0
 30
0.0
  9
$PUCSNAME
  2

  9
$PUCSORG
 10
0.0
 20
0.0
 30
0.0
  9
$PUCSXDIR
 10
1.0
 20
0.0
 30
0.0
  9
$PUCSYDIR
 10
0.0
 20
1.0
 30
0.0
  9
$USERI1
 70
     0
  9
$USERI2
 70
     0
  9
$USERI3
 70
     0
  9
$USERI4
 70
     0
  9
$USERI5
 70
     0
  9
$USERR1
 40
0.0
  9
$USERR2
 40
0.0
  9
$USERR3
 40
0.0
  9
$USERR4
 40
0.0
  9
$USERR5
 40
0.0
  9
$WORLDVIEW
 70
     1
  9
$SHADEDGE
 70
     3
  9
$SHADEDIF
 70
    70
  9
$TILEMODE
 70
     1
  9
$MAXACTVP
 70
    64
  9
$PLIMCHECK
 70
     0
  9
$PEXTMIN
 10
1.0000000000000000E+20
 20
1.0000000000000000E+20
 30
1.0000000000000000E+20
  9
$PEXTMAX
 10
-1.0000000000000000E+20
 20
-1.0000000000000000E+20
 30
-1.0000000000000000E+20
  9
$PLIMMIN
 10
0.0
 20
0.0
  9
$PLIMMAX
 10
12.0
 20
9.0
  9
$UNITMODE
 70
     0
  9
$VISRETAIN
 70
     1
  9
$PLINEGEN
 70
     0
  9
$PSLTSCALE
 70
     1
  0
ENDSEC
  0
SECTION
  2
TABLES
  0
TABLE
  2
VPORT
 70
     1
  0
VPORT
  2
*ACTIVE
 70
     0
 10
0.0
 20
0.0
 11
1.0
 21
1.0
 12
919.5423342345739002
 22
26.0600761710813309
 13
0.0
 23
0.0
 14
1.0
 24
1.0
 15
0.0
 25
0.0
 16
0.0
 26
0.0
 36
38.8639293105787971
 17
3077.869873046875
 27
290.3663940429686932
 37
0.0
 40
32.2887195728819165
 41
2.5558546433378191
 42
50.0
 43
0.0
 44
0.0
 50
0.0
 51
0.0
 71
     0
 72
   100
 73
     1
 74
     1
 75
     0
 76
     0
 77
     0
 78
     0
  0
ENDTAB
  0
TABLE
  2
LTYPE
 70
     2
  0
LTYPE
  2
CONTINUOUS
 70
     0
  3
Solid line
 72
    65
 73
     0
 40
0.0
  0
LTYPE
  2
PHANTOM2
 70
     0
  3
___ _ _ ___ _ _ ___ _ _ ___ _ _
 72
    65
 73
     6
 40
1.25
 49
0.625
 49
-0.125
 49
0.125
 49
-0.125
 49
0.125
 49
-0.125
  0
ENDTAB
  0
TABLE
  2
LAYER
 70
     2
  0
LAYER
  2
0
 70
     0
 62
   255
  6
CONTINUOUS
  0
LAYER
  2
DEFPOINTS
 70
     0
 62
     7
  6
CONTINUOUS
  0
ENDTAB
  0
TABLE
  2
STYLE
 70
     1
  0
STYLE
  2
STANDARD
 70
     0
 40
0.0
 41
0.8
 50
0.0
 71
     0
 42
0.2
  3
txt
  4

  0
ENDTAB
  0
TABLE
  2
VIEW
 70
     0
  0
ENDTAB
  0
TABLE
  2
UCS
 70
     0
  0
ENDTAB
  0
TABLE
  2
APPID
 70
     9
  0
APPID
  2
ACAD
 70
     0
  0
APPID
  2
ACAD_MLEADERVER
 70
     0
  0
APPID
  2
ACAD_EXEMPT_FROM_CAD_STANDARDS
 70
     0
  0
APPID
  2
ACAD_NAV_VCDISPLAY
 70
     0
  0
APPID
  2
ACAECLAYERSTANDARD
 70
     0
  0
APPID
  2
ACCMTRANSPARENCY
 70
     0
  0
APPID
  2
ACAD_DSTYLE_DIMJAG
 70
     0
  0
APPID
  2
ACAD_DSTYLE_DIMTALN
 70
     0
  0
APPID
  2
ACDBATTR
 70
     0
  0
ENDTAB
  0
TABLE
  2
DIMSTYLE
 70
     1
  0
DIMSTYLE
  2
STANDARD
 70
     0
  3

  4

  5

  6

  7

 40
1.0
 41
0.1875
 42
0.0625
 43
0.38
 44
0.125
 45
0.0
 46
0.0
 47
0.01
 48
0.01
140
0.15625
141
0.09
142
0.0
143
25.3999999999999986
144
1.0
145
0.0
146
1.0
147
0.09
 71
     1
 72
     0
 73
     1
 74
     1
 75
     0
 76
     0
 77
     0
 78
     4
170
     0
171
     2
172
     0
173
     0
174
     0
175
     0
176
     0
177
     0
178
     0
  0
ENDTAB
  0
ENDSEC
  0
SECTION
  2
BLOCKS
  0
BLOCK
  8
0
  2
$MODEL_SPACE
 70
     0
 10
0.0
 20
0.0
 30
0.0
  3
$MODEL_SPACE
  1

  0
ENDBLK
  5
21
  8
0
  0
BLOCK
 67
     1
  8
0
  2
$PAPER_SPACE
 70
     0
 10
0.0
 20
0.0
 30
0.0
  3
$PAPER_SPACE
  1

  0
ENDBLK
  5
1D
 67
     1
  8
0
  0
BLOCK
  8
0
  2
_FILLED
 70
     0
 10
0.0
 20
0.0
 30
0.0
  3
_FILLED
  1

  0
SOLID
  5
A02F
  8
0
  6
BYBLOCK
 62
     0
 10
0.0
 20
0.0
 30
0.0
 11
-1.0
 21
0.1666666667
 31
0.0
 12
-1.0
 22
-0.1666666667
 32
0.0
 13
-1.0
 23
-0.1666666667
 33
0.0
  0
ENDBLK
  5
A030
  8
0
  6
BYBLOCK
 62
     0
  0
ENDSEC
  0
SECTION
  2
ENTITIES
  0
ATTDEF
  5
3930
  8
DEFPOINTS
 10
3997.4115513070350971
 20
316.4288469052535788
 30
0.0
 40
0.001
  1
P50047-00
  3

  2
MODELNUMBER
 70
     0
1001
ACDBATTR
1070
     0
1070
     1
  0
ATTDEF
  5
3931
  8
DEFPOINTS
 10
3997.4115513070350971
 20
316.4271802385870274
 30
0.0
 40
0.001
  1
KALLISTA
  3

  2
BRANDNAME
 70
     0
1001
ACDBATTR
1070
     0
1070
     1
  0
ATTDEF
  5
3932
  8
DEFPOINTS
 10
3997.4115513070350971
 20
316.4255135719203054
 30
0.0
 40
0.001
  1
BATH
  3

  2
PRODUCT
 70
     0
1001
ACDBATTR
1070
     0
1070
     1
  0
LINE
  5
FEAD
  8
0
 10
4026.91218057063179
 20
300.4312399209151181
 30
0.0
 11
3967.9121805706331543
 21
300.4312399209151181
 31
0.0
  0
LINE
  5
FEAE
  8
0
 10
4027.4121805706331543
 20
331.9312399209150044
 30
0.0
 11
4027.4121805706331543
 21
300.9312399209151181
 31
0.0
  0
LINE
  5
FEAF
  8
0
 10
3967.9121805706331543
 20
332.4312399209150044
 30
0.0
 11
4026.91218057063179
 21
332.4312399209150044
 31
0.0
  0
LINE
  5
FEB0
  8
0
 10
3967.4121805706331543
 20
331.9312399209150044
 30
0.0
 11
3967.4121805706331543
 21
300.9312399209151181
 31
0.0
  0
ARC
  5
FEB1
  8
0
 10
3967.9121805706331543
 20
331.9312399209151181
 30
0.0
 40
0.5
 50
90.0
 51
180.0
  0
ARC
  5
FEB2
  8
0
 10
4026.91218057063179
 20
331.9312399209150044
 30
0.0
 40
0.5
 50
0.0
 51
90.0
  0
ARC
  5
FEB3
  8
0
 10
4026.91218057063179
 20
300.9312399209151181
 30
0.0
 40
0.5
 50
270.0
 51
0.0
  0
ARC
  5
FEB4
  8
0
 10
3967.9121805706331543
 20
300.9312399209151181
 30
0.0
 40
0.5
 50
180.0
 51
270.0
  0
CIRCLE
  5
FEB5
  8
0
 10
4019.8602405387318868
 20
316.4312399209151181
 30
0.0
 40
1.1249999999999969
  0
LINE
  5
FEB6
  8
0
 10
3970.3324287349328188
 20
304.8449129050151214
 30
0.0
 11
3970.3324287459331572
 21
328.0175669565151111
 31
0.0
  0
LINE
  5
FEB7
  8
0
 10
3971.7983788529331832
 20
329.4140033025150842
 30
0.0
 11
4023.0647504671319439
 21
329.4140033039150808
 31
0.0
  0
LINE
  5
FEB8
  8
0
 10
3971.7983793946327751
 20
303.4484765406149904
 30
0.0
 11
4023.0647509016330332
 21
303.4484765394150827
 31
0.0
  0
LINE
  5
FEB9
  8
0
 10
4024.49097299943287
 20
327.9612330198199857
 30
0.0
 11
4024.4909744336400763
 21
304.9012239447151273
 31
0.0
  0
ARC
  5
FEBA
  8
0
 10
3971.7239912547711356
 20
304.8380662383705157
 30
0.0
 40
1.391579362975855
 50
179.7180996674723019
 51
273.0642585324782772
  0
ARC
  5
FEBB
  8
0
 10
3971.7240597259378774
 20
328.0243417073335195
 30
0.0
 40
1.39164747036014
 50
86.9387369817343938
 51
180.2789256407315861
  0
ARC
  5
FEBC
  8
0
 10
4023.0628038491167899
 20
327.9856271606328733
 30
0.0
 40
1.428377469725393
 50
359.0214426546561981
 51
89.9219162766926559
  0
ARC
  5
FEBD
  8
0
 10
4023.061673127640006
 20
304.8779637851314988
 30
0.0
 40
1.4294905590310061
 50
270.1233611479493106
 51
0.9323375960360962
  0
ARC
  5
FEBE
  8
0
 10
4034.1894433376878624
 20
11426.8302352724494995
 30
0.0
 40
11099.5235933044095873
 50
269.7316367788988032
 51
269.9431707027284801
  0
ARC
  5
FEBF
  8
0
 10
4034.1894433086590652
 20
-10793.9677356571100972
 30
0.0
 40
11099.5235735309906886
 50
90.0568292972193802
 51
90.2683632214398841
  0
ARC
  5
FEC0
  8
0
 10
3981.7862314693247754
 20
307.4138380513060724
 30
0.0
 40
2.0273442201514462
 50
181.1114948359827963
 51
268.3123673659698056
  0
ARC
  5
FEC1
  8
0
 10
-2679.1343353727888825
 20
316.4340608796554761
 30
0.0
 40
6658.8997669262198542
 50
359.9220480683101187
 51
0.0779033885566868
  0
ARC
  5
FEC2
  8
0
 10
3981.7862243901890906
 20
325.4486564500580243
 30
0.0
 40
2.0273291911838269
 50
91.6874377068937179
 51
178.888904150250994
  0
ARC
  5
FEC3
  8
0
 10
3982.1436510023499977
 20
329.2783696559412761
 30
0.0
 40
1.8508786669678901
 50
256.9755851775540805
 51
271.7892947275370261
  0
CIRCLE
  5
FEC4
  8
0
 10
4019.8602405387318868
 20
316.4312399209151181
 30
0.0
 40
2.1286621961999961
  0
CIRCLE
  5
FEC5
  8
0
 10
4019.8602405387318868
 20
316.4312399209151181
 30
0.0
 40
1.5643502884000009
  0
ARC
  5
FEC6
  8
0
 10
3982.1436508065739872
 20
303.5841160438919815
 30
0.0
 40
1.8508728179339531
 50
88.2106935527646669
 51
103.0244586729670004
  0
ARC
  5
FEC7
  8
0
 10
4023.2334246060509031
 20
329.25409651987502
 30
0.0
 40
1.942721558880522
 50
268.4327303082951062
 51
282.9557113222609814
  0
ARC
  5
FEC8
  8
0
 10
2776.2742065817051298
 20
316.4312399209151181
 30
0.0
 40
1246.9535572779329868
 50
359.5000332071559797
 51
0.4999667928439873
  0
ARC
  5
FEC9
  8
0
 10
4023.5578339649428017
 20
324.8117476258511829
 30
0.0
 40
2.5515038227322968
 50
68.5480256474159262
 51
87.5033819632147924
  0
ARC
  5
FECA
  8
0
 10
4023.2379416539160957
 20
303.6536845400746074
 30
0.0
 40
1.897569557018395
 50
76.870539138491381
 51
91.7410192312142385
  0
ARC
  5
FECB
  8
0
 10
4023.5657033504089668
 20
308.0481340522715072
 30
0.0
 40
2.5485771111310842
 50
272.3224146719393275
 51
291.287869596876078
  0
LINE
  5
FECD
  8
0
 10
3970.7603765186850069
 20
303.8341042052937837
 30
0.0
 11
3980.3454932463068872
 21
305.9875148201567754
 31
0.0
  0
LINE
  5
FECE
  8
0
 10
3970.7641971073157947
 20
329.0319857095145721
 30
0.0
 11
3980.3454943076449126
 21
326.874966542106506
 31
0.0
  0
ENDSEC
  0
EOF
