  0
SECTION
  2
HEADER
  9
$ACADVER
  1
AC1009
  9
$INSBASE
 10
3628.1444413732911016
 20
215.2428466622066878
 30
0.0
  9
$EXTMIN
 10
3598.0447639651629288
 20
193.2364953892318908
 30
-0.0000000349181948
  9
$EXTMAX
 10
3658.3139729828089912
 20
215.2640331490815129
 30
0.0000000814935746
  9
$LIMMIN
 10
0.0
 20
0.0
  9
$LIMMAX
 10
11.6929133858000007
 20
8.2677165353999982
  9
$ORTHOMODE
 70
     0
  9
$REGENMODE
 70
     1
  9
$FILLMODE
 70
     1
  9
$QTEXTMODE
 70
     0
  9
$MIRRTEXT
 70
     0
  9
$DRAGMODE
 70
     2
  9
$LTSCALE
 40
0.6431102362
  9
$OSMODE
 70
  4095
  9
$ATTMODE
 70
     1
  9
$TEXTSIZE
 40
0.2
  9
$TRACEWID
 40
0.05
  9
$TEXTSTYLE
  7
STANDARD
  9
$CLAYER
  8
0
  9
$CELTYPE
  6
BYLAYER
  9
$CECOLOR
 62
   256
  9
$DIMSCALE
 40
1.0
  9
$DIMASZ
 40
0.1875
  9
$DIMEXO
 40
0.0625
  9
$DIMDLI
 40
0.4443307087
  9
$DIMRND
 40
0.0
  9
$DIMDLE
 40
0.0
  9
$DIMEXE
 40
0.125
  9
$DIMTP
 40
0.01
  9
$DIMTM
 40
0.01
  9
$DIMTXT
 40
2.0
  9
$DIMCEN
 40
0.1052362205
  9
$DIMTSZ
 40
0.0
  9
$DIMTOL
 70
     1
  9
$DIMLIM
 70
     0
  9
$DIMTIH
 70
     1
  9
$DIMTOH
 70
     1
  9
$DIMSE1
 70
     0
  9
$DIMSE2
 70
     0
  9
$DIMTAD
 70
     0
  9
$DIMZIN
 70
     0
  9
$DIMBLK
  1

  9
$DIMASO
 70
     1
  9
$DIMSHO
 70
     1
  9
$DIMPOST
  1
\X
  9
$DIMAPOST
  1

  9
$DIMALT
 70
     1
  9
$DIMALTD
 70
     2
  9
$DIMALTF
 40
25.3999999999999986
  9
$DIMLFAC
 40
1.0
  9
$DIMTOFL
 70
     0
  9
$DIMTVP
 40
0.0
  9
$DIMTIX
 70
     0
  9
$DIMSOXD
 70
     0
  9
$DIMSAH
 70
     0
  9
$DIMBLK1
  1

  9
$DIMBLK2
  1

  9
$DIMSTYLE
  2
STANDARD
  9
$DIMCLRD
 70
     0
  9
$DIMCLRE
 70
     0
  9
$DIMCLRT
 70
     0
  9
$DIMTFAC
 40
1.0
  9
$DIMGAP
 40
0.09
  9
$LUNITS
 70
     2
  9
$LUPREC
 70
     4
  9
$SKETCHINC
 40
0.1
  9
$FILLETRAD
 40
0.0
  9
$AUNITS
 70
     0
  9
$AUPREC
 70
     0
  9
$MENU
  1
.
  9
$ELEVATION
 40
0.0
  9
$PELEVATION
 40
0.0
  9
$THICKNESS
 40
0.0
  9
$LIMCHECK
 70
     0
  9
$BLIPMODE
 70
     0
  9
$CHAMFERA
 40
0.0
  9
$CHAMFERB
 40
0.0
  9
$SKPOLY
 70
     0
  9
$TDCREATE
 40
2458060.468368056230247
  9
$TDUPDATE
 40
2460889.5916435178369284
  9
$TDINDWG
 40
0.4883403935
  9
$TDUSRTIMER
 40
0.4883403935
  9
$USRTIMER
 70
     1
  9
$ANGBASE
 50
0.0
  9
$ANGDIR
 70
     0
  9
$PDMODE
 70
     0
  9
$PDSIZE
 40
0.3125
  9
$PLINEWID
 40
0.0
  9
$COORDS
 70
     1
  9
$SPLFRAME
 70
     0
  9
$SPLINETYPE
 70
     6
  9
$SPLINESEGS
 70
     8
  9
$ATTDIA
 70
     1
  9
$ATTREQ
 70
     1
  9
$HANDLING
 70
     1
  9
$HANDSEED
  5
D327
  9
$SURFTAB1
 70
     6
  9
$SURFTAB2
 70
     6
  9
$SURFTYPE
 70
     6
  9
$SURFU
 70
     6
  9
$SURFV
 70
     6
  9
$UCSNAME
  2

  9
$UCSORG
 10
0.0
 20
0.0
 30
0.0
  9
$UCSXDIR
 10
1.0
 20
0.0
 30
0.0
  9
$UCSYDIR
 10
0.0
 20
1.0
 30
0.0
  9
$PUCSNAME
  2

  9
$PUCSORG
 10
0.0
 20
0.0
 30
0.0
  9
$PUCSXDIR
 10
1.0
 20
0.0
 30
0.0
  9
$PUCSYDIR
 10
0.0
 20
1.0
 30
0.0
  9
$USERI1
 70
     0
  9
$USERI2
 70
     0
  9
$USERI3
 70
     0
  9
$USERI4
 70
     0
  9
$USERI5
 70
     0
  9
$USERR1
 40
0.0
  9
$USERR2
 40
0.0
  9
$USERR3
 40
0.0
  9
$USERR4
 40
0.0
  9
$USERR5
 40
0.0
  9
$WORLDVIEW
 70
     1
  9
$SHADEDGE
 70
     3
  9
$SHADEDIF
 70
    70
  9
$TILEMODE
 70
     1
  9
$MAXACTVP
 70
    64
  9
$PLIMCHECK
 70
     0
  9
$PEXTMIN
 10
1.0000000000000000E+20
 20
1.0000000000000000E+20
 30
1.0000000000000000E+20
  9
$PEXTMAX
 10
-1.0000000000000000E+20
 20
-1.0000000000000000E+20
 30
-1.0000000000000000E+20
  9
$PLIMMIN
 10
0.0
 20
0.0
  9
$PLIMMAX
 10
12.0
 20
9.0
  9
$UNITMODE
 70
     0
  9
$VISRETAIN
 70
     1
  9
$PLINEGEN
 70
     0
  9
$PSLTSCALE
 70
     1
  0
ENDSEC
  0
SECTION
  2
TABLES
  0
TABLE
  2
VPORT
 70
     1
  0
VPORT
  2
*ACTIVE
 70
     0
 10
0.0
 20
0.0
 11
1.0
 21
1.0
 12
563.1555647630483463
 22
10.3477849765008294
 13
0.0
 23
0.0
 14
1.0
 24
1.0
 15
0.0
 25
0.0
 16
0.0
 26
0.0
 36
63.7428098394932476
 17
3065.0238037109379547
 27
193.9024792926558121
 37
0.0
 40
26.3573638131694317
 41
2.2939024390243898
 42
50.0
 43
0.0
 44
0.0
 50
0.0
 51
0.0
 71
     0
 72
   100
 73
     1
 74
     1
 75
     0
 76
     0
 77
     0
 78
     0
  0
ENDTAB
  0
TABLE
  2
LTYPE
 70
     2
  0
LTYPE
  2
CONTINUOUS
 70
     0
  3
Solid line
 72
    65
 73
     0
 40
0.0
  0
LTYPE
  2
PHANTOM2
 70
     0
  3
___ _ _ ___ _ _ ___ _ _ ___ _ _
 72
    65
 73
     6
 40
1.25
 49
0.625
 49
-0.125
 49
0.125
 49
-0.125
 49
0.125
 49
-0.125
  0
ENDTAB
  0
TABLE
  2
LAYER
 70
     2
  0
LAYER
  2
0
 70
     0
 62
   255
  6
CONTINUOUS
  0
LAYER
  2
DEFPOINTS
 70
     0
 62
     7
  6
CONTINUOUS
  0
ENDTAB
  0
TABLE
  2
STYLE
 70
     1
  0
STYLE
  2
STANDARD
 70
     0
 40
0.0
 41
0.8
 50
0.0
 71
     0
 42
0.2
  3
txt
  4

  0
ENDTAB
  0
TABLE
  2
VIEW
 70
     0
  0
ENDTAB
  0
TABLE
  2
UCS
 70
     0
  0
ENDTAB
  0
TABLE
  2
APPID
 70
     9
  0
APPID
  2
ACAD
 70
     0
  0
APPID
  2
ACAD_MLEADERVER
 70
     0
  0
APPID
  2
ACAD_EXEMPT_FROM_CAD_STANDARDS
 70
     0
  0
APPID
  2
ACAD_NAV_VCDISPLAY
 70
     0
  0
APPID
  2
ACAECLAYERSTANDARD
 70
     0
  0
APPID
  2
ACCMTRANSPARENCY
 70
     0
  0
APPID
  2
ACAD_DSTYLE_DIMJAG
 70
     0
  0
APPID
  2
ACAD_DSTYLE_DIMTALN
 70
     0
  0
APPID
  2
ACDBATTR
 70
     0
  0
ENDTAB
  0
TABLE
  2
DIMSTYLE
 70
     1
  0
DIMSTYLE
  2
STANDARD
 70
     0
  3

  4

  5

  6

  7

 40
1.0
 41
0.1875
 42
0.0625
 43
0.38
 44
0.125
 45
0.0
 46
0.0
 47
0.01
 48
0.01
140
0.15625
141
0.09
142
0.0
143
25.3999999999999986
144
1.0
145
0.0
146
1.0
147
0.09
 71
     1
 72
     0
 73
     1
 74
     1
 75
     0
 76
     0
 77
     0
 78
     4
170
     0
171
     2
172
     0
173
     0
174
     0
175
     0
176
     0
177
     0
178
     0
  0
ENDTAB
  0
ENDSEC
  0
SECTION
  2
BLOCKS
  0
BLOCK
  8
0
  2
$MODEL_SPACE
 70
     0
 10
0.0
 20
0.0
 30
0.0
  3
$MODEL_SPACE
  1

  0
ENDBLK
  5
21
  8
0
  0
BLOCK
 67
     1
  8
0
  2
$PAPER_SPACE
 70
     0
 10
0.0
 20
0.0
 30
0.0
  3
$PAPER_SPACE
  1

  0
ENDBLK
  5
1D
 67
     1
  8
0
  0
BLOCK
  8
0
  2
_FILLED
 70
     0
 10
0.0
 20
0.0
 30
0.0
  3
_FILLED
  1

  0
SOLID
  5
9977
  8
0
  6
BYBLOCK
 62
     0
 10
0.0
 20
0.0
 30
0.0
 11
-1.0
 21
0.1666666667
 31
0.0
 12
-1.0
 22
-0.1666666667
 32
0.0
 13
-1.0
 23
-0.1666666667
 33
0.0
  0
ENDBLK
  5
9978
  8
0
  6
BYBLOCK
 62
     0
  0
ENDSEC
  0
SECTION
  2
ENTITIES
  0
ATTDEF
  5
3930
  8
DEFPOINTS
 10
3628.1348261072780588
 20
215.2482237317707927
 30
0.0
 40
0.001
  1
P50047-G5
  3

  2
MODELNUMBER
 70
     0
1001
ACDBATTR
1070
     0
1070
     1
  0
ATTDEF
  5
3931
  8
DEFPOINTS
 10
3628.1348261072780588
 20
215.2465570651040991
 30
0.0
 40
0.001
  1
KALLISTA
  3

  2
BRANDNAME
 70
     0
1001
ACDBATTR
1070
     0
1070
     1
  0
ATTDEF
  5
3932
  8
DEFPOINTS
 10
3628.1348261072780588
 20
215.2448903984374908
 30
0.0
 40
0.001
  1
BATH
  3

  2
PRODUCT
 70
     0
1001
ACDBATTR
1070
     0
1070
     1
  0
LINE
  5
D0B6
  8
0
 10
3658.1444413732920111
 20
214.2428466622066026
 30
0.0
 11
3598.1444413732920111
 21
214.2428466622066026
 31
0.0
  0
LINE
  5
D0B7
  8
0
 10
3657.5692571696908999
 20
215.2428466622066878
 30
0.0
 11
3598.7196255768922128
 21
215.2428466622066878
 31
0.0
  0
ARC
  5
D0B8
  8
0
 10
3657.5692571696908999
 20
214.7428466622066026
 30
0.0
 40
0.5
 50
7.9999999989632817
 51
90.0
  0
LINE
  5
D0B9
  8
0
 10
3598.1444413732920111
 20
214.2428466622066026
 30
0.0
 11
3598.2244915425198997
 21
214.8124332126776892
 31
0.0
  0
ARC
  5
D0BA
  8
0
 10
3598.7196255768922128
 20
214.7428466622066026
 30
0.0
 40
0.5
 50
90.0
 51
172.0000000010367103
  0
LINE
  5
D0BB
  8
0
 10
3658.0643912040641226
 20
214.8124332126776892
 30
0.0
 11
3658.1444413732920111
 21
214.2428466622066026
 31
0.0
  0
ARC
  5
D0BC
  8
0
 10
3794.5944180514638902
 20
222.2971903228572046
 30
0.0
 40
139.364846804788499
 50
183.3131538606025117
 51
187.9257853621409993
  0
ARC
  5
D0BD
  8
0
 10
3632.6847003671100538
 20
199.6676085646263914
 30
0.0
 40
24.1187885414478096
 50
352.1805336210995279
 51
8.1339643599691627
  0
ARC
  5
D0BE
  8
0
 10
3653.870517918061978
 20
196.8609669418241879
 30
0.0
 40
2.75
 50
272.0000000044357193
 51
350.058396705694804
  0
LINE
  5
D0BF
  8
0
 10
3653.1765470981918043
 20
194.0850566999066018
 30
0.0
 11
3653.966491534205943
 21
194.1126421675290885
 31
0.0
  0
ARC
  5
D0C0
  8
0
 10
3618.7099427207131157
 20
219.4341924006432123
 30
0.0
 40
18.4867676693676302
 50
196.3088010430807913
 51
218.2026917361039864
  0
ARC
  5
D0C1
  8
0
 10
3291.6428556949322228
 20
-22.7704104256638686
 30
0.0
 40
388.5055377843586939
 50
35.3642619245862591
 51
36.4412412275286499
  0
ARC
  5
D0C2
  8
0
 10
3599.1332971149281548
 20
195.7835202850033909
 30
0.0
 40
11.2604758412960901
 50
9.2463228936305573
 51
34.034754384476642
  0
ARC
  5
D0C3
  8
0
 10
3612.9575948382871502
 20
198.0610083301984048
 30
0.0
 40
2.7502721906071761
 50
189.8008687644899908
 51
267.9980045678249212
  0
ARC
  5
D0C4
  8
0
 10
3737.1203942962702058
 20
3552.0952195771028528
 30
0.0
 40
3359.0248489421678642
 50
268.089556330754192
 51
268.2731728022574202
  0
ARC
  5
D0C5
  8
0
 10
3657.3950486056601221
 20
868.2839807144822544
 30
0.0
 40
674.031014218630844
 50
268.1723980084133814
 51
269.1518101235697031
  0
ARC
  5
D0C6
  8
0
 10
3650.5878518157451254
 20
462.3210975915873746
 30
0.0
 40
268.0130303327015895
 50
269.3221747754694206
 51
270.5534193090330177
  0
LINE
  5
D0C7
  8
0
 10
3653.1765464978871023
 20
194.3205694429281891
 30
0.0
 11
3653.1765470981918043
 21
193.75816015090669
 31
0.0
  0
LINE
  5
D0C8
  8
0
 10
3653.1765470981918043
 20
193.75816015090669
 30
0.0
 11
3651.9400128732909252
 21
193.7331806213433936
 31
0.0
  0
LINE
  5
D0C9
  8
0
 10
3651.9400128732909252
 20
193.6393067416067026
 30
0.0
 11
3652.0432120194918753
 21
193.6393067416067026
 31
0.0
  0
ARC
  5
D0CA
  8
0
 10
3652.0432120194918753
 20
194.0293067416066037
 30
0.0
 40
0.3899999999999671
 50
270.0
 51
312.2367984350159986
  0
LINE
  5
D0CB
  8
0
 10
3651.9400128732909252
 20
193.8673826552065975
 30
0.0
 11
3651.9400128732909252
 21
193.2428466622066026
 31
0.0
  0
LINE
  5
D0CC
  8
0
 10
3651.9400128732909252
 20
193.2428466622066026
 30
0.0
 11
3648.4400128732918347
 21
193.2428466622066026
 31
0.0
  0
LINE
  5
D0CD
  8
0
 10
3648.4400128732918347
 20
193.2428466622066026
 30
0.0
 11
3648.4400129756481874
 21
193.8742981759496047
 31
0.0
  0
LINE
  5
D0CE
  8
0
 10
3648.4400129756481874
 20
193.8742981759496047
 30
0.0
 11
3651.9400128732909252
 21
193.8673826552065975
 31
0.0
  0
LINE
  5
D0CF
  8
0
 10
3648.4400128730922006
 20
193.7488532196067013
 30
0.0
 11
3648.1765470981908948
 21
193.754411262506693
 31
0.0
  0
LINE
  5
D0D0
  8
0
 10
3648.1765470981908948
 20
193.754411262506693
 30
0.0
 11
3648.1765470981908948
 21
194.3189146943641106
 31
0.0
  0
LINE
  5
D0D1
  8
0
 10
3647.4172560666847858
 20
194.3268219984067002
 30
0.0
 11
3647.4172560666920617
 21
193.7304732629067132
 31
0.0
  0
LINE
  5
D0D2
  8
0
 10
3647.4172560666920617
 20
193.7304732629067132
 30
0.0
 11
3642.4172560666920617
 21
193.9050771104066087
 31
0.0
  0
LINE
  5
D0D3
  8
0
 10
3642.4172560666920617
 20
193.9050771104066087
 30
0.0
 11
3642.4172596109860933
 21
194.4193993886588032
 31
0.0
  0
LINE
  5
D0D4
  8
0
 10
3641.6579658704908979
 20
194.3068206874065993
 30
0.0
 11
3642.4172560666920617
 21
194.2803056894832991
 31
0.0
  0
LINE
  5
D0D5
  8
0
 10
3641.6579650867220153
 20
194.4367040034206013
 30
0.0
 11
3641.6579630650921899
 21
193.9315922062066875
 31
0.0
  0
LINE
  5
D0D6
  8
0
 10
3641.6579630650921899
 20
193.9315922062066875
 30
0.0
 11
3636.6579650352919089
 21
194.1061959849066056
 31
0.0
  0
LINE
  5
D0D7
  8
0
 10
3636.6579650352919089
 20
194.1061959849066056
 30
0.0
 11
3636.6579650352919089
 21
194.5720381948385977
 31
0.0
  0
LINE
  5
D0D8
  8
0
 10
3636.6579652872910629
 20
194.481424555206587
 30
0.0
 11
3635.8986742193910686
 21
194.5079395836065999
 31
0.0
  0
LINE
  5
D0D9
  8
0
 10
3635.8986740038271819
 20
194.5958377228054985
 30
0.0
 11
3635.8986740037921663
 21
194.132724021906597
 31
0.0
  0
LINE
  5
D0DA
  8
0
 10
3635.8986740037921663
 20
194.132724021906597
 30
0.0
 11
3635.1486740264917898
 21
194.1589015883066054
 31
0.0
  0
LINE
  5
D0DB
  8
0
 10
3635.1486740264917898
 20
194.1594865483066883
 30
0.0
 11
3635.1486740264917898
 21
193.2428466622066026
 31
0.0
  0
LINE
  5
D0DC
  8
0
 10
3635.1486740264917898
 20
193.2428466622066026
 30
0.0
 11
3631.6486740264917898
 21
193.2428466622066026
 31
0.0
  0
LINE
  5
D0DD
  8
0
 10
3631.6486740264917898
 20
193.2428466622066026
 30
0.0
 11
3631.6486906477498451
 21
194.2816006729923117
 31
0.0
  0
LINE
  5
D0DE
  8
0
 10
3631.6486906401178203
 20
194.2811237012298022
 30
0.0
 11
3630.8986740037921663
 21
194.3073201045066867
 31
0.0
  0
LINE
  5
D0DF
  8
0
 10
3630.8986740037921663
 20
194.3073201045066867
 30
0.0
 11
3630.8986740037921663
 21
194.7503040301380111
 31
0.0
  0
LINE
  5
D0E0
  8
0
 10
3630.8986740799919062
 20
194.6825434359066094
 30
0.0
 11
3630.1393830403922038
 21
194.7090584633066044
 31
0.0
  0
LINE
  5
D0E1
  8
0
 10
3630.1393829722192095
 20
194.7744128880798087
 30
0.0
 11
3630.1393828087921065
 21
194.3338298922066087
 31
0.0
  0
ARC
  5
D0E2
  8
0
 10
3729.1728800760961349
 20
3539.5915709524329031
 30
0.0
 40
3346.2639844688328594
 50
268.0080077297513981
 51
268.1197563014146112
  0
ARC
  5
D0E3
  8
0
 10
3419.0287547715897745
 20
-5907.8912443465833348
 30
0.0
 40
6106.3082011233582307
 50
88.0656866809517851
 51
88.1197563014145686
  0
LINE
  5
D0E4
  8
0
 10
3612.8573454628908621
 20
195.349751023606899
 30
0.0
 11
3612.8615159980968201
 21
195.3124148755574083
 31
0.0
  0
LINE
  5
D0E5
  8
0
 10
3630.1393828087921065
 20
194.3338298922066087
 30
0.0
 11
3625.1393829722910596
 21
194.5084337340065872
 31
0.0
  0
LINE
  5
D0E6
  8
0
 10
3625.1393829722910596
 20
194.5084337340065872
 30
0.0
 11
3625.1393936830340863
 21
194.9374646730217933
 31
0.0
  0
LINE
  5
D0E7
  8
0
 10
3625.1393923398518382
 20
194.8836619859579002
 30
0.0
 11
3624.380091931575862
 21
194.9101773404763946
 31
0.0
  0
LINE
  5
D0E8
  8
0
 10
3624.3800919407922265
 20
194.9621925552067125
 30
0.0
 11
3624.3800918650908898
 21
194.534948763706609
 31
0.0
  0
LINE
  5
D0E9
  8
0
 10
3624.3800918650908898
 20
194.534948763706609
 30
0.0
 11
3619.3800919407908623
 21
194.7095526085066126
 31
0.0
  0
LINE
  5
D0EA
  8
0
 10
3619.3800919407908623
 20
194.7095526085066126
 30
0.0
 11
3619.3801066251880911
 21
195.1292523351067985
 31
0.0
  0
LINE
  5
D0EB
  8
0
 10
3619.3801050692218269
 20
195.0847807291513902
 30
0.0
 11
3618.6208009306919848
 21
195.1112962140065861
 31
0.0
  0
LINE
  5
D0EC
  8
0
 10
3618.6208009092861175
 20
195.1542652842406937
 30
0.0
 11
3618.6208008695921308
 21
194.7360676370066983
 31
0.0
  0
LINE
  5
D0ED
  8
0
 10
3618.6208008695921308
 20
194.7360676370066983
 30
0.0
 11
3618.3573351797908799
 21
194.7452680616065948
 31
0.0
  0
LINE
  5
D0EE
  8
0
 10
3618.3573351797908799
 20
194.7712615944066101
 30
0.0
 11
3618.3573351797908799
 21
193.2428466622066026
 31
0.0
  0
LINE
  5
D0EF
  8
0
 10
3618.3573351797908799
 20
193.2428466622066026
 30
0.0
 11
3614.8573351797917894
 21
193.2428466622066026
 31
0.0
  0
LINE
  5
D0F0
  8
0
 10
3614.8573351797917894
 20
193.2428466622066026
 30
0.0
 11
3614.8573351797917894
 21
194.890987912006608
 31
0.0
  0
LINE
  5
D0F1
  8
0
 10
3614.8573351797917894
 20
194.8674907549066972
 30
0.0
 11
3613.6208009092920292
 21
194.9106722210067062
 31
0.0
  0
LINE
  5
D0F2
  8
0
 10
3613.6208009092920292
 20
194.9106722210067062
 30
0.0
 11
3613.6208009104698249
 21
195.3232846521663078
 31
0.0
  0
LINE
  5
D0F3
  8
0
 10
3613.6208009169909019
 20
195.2859000619066023
 30
0.0
 11
3612.8615159980968201
 21
195.3124148755574083
 31
0.0
  0
LINE
  5
D0F4
  8
0
 10
3614.8573351797917894
 20
194.890987912006608
 30
0.0
 11
3618.3573351797908799
 21
194.7712615944066101
 31
0.0
  0
LINE
  5
D0F5
  8
0
 10
3619.3800934814598804
 20
194.7535869571945
 30
0.0
 11
3624.3800918743081638
 21
194.5869639783221885
 31
0.0
  0
LINE
  5
D0F6
  8
0
 10
3625.1393843069790819
 20
194.5618961418948061
 30
0.0
 11
3630.1393828331060831
 21
194.3993780510585907
 31
0.0
  0
LINE
  5
D0F7
  8
0
 10
3630.8986740037921663
 20
194.3751057380065959
 30
0.0
 11
3635.8986740037921663
 21
194.2206091437066107
 31
0.0
  0
LINE
  5
D0F8
  8
0
 10
3631.6486906477498451
 20
194.2816006729923117
 30
0.0
 11
3635.1486740264917898
 21
194.1594865483066883
 31
0.0
  0
LINE
  5
D0F9
  8
0
 10
3636.6579650352919089
 20
194.1982559621066002
 30
0.0
 11
3641.6579635844841505
 21
194.0613643327772024
 31
0.0
  0
LINE
  5
D0FA
  8
0
 10
3642.4172570184291544
 20
194.0431863117937041
 30
0.0
 11
3647.4172560666920617
 21
193.9515934193067039
 31
0.0
  0
LINE
  5
D0FB
  8
0
 10
3648.1765470981908948
 20
193.9437354626099932
 30
0.0
 11
3653.1765469001120437
 21
193.9437354626099932
 31
0.0
  0
ARC
  5
D0FC
  8
0
 10
3633.464091462100896
 20
213.1147167835756022
 30
0.0
 40
0.1250239003475303
 50
173.611122415257995
 51
198.2020182537438018
  0
ARC
  5
D0FD
  8
0
 10
3633.4635849048891032
 20
213.1142506921434006
 30
0.0
 40
0.1245734373780713
 50
89.8031850364862692
 51
173.3721554444987021
  0
ARC
  5
D0FE
  8
0
 10
3633.465987412665072
 20
213.114530506660401
 30
0.0
 40
0.1230161011070734
 50
341.5816791907495258
 51
6.6038235506034466
  0
ARC
  5
D0FF
  8
0
 10
3633.4643554163180852
 20
213.1141471947589139
 30
0.0
 40
0.1246815010045156
 50
6.6925526085840072
 51
90.5283545961433447
  0
ARC
  5
D100
  8
0
 10
3633.4640128222649764
 20
212.2771020765310084
 30
0.0
 40
0.8073333296812052
 50
98.4539152778062316
 51
81.5460847286205137
  0
CIRCLE
  5
D101
  8
0
 10
3612.5681778410921652
 20
199.4928466622066026
 30
0.0
 40
0.0469999999999999
  0
CIRCLE
  5
D102
  8
0
 10
3614.0218423888918551
 20
198.8678466622066878
 30
0.0
 40
0.0469999999999999
  0
CIRCLE
  5
D103
  8
0
 10
3615.7799414045921367
 20
199.4928466622066026
 30
0.0
 40
0.0469999999999999
  0
CIRCLE
  5
D104
  8
0
 10
3615.7799414045921367
 20
198.2428466622066026
 30
0.0
 40
0.0469999999999999
  0
CIRCLE
  5
D105
  8
0
 10
3612.5681778410921652
 20
198.2428466622066026
 30
0.0
 40
0.0469999999999999
  0
CIRCLE
  5
D106
  8
0
 10
3617.2486104111922032
 20
198.8678466622066878
 30
0.0
 40
0.0469999999999999
  0
CIRCLE
  5
D107
  8
0
 10
3618.9917049680921082
 20
198.2428466622066026
 30
0.0
 40
0.0469999999999999
  0
CIRCLE
  5
D108
  8
0
 10
3618.9917049680921082
 20
199.4928466622066026
 30
0.0
 40
0.0469999999999999
  0
CIRCLE
  5
D109
  8
0
 10
3622.2034685315920797
 20
199.4928466622066026
 30
0.0
 40
0.0469999999999999
  0
CIRCLE
  5
D10A
  8
0
 10
3622.2034685315920797
 20
198.2428466622066026
 30
0.0
 40
0.0469999999999999
  0
CIRCLE
  5
D10B
  8
0
 10
3623.7021464556919454
 20
198.8678466622066878
 30
0.0
 40
0.0469999999999999
  0
CIRCLE
  5
D10C
  8
0
 10
3625.4152320950920512
 20
199.4928466622066026
 30
0.0
 40
0.0469999999999999
  0
CIRCLE
  5
D10D
  8
0
 10
3625.4152320950920512
 20
198.2428466622066026
 30
0.0
 40
0.0469999999999999
  0
CIRCLE
  5
D10E
  8
0
 10
3626.9289144779909293
 20
198.8678466622066878
 30
0.0
 40
0.0469999999999999
  0
CIRCLE
  5
D10F
  8
0
 10
3628.6269956585920227
 20
199.4928466622066026
 30
0.0
 40
0.0469999999999999
  0
CIRCLE
  5
D110
  8
0
 10
3628.6269956585920227
 20
198.2428466622066026
 30
0.0
 40
0.0469999999999999
  0
CIRCLE
  5
D111
  8
0
 10
3631.8387592219919497
 20
199.4928466622066026
 30
0.0
 40
0.0469999999999999
  0
CIRCLE
  5
D112
  8
0
 10
3630.1556825002921869
 20
198.8678466622066878
 30
0.0
 40
0.0469999999999999
  0
CIRCLE
  5
D113
  8
0
 10
3631.8387592219919497
 20
198.2428466622066026
 30
0.0
 40
0.0469999999999999
  0
CIRCLE
  5
D114
  8
0
 10
3633.3824505225920802
 20
198.8678466622066878
 30
0.0
 40
0.0469999999999999
  0
CIRCLE
  5
D115
  8
0
 10
3635.0505227854919212
 20
199.4928466622066026
 30
0.0
 40
0.0469999999999999
  0
CIRCLE
  5
D116
  8
0
 10
3635.0505227854919212
 20
198.2428466622066026
 30
0.0
 40
0.0469999999999999
  0
CIRCLE
  5
D117
  8
0
 10
3636.6092185448910641
 20
198.8678466622066878
 30
0.0
 40
0.0469999999999999
  0
CIRCLE
  5
D118
  8
0
 10
3638.2622863489918927
 20
199.4928466622066026
 30
0.0
 40
0.0469999999999999
  0
CIRCLE
  5
D119
  8
0
 10
3638.2622863489918927
 20
198.2428466622066026
 30
0.0
 40
0.0469999999999999
  0
CIRCLE
  5
D11A
  8
0
 10
3639.835986567090913
 20
198.8678466622066878
 30
0.0
 40
0.0469999999999999
  0
CIRCLE
  5
D11B
  8
0
 10
3641.4740499124918642
 20
199.4928466622066026
 30
0.0
 40
0.0469999999999999
  0
CIRCLE
  5
D11C
  8
0
 10
3641.4740499124918642
 20
198.2428466622066026
 30
0.0
 40
0.0469999999999999
  0
CIRCLE
  5
D11D
  8
0
 10
3643.0627545893921706
 20
198.8678466622066878
 30
0.0
 40
0.0469999999999999
  0
CIRCLE
  5
D11E
  8
0
 10
3644.6858134759909262
 20
199.4928466622066026
 30
0.0
 40
0.0469999999999999
  0
CIRCLE
  5
D11F
  8
0
 10
3644.6858134759909262
 20
198.2428466622066026
 30
0.0
 40
0.0469999999999999
  0
CIRCLE
  5
D120
  8
0
 10
3647.8975770394918072
 20
199.4928466622066026
 30
0.0
 40
0.0469999999999999
  0
CIRCLE
  5
D121
  8
0
 10
3647.8975770394918072
 20
198.2428466622066026
 30
0.0
 40
0.0469999999999999
  0
CIRCLE
  5
D122
  8
0
 10
3649.5162906339919573
 20
198.8678466622066878
 30
0.0
 40
0.0469999999999999
  0
CIRCLE
  5
D123
  8
0
 10
3651.1093406029908692
 20
199.4928466622066026
 30
0.0
 40
0.0469999999999999
  0
CIRCLE
  5
D124
  8
0
 10
3654.321104166492205
 20
199.4928466622066026
 30
0.0
 40
0.0469999999999999
  0
CIRCLE
  5
D125
  8
0
 10
3652.7430586562909411
 20
198.8678466622066878
 30
0.0
 40
0.0469999999999999
  0
CIRCLE
  5
D126
  8
0
 10
3651.1093406029908692
 20
198.2428466622066026
 30
0.0
 40
0.0469999999999999
  0
CIRCLE
  5
D127
  8
0
 10
3654.321104166492205
 20
198.2428466622066026
 30
0.0
 40
0.0469999999999999
  0
ARC
  5
D128
  8
0
 10
3655.8893606411570545
 20
198.8674926250330088
 30
0.0
 40
0.0491968135110255
 50
111.028017164867606
 51
178.1501602392372945
  0
ARC
  5
D129
  8
0
 10
3655.8820336825438062
 20
198.8865521426783971
 30
0.0
 40
0.0287774713225512
 50
31.5454853081447197
 51
111.0280171648678049
  0
ARC
  5
D12A
  8
0
 10
3655.8525680045190711
 20
198.8684633601966993
 30
0.0
 40
0.0633524656551198
 50
358.3195184491993928
 51
31.5454853081447197
  0
ARC
  5
D12B
  8
0
 10
3655.8656473640498916
 20
198.8680796333783007
 30
0.0
 40
0.0502674783796916
 50
313.3828528604130952
 51
358.3195184491993928
  0
ARC
  5
D12C
  8
0
 10
3655.8752296176658092
 20
198.8579406078355873
 30
0.0
 40
0.0363168718227249
 50
246.8220470369174961
 51
313.3828528604125268
  0
ARC
  5
D12D
  8
0
 10
3655.8855459710121067
 20
198.8631179560460964
 30
0.0
 40
0.0457467697054218
 50
172.5106117681237947
 51
237.4546594016613028
  0
ARC
  5
D12E
  8
0
 10
3656.7374546231571912
 20
198.2720246048627075
 30
0.0
 40
0.0240085831899286
 50
134.9636965542709106
 51
169.0980115515505133
  0
ARC
  5
D12F
  8
0
 10
3656.7226719968439284
 20
198.2868259760315084
 30
0.0
 40
0.0030895337575909
 50
20.5831701106962583
 51
134.9636965542927953
  0
ARC
  5
D130
  8
0
 10
3656.7003575678049856
 20
198.2737826100571965
 30
0.0
 40
0.0288967734387313
 50
7.6376010106886074
 51
29.2726500545544184
  0
ARC
  5
D131
  8
0
 10
3656.5493119913749069
 20
198.2544680579337069
 30
0.0
 40
0.1811717864889301
 50
345.1364500984004167
 51
7.3429202983833646
  0
ARC
  5
D132
  8
0
 10
3656.6948427282250123
 20
198.2161056418289888
 30
0.0
 40
0.0306709763554228
 50
321.3530171223890193
 51
344.6648330479698075
  0
ARC
  5
D133
  8
0
 10
3656.7163677982139234
 20
198.1991479841045987
 30
0.0
 40
0.0032753472025292
 50
213.6189778365763914
 51
317.8738771143986241
  0
ARC
  5
D134
  8
0
 10
3656.7833592228530506
 20
198.2275433716037867
 30
0.0
 40
0.0759822564596314
 50
175.3803216026377925
 51
203.4268274367067022
  0
ARC
  5
D135
  8
0
 10
3656.869017097851156
 20
198.2320376848263948
 30
0.0
 40
0.1614014704845884
 50
163.9854576120621061
 51
179.4229929550083966
  0
ARC
  5
D136
  8
0
 10
3656.781652281472816
 20
199.5232271142523928
 30
0.0
 40
0.0240085831899286
 50
134.9636965542709106
 51
169.0980115515505133
  0
ARC
  5
D137
  8
0
 10
3656.7668696551609173
 20
199.5380284854211936
 30
0.0
 40
0.0030895337575909
 50
20.5831701106962583
 51
134.9636965542927953
  0
ARC
  5
D138
  8
0
 10
3656.7445552261219746
 20
199.5249851194469102
 30
0.0
 40
0.0288967734387313
 50
7.6376010106886074
 51
29.2726500545544184
  0
ARC
  5
D139
  8
0
 10
3656.5935096496918959
 20
199.5056705673233068
 30
0.0
 40
0.1811717864889301
 50
345.1364500984004167
 51
7.3429202983833646
  0
ARC
  5
D13A
  8
0
 10
3656.7390403865420012
 20
199.4673081512187025
 30
0.0
 40
0.0306709763554228
 50
321.3530171223890193
 51
344.6648330479698075
  0
ARC
  5
D13B
  8
0
 10
3656.7605654565318218
 20
199.4503504934943123
 30
0.0
 40
0.0032753472025292
 50
213.6189778365763914
 51
317.8738771143986241
  0
ARC
  5
D13C
  8
0
 10
3656.8275568811691301
 20
199.4787458809933867
 30
0.0
 40
0.0759822564596314
 50
175.3803216026377925
 51
203.4268274367067022
  0
ARC
  5
D13D
  8
0
 10
3656.9132147561667807
 20
199.4832401942159947
 30
0.0
 40
0.1614014704845884
 50
163.9854576120621061
 51
179.4229929550083966
  0
ARC
  5
D13E
  8
0
 10
3610.8807025707269531
 20
198.8648935323890896
 30
0.0
 40
0.0491968135110255
 50
18.3744648201213998
 51
85.4966078944937209
  0
ARC
  5
D13F
  8
0
 10
3610.8823058590160144
 20
198.8852498336756867
 30
0.0
 40
0.0287774713225512
 50
85.4966078944937209
 51
164.979139751216195
  0
ARC
  5
D140
  8
0
 10
3610.9156994787408621
 20
198.8762890081146111
 30
0.0
 40
0.0633524656551198
 50
164.979139751216195
 51
198.2051066101614083
  0
ARC
  5
D141
  8
0
 10
3610.9032694708380404
 20
198.872201001812698
 30
0.0
 40
0.0502674783796916
 50
198.2051066101622041
 51
243.1417721989487006
  0
ARC
  5
D142
  8
0
 10
3610.8969668042418562
 20
198.8597552870041909
 30
0.0
 40
0.0363168718227249
 50
243.1417721989487006
 51
309.7025780224349774
  0
ARC
  5
D143
  8
0
 10
3610.8856039615238842
 20
198.8617845445608054
 30
0.0
 40
0.0457467697054218
 50
319.0699656577132259
 51
24.0140132912318194
  0
ARC
  5
D144
  8
0
 10
3610.1464101390629367
 20
198.2675205716203948
 30
0.0
 40
0.0240085831899286
 50
27.4266135078100213
 51
61.5609285050909278
  0
ARC
  5
D145
  8
0
 10
3610.1563722914947903
 20
198.2859151944236942
 30
0.0
 40
0.0030895337575909
 50
61.5609285050664781
 51
175.9414549486627095
  0
ARC
  5
D146
  8
0
 10
3610.1814749713857964
 20
198.2797573862447109
 30
0.0
 40
0.0288967734387313
 50
167.251975004805189
 51
188.8870240486726004
  0
ARC
  5
D147
  8
0
 10
3610.3317755879497781
 20
198.3042020736660049
 30
0.0
 40
0.1811717864889301
 50
189.181704760976686
 51
211.3881749609554106
  0
ARC
  5
D148
  8
0
 10
3610.2031669453199356
 20
198.2260311879200003
 30
0.0
 40
0.0306709763554228
 50
211.8597920113934947
 51
235.1716079369595036
  0
ARC
  5
D149
  8
0
 10
3610.1873541354489134
 20
198.2036516026352899
 30
0.0
 40
0.0032753472025292
 50
238.6507479449643938
 51
342.905647222778498
  0
ARC
  5
D14A
  8
0
 10
3610.1150531923130984
 20
198.2118199946393133
 30
0.0
 40
0.0759822564596314
 50
353.0977976226520241
 51
21.1443034567235983
  0
ARC
  5
D14B
  8
0
 10
3610.0316548889991282
 20
198.191765234486212
 30
0.0
 40
0.1614014704845884
 50
17.1016321043538788
 51
32.5391674472927619
  0
ARC
  5
D14C
  8
0
 10
3609.7790370728707785
 20
199.5107141017041954
 30
0.0
 40
0.0240085831899286
 50
27.4266135078100213
 51
61.5609285050909278
  0
ARC
  5
D14D
  8
0
 10
3609.7889992253030869
 20
199.5291087245074948
 30
0.0
 40
0.0030895337575909
 50
61.5609285050664781
 51
175.9414549486627095
  0
ARC
  5
D14E
  8
0
 10
3609.814101905194093
 20
199.5229509163283979
 30
0.0
 40
0.0288967734387313
 50
167.251975004805189
 51
188.8870240486726004
  0
ARC
  5
D14F
  8
0
 10
3609.9644025217580747
 20
199.5473956037496919
 30
0.0
 40
0.1811717864889301
 50
189.181704760976686
 51
211.3881749609554106
  0
ARC
  5
D150
  8
0
 10
3609.8357938791277775
 20
199.4692247180036873
 30
0.0
 40
0.0306709763554228
 50
211.8597920113934947
 51
235.1716079369595036
  0
ARC
  5
D151
  8
0
 10
3609.8199810692558458
 20
199.4468451327190905
 30
0.0
 40
0.0032753472025292
 50
238.6507479449643938
 51
342.9056472227794075
  0
ARC
  5
D152
  8
0
 10
3609.7476801261209403
 20
199.4550135247230003
 30
0.0
 40
0.0759822564596314
 50
353.0977976226520241
 51
21.1443034567235983
  0
ARC
  5
D153
  8
0
 10
3609.66428182280697
 20
199.4349587645698989
 30
0.0
 40
0.1614014704845884
 50
17.1016321043538788
 51
32.5391674472927619
  0
LINE
  5
D155
  8
0
 10
3647.4172560666870595
 20
194.1057018420067948
 30
0.0
 11
3648.1765470981908948
 21
194.0791868149067056
 31
0.0
  0
ENDSEC
  0
EOF
