  0
SECTION
  2
HEADER
  9
$ACADVER
  1
AC1009
  9
$INSBASE
 10
3648.8691664569541899
 20
175.9207717266814939
 30
0.0
  9
$EXTMIN
 10
3632.6100513913538634
 20
153.9153677353770888
 30
-0.0000000349181948
  9
$EXTMAX
 10
3664.9783605010488827
 20
175.9382764185205872
 30
0.0000000814935746
  9
$LIMMIN
 10
0.0
 20
0.0
  9
$LIMMAX
 10
11.6929133858000007
 20
8.2677165353999982
  9
$ORTHOMODE
 70
     0
  9
$REGENMODE
 70
     1
  9
$FILLMODE
 70
     1
  9
$QTEXTMODE
 70
     0
  9
$MIRRTEXT
 70
     0
  9
$DRAGMODE
 70
     2
  9
$LTSCALE
 40
0.6431102362
  9
$OSMODE
 70
  4095
  9
$ATTMODE
 70
     1
  9
$TEXTSIZE
 40
0.2
  9
$TRACEWID
 40
0.05
  9
$TEXTSTYLE
  7
STANDARD
  9
$CLAYER
  8
0
  9
$CELTYPE
  6
BYLAYER
  9
$CECOLOR
 62
   256
  9
$DIMSCALE
 40
1.0
  9
$DIMASZ
 40
0.1875
  9
$DIMEXO
 40
0.0625
  9
$DIMDLI
 40
0.4443307087
  9
$DIMRND
 40
0.0
  9
$DIMDLE
 40
0.0
  9
$DIMEXE
 40
0.125
  9
$DIMTP
 40
0.01
  9
$DIMTM
 40
0.01
  9
$DIMTXT
 40
2.0
  9
$DIMCEN
 40
0.1052362205
  9
$DIMTSZ
 40
0.0
  9
$DIMTOL
 70
     1
  9
$DIMLIM
 70
     0
  9
$DIMTIH
 70
     1
  9
$DIMTOH
 70
     1
  9
$DIMSE1
 70
     0
  9
$DIMSE2
 70
     0
  9
$DIMTAD
 70
     0
  9
$DIMZIN
 70
     0
  9
$DIMBLK
  1

  9
$DIMASO
 70
     1
  9
$DIMSHO
 70
     1
  9
$DIMPOST
  1
\X
  9
$DIMAPOST
  1

  9
$DIMALT
 70
     1
  9
$DIMALTD
 70
     2
  9
$DIMALTF
 40
25.3999999999999986
  9
$DIMLFAC
 40
1.0
  9
$DIMTOFL
 70
     0
  9
$DIMTVP
 40
0.0
  9
$DIMTIX
 70
     0
  9
$DIMSOXD
 70
     0
  9
$DIMSAH
 70
     0
  9
$DIMBLK1
  1

  9
$DIMBLK2
  1

  9
$DIMSTYLE
  2
STANDARD
  9
$DIMCLRD
 70
     0
  9
$DIMCLRE
 70
     0
  9
$DIMCLRT
 70
     0
  9
$DIMTFAC
 40
1.0
  9
$DIMGAP
 40
0.09
  9
$LUNITS
 70
     2
  9
$LUPREC
 70
     4
  9
$SKETCHINC
 40
0.1
  9
$FILLETRAD
 40
0.0
  9
$AUNITS
 70
     0
  9
$AUPREC
 70
     0
  9
$MENU
  1
.
  9
$ELEVATION
 40
0.0
  9
$PELEVATION
 40
0.0
  9
$THICKNESS
 40
0.0
  9
$LIMCHECK
 70
     0
  9
$BLIPMODE
 70
     0
  9
$CHAMFERA
 40
0.0
  9
$CHAMFERB
 40
0.0
  9
$SKPOLY
 70
     0
  9
$TDCREATE
 40
2458060.468368056230247
  9
$TDUPDATE
 40
2460889.5913657411001623
  9
$TDINDWG
 40
0.4905394676
  9
$TDUSRTIMER
 40
0.4905394676
  9
$USRTIMER
 70
     1
  9
$ANGBASE
 50
0.0
  9
$ANGDIR
 70
     0
  9
$PDMODE
 70
     0
  9
$PDSIZE
 40
0.3125
  9
$PLINEWID
 40
0.0
  9
$COORDS
 70
     1
  9
$SPLFRAME
 70
     0
  9
$SPLINETYPE
 70
     6
  9
$SPLINESEGS
 70
     8
  9
$ATTDIA
 70
     1
  9
$ATTREQ
 70
     1
  9
$HANDLING
 70
     1
  9
$HANDSEED
  5
C36A
  9
$SURFTAB1
 70
     6
  9
$SURFTAB2
 70
     6
  9
$SURFTYPE
 70
     6
  9
$SURFU
 70
     6
  9
$SURFV
 70
     6
  9
$UCSNAME
  2

  9
$UCSORG
 10
0.0
 20
0.0
 30
0.0
  9
$UCSXDIR
 10
1.0
 20
0.0
 30
0.0
  9
$UCSYDIR
 10
0.0
 20
1.0
 30
0.0
  9
$PUCSNAME
  2

  9
$PUCSORG
 10
0.0
 20
0.0
 30
0.0
  9
$PUCSXDIR
 10
1.0
 20
0.0
 30
0.0
  9
$PUCSYDIR
 10
0.0
 20
1.0
 30
0.0
  9
$USERI1
 70
     0
  9
$USERI2
 70
     0
  9
$USERI3
 70
     0
  9
$USERI4
 70
     0
  9
$USERI5
 70
     0
  9
$USERR1
 40
0.0
  9
$USERR2
 40
0.0
  9
$USERR3
 40
0.0
  9
$USERR4
 40
0.0
  9
$USERR5
 40
0.0
  9
$WORLDVIEW
 70
     1
  9
$SHADEDGE
 70
     3
  9
$SHADEDIF
 70
    70
  9
$TILEMODE
 70
     1
  9
$MAXACTVP
 70
    64
  9
$PLIMCHECK
 70
     0
  9
$PEXTMIN
 10
1.0000000000000000E+20
 20
1.0000000000000000E+20
 30
1.0000000000000000E+20
  9
$PEXTMAX
 10
-1.0000000000000000E+20
 20
-1.0000000000000000E+20
 30
-1.0000000000000000E+20
  9
$PLIMMIN
 10
0.0
 20
0.0
  9
$PLIMMAX
 10
12.0
 20
9.0
  9
$UNITMODE
 70
     0
  9
$VISRETAIN
 70
     1
  9
$PLINEGEN
 70
     0
  9
$PSLTSCALE
 70
     1
  0
ENDSEC
  0
SECTION
  2
TABLES
  0
TABLE
  2
VPORT
 70
     1
  0
VPORT
  2
*ACTIVE
 70
     0
 10
0.0
 20
0.0
 11
1.0
 21
1.0
 12
515.8768475477636457
 22
-24.7214174541945191
 13
0.0
 23
0.0
 14
1.0
 24
1.0
 15
0.0
 25
0.0
 16
0.0
 26
0.0
 36
71.4061910302851857
 17
3132.9173583984370453
 27
189.6482395311433891
 37
0.0
 40
22.1838556406330305
 41
2.2939024390243898
 42
50.0
 43
0.0
 44
0.0
 50
0.0
 51
0.0
 71
     0
 72
   100
 73
     1
 74
     1
 75
     0
 76
     0
 77
     0
 78
     0
  0
ENDTAB
  0
TABLE
  2
LTYPE
 70
     2
  0
LTYPE
  2
CONTINUOUS
 70
     0
  3
Solid line
 72
    65
 73
     0
 40
0.0
  0
LTYPE
  2
PHANTOM2
 70
     0
  3
___ _ _ ___ _ _ ___ _ _ ___ _ _
 72
    65
 73
     6
 40
1.25
 49
0.625
 49
-0.125
 49
0.125
 49
-0.125
 49
0.125
 49
-0.125
  0
ENDTAB
  0
TABLE
  2
LAYER
 70
     2
  0
LAYER
  2
0
 70
     0
 62
   255
  6
CONTINUOUS
  0
LAYER
  2
DEFPOINTS
 70
     0
 62
     7
  6
CONTINUOUS
  0
ENDTAB
  0
TABLE
  2
STYLE
 70
     1
  0
STYLE
  2
STANDARD
 70
     0
 40
0.0
 41
0.8
 50
0.0
 71
     0
 42
0.2
  3
txt
  4

  0
ENDTAB
  0
TABLE
  2
VIEW
 70
     0
  0
ENDTAB
  0
TABLE
  2
UCS
 70
     0
  0
ENDTAB
  0
TABLE
  2
APPID
 70
     9
  0
APPID
  2
ACAD
 70
     0
  0
APPID
  2
ACAD_MLEADERVER
 70
     0
  0
APPID
  2
ACAD_EXEMPT_FROM_CAD_STANDARDS
 70
     0
  0
APPID
  2
ACAD_NAV_VCDISPLAY
 70
     0
  0
APPID
  2
ACAECLAYERSTANDARD
 70
     0
  0
APPID
  2
ACCMTRANSPARENCY
 70
     0
  0
APPID
  2
ACAD_DSTYLE_DIMJAG
 70
     0
  0
APPID
  2
ACAD_DSTYLE_DIMTALN
 70
     0
  0
APPID
  2
ACDBATTR
 70
     0
  0
ENDTAB
  0
TABLE
  2
DIMSTYLE
 70
     1
  0
DIMSTYLE
  2
STANDARD
 70
     0
  3

  4

  5

  6

  7

 40
1.0
 41
0.1875
 42
0.0625
 43
0.38
 44
0.125
 45
0.0
 46
0.0
 47
0.01
 48
0.01
140
0.15625
141
0.09
142
0.0
143
25.3999999999999986
144
1.0
145
0.0
146
1.0
147
0.09
 71
     1
 72
     0
 73
     1
 74
     1
 75
     0
 76
     0
 77
     0
 78
     4
170
     0
171
     2
172
     0
173
     0
174
     0
175
     0
176
     0
177
     0
178
     0
  0
ENDTAB
  0
ENDSEC
  0
SECTION
  2
BLOCKS
  0
BLOCK
  8
0
  2
$MODEL_SPACE
 70
     0
 10
0.0
 20
0.0
 30
0.0
  3
$MODEL_SPACE
  1

  0
ENDBLK
  5
21
  8
0
  0
BLOCK
 67
     1
  8
0
  2
$PAPER_SPACE
 70
     0
 10
0.0
 20
0.0
 30
0.0
  3
$PAPER_SPACE
  1

  0
ENDBLK
  5
1D
 67
     1
  8
0
  0
BLOCK
  8
0
  2
_FILLED
 70
     0
 10
0.0
 20
0.0
 30
0.0
  3
_FILLED
  1

  0
SOLID
  5
9A2B
  8
0
  6
BYBLOCK
 62
     0
 10
0.0
 20
0.0
 30
0.0
 11
-1.0
 21
0.1666666667
 31
0.0
 12
-1.0
 22
-0.1666666667
 32
0.0
 13
-1.0
 23
-0.1666666667
 33
0.0
  0
ENDBLK
  5
9A2C
  8
0
  6
BYBLOCK
 62
     0
  0
ENDSEC
  0
SECTION
  2
ENTITIES
  0
ATTDEF
  5
3930
  8
DEFPOINTS
 10
3648.859904260399162
 20
175.9251618913569075
 30
0.0
 40
0.001
  1
P50047-G5
  3

  2
MODELNUMBER
 70
     0
1001
ACDBATTR
1070
     0
1070
     1
  0
ATTDEF
  5
3931
  8
DEFPOINTS
 10
3648.859904260399162
 20
175.9234952246902992
 30
0.0
 40
0.001
  1
KALLISTA
  3

  2
BRANDNAME
 70
     0
1001
ACDBATTR
1070
     0
1070
     1
  0
ATTDEF
  5
3932
  8
DEFPOINTS
 10
3648.859904260399162
 20
175.9218285580236056
 30
0.0
 40
0.001
  1
BATH
  3

  2
PRODUCT
 70
     0
1001
ACDBATTR
1070
     0
1070
     1
  0
LINE
  5
C1D5
  8
0
 10
3632.869166456946914
 20
174.9207717266814939
 30
0.0
 11
3664.869166456946914
 21
174.9207717266814939
 31
0.0
  0
LINE
  5
C1D6
  8
0
 10
3633.4443506605598486
 20
175.9207717266814939
 30
0.0
 11
3664.293982253347167
 21
175.9207717266814939
 31
0.0
  0
ARC
  5
C1D7
  8
0
 10
3633.4443506605598486
 20
175.4207717266814939
 30
0.0
 40
0.5
 50
90.0
 51
171.9999999998219948
  0
LINE
  5
C1D8
  8
0
 10
3632.869166456946914
 20
174.9207717266814939
 30
0.0
 11
3632.9492166261888997
 21
175.4903582771630965
 31
0.0
  0
LINE
  5
C1D9
  8
0
 10
3664.869166456946914
 20
174.9207717266814939
 30
0.0
 11
3664.7891162877199349
 21
175.4903582771526089
 31
0.0
  0
ARC
  5
C1DA
  8
0
 10
3664.293982253347167
 20
175.4207717266814939
 30
0.0
 40
0.5
 50
7.9999999989673141
 51
90.0
  0
CIRCLE
  5
C1DB
  8
0
 10
3645.6574028934469425
 20
158.9207717266814939
 30
0.0
 40
0.0469999999999981
  0
CIRCLE
  5
C1DC
  8
0
 10
3639.2393930361681669
 20
160.1707256890819053
 30
0.0
 40
0.0469999999999981
  0
CIRCLE
  5
C1DD
  8
0
 10
3639.2377033736970589
 20
158.9198945895313955
 30
0.0
 40
0.0469999999999981
  0
CIRCLE
  5
C1DE
  8
0
 10
3640.8097486306469364
 20
159.5457717266814939
 30
0.0
 40
0.0469999999999981
  0
CIRCLE
  5
C1DF
  8
0
 10
3642.4456393299478805
 20
160.1707717266814939
 30
0.0
 40
0.0469999999999981
  0
CIRCLE
  5
C1E0
  8
0
 10
3642.4456393299478805
 20
158.9207717266814939
 30
0.0
 40
0.0469999999999981
  0
CIRCLE
  5
C1E1
  8
0
 10
3644.0365166529468297
 20
159.5457717266814939
 30
0.0
 40
0.0469999999999981
  0
CIRCLE
  5
C1E2
  8
0
 10
3645.6574028934469425
 20
160.1707717266814939
 30
0.0
 40
0.0469999999999981
  0
CIRCLE
  5
C1E3
  8
0
 10
3647.2632846751480429
 20
159.5457717266814939
 30
0.0
 40
0.0469999999999981
  0
CIRCLE
  5
C1E4
  8
0
 10
3648.869166456946914
 20
160.1707717266814939
 30
0.0
 40
0.0469999999999981
  0
CIRCLE
  5
C1E5
  8
0
 10
3648.869166456946914
 20
158.9207717266814939
 30
0.0
 40
0.0469999999999981
  0
CIRCLE
  5
C1E6
  8
0
 10
3652.0809300204468855
 20
160.1707717266814939
 30
0.0
 40
0.0469999999999981
  0
CIRCLE
  5
C1E7
  8
0
 10
3652.0809300204468855
 20
158.9207717266814939
 30
0.0
 40
0.0469999999999981
  0
CIRCLE
  5
C1E8
  8
0
 10
3650.4900526974479362
 20
159.5457717266814939
 30
0.0
 40
0.0469999999999981
  0
CIRCLE
  5
C1E9
  8
0
 10
3653.7168207197469201
 20
159.5457717266814939
 30
0.0
 40
0.0469999999999981
  0
CIRCLE
  5
C1EA
  8
0
 10
3655.292693583946857
 20
160.1707717266814939
 30
0.0
 40
0.0469999999999981
  0
CIRCLE
  5
C1EB
  8
0
 10
3655.292693583946857
 20
158.9207717266814939
 30
0.0
 40
0.0469999999999981
  0
CIRCLE
  5
C1EC
  8
0
 10
3656.9435887420468134
 20
159.5457717266814939
 30
0.0
 40
0.0469999999999981
  0
CIRCLE
  5
C1ED
  8
0
 10
3658.5017704326110106
 20
158.9200427574405978
 30
0.0
 40
0.0469999999999981
  0
CIRCLE
  5
C1EE
  8
0
 10
3658.5136459207969892
 20
160.1702862057229027
 30
0.0
 40
0.0469999999999981
  0
CIRCLE
  5
C1EF
  8
0
 10
3644.3721976736460419
 20
157.3862810103117909
 30
0.0
 40
0.0851905441932742
  0
CIRCLE
  5
C1F0
  8
0
 10
3653.3665111093218911
 20
157.3924424917636031
 30
0.0
 40
0.0851905441932742
  0
ARC
  5
C1F1
  8
0
 10
3648.8691664620560005
 20
172.48681347440629
 30
0.0
 40
1.2883178455944191
 50
227.7404630727183132
 51
312.2994897361667199
  0
ARC
  5
C1F2
  8
0
 10
3648.869183830286147
 20
172.436998392800092
 30
0.0
 40
1.251909718268694
 50
313.8334524314437886
 51
226.206500377454006
  0
LINE
  5
C1F3
  8
0
 10
3635.6982023847472192
 20
174.9207717266814939
 30
0.0
 11
3637.7657445013469442
 21
156.8234059562815048
 31
0.0
  0
ARC
  5
C1F4
  8
0
 10
3674.2912069127269206
 20
1153.6223494754829062
 30
0.0
 40
999.2156649293074224
 50
268.0280436963338957
 51
268.3693854772164968
  0
LINE
  5
C1F5
  8
0
 10
3645.8577751472480486
 20
154.8113137944814923
 30
0.0
 11
3645.8577751472480486
 21
154.4026764300814989
 31
0.0
  0
LINE
  5
C1F6
  8
0
 10
3645.8577751472480486
 20
154.4026764300814989
 30
0.0
 11
3643.4018831971470718
 21
154.4884380574814884
 31
0.0
  0
LINE
  5
C1F7
  8
0
 10
3643.4018831971470718
 20
154.4941514900814923
 30
0.0
 11
3643.4018831971470718
 21
153.9207717266814939
 31
0.0
  0
LINE
  5
C1F8
  8
0
 10
3643.4018831971470718
 20
153.9207717266814939
 30
0.0
 11
3641.9018831971470718
 21
153.9207717266814939
 31
0.0
  0
LINE
  5
C1F9
  8
0
 10
3641.9018831971470718
 20
153.9207717266814939
 30
0.0
 11
3641.9018831971470718
 21
154.545327896381508
 31
0.0
  0
LINE
  5
C1FA
  8
0
 10
3641.9018831971470718
 20
154.5408192117814963
 30
0.0
 11
3639.9077751472468663
 21
154.6104549992815009
 31
0.0
  0
LINE
  5
C1FB
  8
0
 10
3639.9077751472468663
 20
154.6104549992815009
 30
0.0
 11
3639.9078602772851809
 21
154.9984310185575964
 31
0.0
  0
LINE
  5
C1FC
  8
0
 10
3641.9018831971470718
 20
154.545327896381508
 30
0.0
 11
3643.4018831971470718
 21
154.4941514900814923
 31
0.0
  0
LINE
  5
C1FD
  8
0
 10
3645.8941664569470049
 20
154.7766341873814895
 30
0.0
 11
3645.8941668334941824
 21
154.4494785871289935
 31
0.0
  0
LINE
  5
C1FE
  8
0
 10
3645.8941668334941824
 20
154.4494785871289935
 30
0.0
 11
3647.1508088669711469
 21
154.4235962332417955
 31
0.0
  0
LINE
  5
C1FF
  8
0
 10
3645.8577751472480486
 20
154.7778974973176105
 30
0.0
 11
3646.7079212808571356
 21
154.7483850116246913
 31
0.0
  0
LINE
  5
C200
  8
0
 10
3646.9162612168838677
 20
154.6578828005739865
 30
0.0
 11
3647.1508088669711469
 21
154.4235962332417955
 31
0.0
  0
ARC
  5
C201
  8
0
 10
3646.6971662323871897
 20
154.4385716340368049
 30
0.0
 40
0.31
 50
45.0282530649513788
 51
88.0117981556000188
  0
LINE
  5
C202
  8
0
 10
3647.4186789800619408
 20
154.3172318060815087
 30
0.0
 11
3650.3196537966518918
 21
154.3172318060815087
 31
0.0
  0
ARC
  5
C203
  8
0
 10
3647.4188727185451171
 20
154.7082064231173888
 30
0.0
 40
0.3909746650372123
 50
226.7148485055375886
 51
269.9716083960150854
  0
LINE
  5
C204
  8
0
 10
3651.8805577665480087
 20
154.7779049999815015
 30
0.0
 11
3651.0301737582722126
 21
154.7482089360576083
 31
0.0
  0
ARC
  5
C205
  8
0
 10
3651.0409926022471154
 20
154.4383977796815088
 30
0.0
 40
0.31
 50
91.9999999994300737
 51
134.9717363387709952
  0
LINE
  5
C206
  8
0
 10
3650.5875520570079971
 20
154.4235944739949105
 30
0.0
 11
3650.8218976583088988
 21
154.6577089867381005
 31
0.0
  0
ARC
  5
C207
  8
0
 10
3650.3194299410088206
 20
154.7083579301942109
 30
0.0
 40
0.3911261881730596
 50
270.0327924458281927
 51
313.2759709651346043
  0
LINE
  5
C208
  8
0
 10
3651.844166456946823
 20
154.7766341873814895
 30
0.0
 11
3651.844166456946823
 21
154.4494630339814876
 31
0.0
  0
LINE
  5
C209
  8
0
 10
3651.844166456946823
 20
154.4494630339814876
 30
0.0
 11
3650.5875520570079971
 21
154.4235944739949105
 31
0.0
  0
LINE
  5
C20A
  8
0
 10
3649.6496654699471947
 20
154.3172318060815087
 30
0.0
 11
3649.6496654699471947
 21
153.9207717266814939
 31
0.0
  0
LINE
  5
C20B
  8
0
 10
3649.6496654699471947
 20
153.9207717266814939
 30
0.0
 11
3648.1496654699471947
 21
153.9207717266814939
 31
0.0
  0
LINE
  5
C20C
  8
0
 10
3648.1496654699471947
 20
153.9207717266814939
 30
0.0
 11
3648.1496654699471947
 21
154.3172318060815087
 31
0.0
  0
ARC
  5
C20D
  8
0
 10
3623.4471260010682272
 20
1153.6223494942830712
 30
0.0
 40
999.2156649293074224
 50
271.6306145227833895
 51
271.9719563036659906
  0
LINE
  5
C20E
  8
0
 10
3651.8805577665480087
 20
154.8113138132814868
 30
0.0
 11
3651.8805577665480087
 21
154.402676448881607
 31
0.0
  0
LINE
  5
C20F
  8
0
 10
3651.8805577665480087
 20
154.402676448881607
 30
0.0
 11
3654.3974477427468628
 21
154.4905681554814976
 31
0.0
  0
LINE
  5
C210
  8
0
 10
3654.3974477427468628
 20
154.4961804111815979
 30
0.0
 11
3654.3974477427468628
 21
153.9207717266814939
 31
0.0
  0
LINE
  5
C211
  8
0
 10
3654.3974477427468628
 20
153.9207717266814939
 30
0.0
 11
3655.8974477427468628
 21
153.9207717266814939
 31
0.0
  0
LINE
  5
C212
  8
0
 10
3655.8974477427468628
 20
153.9207717266814939
 30
0.0
 11
3655.8974477427468628
 21
154.5474195667815138
 31
0.0
  0
LINE
  5
C213
  8
0
 10
3655.8974477427468628
 20
154.5474195667815138
 30
0.0
 11
3657.8305577665469173
 21
154.6104550180816091
 31
0.0
  0
LINE
  5
C214
  8
0
 10
3657.8305577665469173
 20
154.6104550180816091
 30
0.0
 11
3657.8304726365090573
 21
154.9984310373575909
 31
0.0
  0
LINE
  5
C215
  8
0
 10
3655.8974477427468628
 20
154.5474195667815138
 30
0.0
 11
3654.3974477427468628
 21
154.4961804111815979
 31
0.0
  0
ARC
  5
C216
  8
0
 10
3639.9770826927770031
 20
157.2343769590615921
 30
0.0
 40
2.2492029170357641
 50
190.5281454589984094
 51
268.2362943113183746
  0
LINE
  5
C217
  8
0
 10
3662.0401305290470191
 20
174.9207717266814939
 30
0.0
 11
3659.9833995278468137
 21
156.88654929008149
 31
0.0
  0
ARC
  5
C218
  8
0
 10
3657.73943450182378
 20
157.2462168959278017
 30
0.0
 40
2.2726063945859649
 50
272.2959480844427276
 51
350.8939596221342754
  0
LINE
  5
C21A
  8
0
 10
3646.7079212808571356
 20
154.7483850116246913
 30
0.0
 11
3651.0301737582722126
 21
154.7482089360576083
 31
0.0
  0
ENDSEC
  0
EOF
