  0
SECTION
  2
HEADER
  9
$ACADVER
  1
AC1009
  9
$INSBASE
 10
4695.8891665767232553
 20
234.7079235918222082
 30
0.0
  9
$EXTMIN
 10
4676.6111868539210263
 20
234.7025452667878085
 30
0.0
  9
$EXTMAX
 10
4695.8986777252021056
 20
236.8251007866223006
 30
0.0
  9
$LIMMIN
 10
0.0
 20
0.0
  9
$LIMMAX
 10
11.6929133858000007
 20
8.2677165353999982
  9
$ORTHOMODE
 70
     0
  9
$REGENMODE
 70
     1
  9
$FILLMODE
 70
     1
  9
$QTEXTMODE
 70
     0
  9
$MIRRTEXT
 70
     0
  9
$DRAGMODE
 70
     2
  9
$LTSCALE
 40
0.6431102362
  9
$OSMODE
 70
  4095
  9
$ATTMODE
 70
     1
  9
$TEXTSIZE
 40
0.2
  9
$TRACEWID
 40
0.05
  9
$TEXTSTYLE
  7
STANDARD
  9
$CLAYER
  8
0
  9
$CELTYPE
  6
BYLAYER
  9
$CECOLOR
 62
   256
  9
$DIMSCALE
 40
1.0
  9
$DIMASZ
 40
0.1875
  9
$DIMEXO
 40
0.0625
  9
$DIMDLI
 40
0.4443307087
  9
$DIMRND
 40
0.0
  9
$DIMDLE
 40
0.0
  9
$DIMEXE
 40
0.125
  9
$DIMTP
 40
0.01
  9
$DIMTM
 40
0.01
  9
$DIMTXT
 40
2.0
  9
$DIMCEN
 40
0.1052362205
  9
$DIMTSZ
 40
0.0
  9
$DIMTOL
 70
     1
  9
$DIMLIM
 70
     0
  9
$DIMTIH
 70
     1
  9
$DIMTOH
 70
     1
  9
$DIMSE1
 70
     0
  9
$DIMSE2
 70
     0
  9
$DIMTAD
 70
     0
  9
$DIMZIN
 70
     0
  9
$DIMBLK
  1

  9
$DIMASO
 70
     1
  9
$DIMSHO
 70
     1
  9
$DIMPOST
  1
\X
  9
$DIMAPOST
  1

  9
$DIMALT
 70
     1
  9
$DIMALTD
 70
     2
  9
$DIMALTF
 40
25.3999999999999986
  9
$DIMLFAC
 40
1.0
  9
$DIMTOFL
 70
     0
  9
$DIMTVP
 40
0.0
  9
$DIMTIX
 70
     0
  9
$DIMSOXD
 70
     0
  9
$DIMSAH
 70
     0
  9
$DIMBLK1
  1

  9
$DIMBLK2
  1

  9
$DIMSTYLE
  2
STANDARD
  9
$DIMCLRD
 70
     0
  9
$DIMCLRE
 70
     0
  9
$DIMCLRT
 70
     0
  9
$DIMTFAC
 40
1.0
  9
$DIMGAP
 40
0.09
  9
$LUNITS
 70
     2
  9
$LUPREC
 70
     4
  9
$SKETCHINC
 40
0.1
  9
$FILLETRAD
 40
0.0
  9
$AUNITS
 70
     0
  9
$AUPREC
 70
     0
  9
$MENU
  1
.
  9
$ELEVATION
 40
0.0
  9
$PELEVATION
 40
0.0
  9
$THICKNESS
 40
0.0
  9
$LIMCHECK
 70
     0
  9
$BLIPMODE
 70
     0
  9
$CHAMFERA
 40
0.0
  9
$CHAMFERB
 40
0.0
  9
$SKPOLY
 70
     0
  9
$TDCREATE
 40
2458060.468368056230247
  9
$TDUPDATE
 40
2461015.6410416672006249
  9
$TDINDWG
 40
0.5341853009
  9
$TDUSRTIMER
 40
0.5341853009
  9
$USRTIMER
 70
     1
  9
$ANGBASE
 50
0.0
  9
$ANGDIR
 70
     0
  9
$PDMODE
 70
     0
  9
$PDSIZE
 40
0.3125
  9
$PLINEWID
 40
0.0
  9
$COORDS
 70
     1
  9
$SPLFRAME
 70
     0
  9
$SPLINETYPE
 70
     6
  9
$SPLINESEGS
 70
     8
  9
$ATTDIA
 70
     1
  9
$ATTREQ
 70
     1
  9
$HANDLING
 70
     1
  9
$HANDSEED
  5
110F2
  9
$SURFTAB1
 70
     6
  9
$SURFTAB2
 70
     6
  9
$SURFTYPE
 70
     6
  9
$SURFU
 70
     6
  9
$SURFV
 70
     6
  9
$UCSNAME
  2

  9
$UCSORG
 10
0.0
 20
0.0
 30
0.0
  9
$UCSXDIR
 10
1.0
 20
0.0
 30
0.0
  9
$UCSYDIR
 10
0.0
 20
1.0
 30
0.0
  9
$PUCSNAME
  2

  9
$PUCSORG
 10
0.0
 20
0.0
 30
0.0
  9
$PUCSXDIR
 10
1.0
 20
0.0
 30
0.0
  9
$PUCSYDIR
 10
0.0
 20
1.0
 30
0.0
  9
$USERI1
 70
     0
  9
$USERI2
 70
     0
  9
$USERI3
 70
     0
  9
$USERI4
 70
     0
  9
$USERI5
 70
     0
  9
$USERR1
 40
0.0
  9
$USERR2
 40
0.0
  9
$USERR3
 40
0.0
  9
$USERR4
 40
0.0
  9
$USERR5
 40
0.0
  9
$WORLDVIEW
 70
     1
  9
$SHADEDGE
 70
     3
  9
$SHADEDIF
 70
    70
  9
$TILEMODE
 70
     1
  9
$MAXACTVP
 70
    64
  9
$PLIMCHECK
 70
     0
  9
$PEXTMIN
 10
1.0000000000000000E+20
 20
1.0000000000000000E+20
 30
1.0000000000000000E+20
  9
$PEXTMAX
 10
-1.0000000000000000E+20
 20
-1.0000000000000000E+20
 30
-1.0000000000000000E+20
  9
$PLIMMIN
 10
0.0
 20
0.0
  9
$PLIMMAX
 10
12.0
 20
9.0
  9
$UNITMODE
 70
     0
  9
$VISRETAIN
 70
     1
  9
$PLINEGEN
 70
     0
  9
$PSLTSCALE
 70
     1
  0
ENDSEC
  0
SECTION
  2
TABLES
  0
TABLE
  2
VPORT
 70
     1
  0
VPORT
  2
*ACTIVE
 70
     0
 10
0.0
 20
0.0
 11
1.0
 21
1.0
 12
882.7305902650086864
 22
109.7664798595715041
 13
0.0
 23
0.0
 14
1.0
 24
1.0
 15
0.0
 25
0.0
 16
0.0
 26
0.0
 36
17.1152628219792007
 17
3803.5440673828129547
 27
125.9952621967499056
 37
0.0
 40
8.9873349244956202
 41
2.1719817767653748
 42
50.0
 43
0.0
 44
0.0
 50
0.0
 51
0.0
 71
     0
 72
   100
 73
     1
 74
     1
 75
     0
 76
     0
 77
     0
 78
     0
  0
ENDTAB
  0
TABLE
  2
LTYPE
 70
     2
  0
LTYPE
  2
CONTINUOUS
 70
     0
  3
Solid line
 72
    65
 73
     0
 40
0.0
  0
LTYPE
  2
PHANTOM2
 70
     0
  3
___ _ _ ___ _ _ ___ _ _ ___ _ _
 72
    65
 73
     6
 40
1.25
 49
0.625
 49
-0.125
 49
0.125
 49
-0.125
 49
0.125
 49
-0.125
  0
ENDTAB
  0
TABLE
  2
LAYER
 70
     2
  0
LAYER
  2
0
 70
     0
 62
   255
  6
CONTINUOUS
  0
LAYER
  2
DEFPOINTS
 70
     0
 62
     7
  6
CONTINUOUS
  0
ENDTAB
  0
TABLE
  2
STYLE
 70
     1
  0
STYLE
  2
STANDARD
 70
     0
 40
0.0
 41
0.8
 50
0.0
 71
     0
 42
0.2
  3
txt
  4

  0
ENDTAB
  0
TABLE
  2
VIEW
 70
     0
  0
ENDTAB
  0
TABLE
  2
UCS
 70
     0
  0
ENDTAB
  0
TABLE
  2
APPID
 70
     9
  0
APPID
  2
ACAD
 70
     0
  0
APPID
  2
ACAD_MLEADERVER
 70
     0
  0
APPID
  2
ACAD_EXEMPT_FROM_CAD_STANDARDS
 70
     0
  0
APPID
  2
ACAD_NAV_VCDISPLAY
 70
     0
  0
APPID
  2
ACAECLAYERSTANDARD
 70
     0
  0
APPID
  2
ACCMTRANSPARENCY
 70
     0
  0
APPID
  2
ACAD_DSTYLE_DIMJAG
 70
     0
  0
APPID
  2
ACAD_DSTYLE_DIMTALN
 70
     0
  0
APPID
  2
ACDBATTR
 70
     0
  0
ENDTAB
  0
TABLE
  2
DIMSTYLE
 70
     1
  0
DIMSTYLE
  2
STANDARD
 70
     0
  3

  4

  5

  6

  7

 40
1.0
 41
0.1875
 42
0.0625
 43
0.38
 44
0.125
 45
0.0
 46
0.0
 47
0.01
 48
0.01
140
0.15625
141
0.09
142
0.0
143
25.3999999999999986
144
1.0
145
0.0
146
1.0
147
0.09
 71
     1
 72
     0
 73
     1
 74
     1
 75
     0
 76
     0
 77
     0
 78
     4
170
     0
171
     2
172
     0
173
     0
174
     0
175
     0
176
     0
177
     0
178
     0
  0
ENDTAB
  0
ENDSEC
  0
SECTION
  2
BLOCKS
  0
BLOCK
  8
0
  2
$MODEL_SPACE
 70
     0
 10
0.0
 20
0.0
 30
0.0
  3
$MODEL_SPACE
  1

  0
ENDBLK
  5
21
  8
0
  0
BLOCK
 67
     1
  8
0
  2
$PAPER_SPACE
 70
     0
 10
0.0
 20
0.0
 30
0.0
  3
$PAPER_SPACE
  1

  0
ENDBLK
  5
1D
 67
     1
  8
0
  0
BLOCK
  8
0
  2
_FILLED
 70
     0
 10
0.0
 20
0.0
 30
0.0
  3
_FILLED
  1

  0
SOLID
  5
1065B
  8
0
  6
BYBLOCK
 62
     0
 10
0.0
 20
0.0
 30
0.0
 11
-1.0
 21
0.1666666667
 31
0.0
 12
-1.0
 22
-0.1666666667
 32
0.0
 13
-1.0
 23
-0.1666666667
 33
0.0
  0
ENDBLK
  5
1065C
  8
0
  6
BYBLOCK
 62
     0
  0
ENDSEC
  0
SECTION
  2
ENTITIES
  0
ATTDEF
  5
3930
  8
DEFPOINTS
 10
4695.8880110585341754
 20
234.7058786001211956
 30
0.0
 40
0.001
  1
P70303-BL
  3

  2
MODELNUMBER
 70
     0
1001
ACDBATTR
1070
     0
1070
     1
  0
ATTDEF
  5
3931
  8
DEFPOINTS
 10
4695.8880110585341754
 20
234.7042119334545021
 30
0.0
 40
0.001
  1
KALLISTA
  3

  2
BRANDNAME
 70
     0
1001
ACDBATTR
1070
     0
1070
     1
  0
ATTDEF
  5
3932
  8
DEFPOINTS
 10
4695.8880110585341754
 20
234.7025452667878085
 30
0.0
 40
0.001
  1
TOILET SEAT
  3

  2
PRODUCT
 70
     0
1001
ACDBATTR
1070
     0
1070
     1
  0
LINE
  5
10F1E
  8
0
 10
4693.8322082661607055
 20
236.8251007866221869
 30
0.0
 11
4693.8471718534838146
 21
236.8251007866221869
 31
0.0
  0
LINE
  5
10F1F
  8
0
 10
4676.7425915218209411
 20
234.9490290466222007
 30
0.0
 11
4688.0684937643000012
 21
234.9490290466222007
 31
0.0
  0
LINE
  5
10F20
  8
0
 10
4676.8528573787443747
 20
235.4749403360222004
 30
0.0
 11
4687.500965353783613
 21
235.4749403360222004
 31
0.0
  0
LINE
  5
10F21
  8
0
 10
4676.7435915218211449
 20
235.6580044950221975
 30
0.0
 11
4688.4359208697806025
 21
235.6580044950221975
 31
0.0
  0
LINE
  5
10F22
  8
0
 10
4676.6121868540212745
 20
235.7210044944222034
 30
0.0
 11
4687.4240101314517233
 21
235.7210044944222034
 31
0.0
  0
LINE
  5
10F23
  8
0
 10
4676.9345879883967427
 20
236.355027109134511
 30
0.0
 11
4679.5858064777048639
 21
236.355027109134511
 31
0.0
  0
LINE
  5
10F24
  8
0
 10
4679.0234597657690756
 20
234.8242543520221943
 30
0.0
 11
4681.3370448243704232
 21
234.8242543520221943
 31
0.0
  0
LINE
  5
10F25
  8
0
 10
4682.3553288478988179
 20
234.8242543520221943
 30
0.0
 11
4690.909180977790129
 21
234.8242543520221943
 31
0.0
  0
LINE
  5
10F26
  8
0
 10
4681.7715191535253325
 20
234.7093330867722045
 30
0.0
 11
4681.9271206385237747
 21
234.7093330867722045
 31
0.0
  0
ARC
  5
10F27
  8
0
 10
4677.8755707770942536
 20
235.7751085109555902
 30
0.0
 40
1.2607058827519071
 50
161.7703764065387873
 51
177.913722070592911
  0
ARC
  5
10F28
  8
0
 10
4792.1705942722383043
 20
231.7106465294627924
 30
0.0
 40
115.6279745392158986
 50
177.9628135088032082
 51
178.0123955372075955
  0
ARC
  5
10F29
  8
0
 10
4676.9345879883967427
 20
236.0850271091345007
 30
0.0
 40
0.27
 50
90.0
 51
161.7703764065387873
  0
ARC
  5
10F2A
  8
0
 10
4676.7455474555963519
 20
235.7913689037600022
 30
0.0
 40
0.133378750912247
 50
211.8402943616586072
 51
269.1597554590343861
  0
ARC
  5
10F2B
  8
0
 10
4676.7440458444643809
 20
235.0815919915170866
 30
0.0
 40
0.1325709222022546
 50
211.6500357585296115
 51
269.3714442085237124
  0
ARC
  5
10F2C
  8
0
 10
4681.6346460946097068
 20
234.8357774817627046
 30
0.0
 40
5.0265502115391678
 50
176.849541279492513
 51
177.9905725540197068
  0
ARC
  5
10F2D
  8
0
 10
4677.8598348189998433
 20
235.0435482294207929
 30
0.0
 40
1.2460252678230139
 50
170.4820560303199954
 51
176.849541279492513
  0
ARC
  5
10F2E
  8
0
 10
4676.8979316791173915
 20
235.2086364473354081
 30
0.0
 40
0.2700915653696774
 50
99.6067704428294149
 51
171.2794258616401919
  0
ARC
  5
10F2F
  8
0
 10
4676.8178317436832003
 20
235.6823687846845985
 30
0.0
 40
0.210364817462247
 50
279.5843540424743878
 51
323.1041996339091043
  0
ARC
  5
10F30
  8
0
 10
4677.2211879966207562
 20
235.3697447461221941
 30
0.0
 40
0.3000010581999981
 50
106.0843288355049054
 51
141.6038778970707881
  0
ARC
  5
10F31
  8
0
 10
4677.995785213621275
 20
233.6569851602224048
 30
0.0
 40
1.502217828799743
 50
53.9808052214369312
 51
59.3282762945060824
  0
ARC
  5
10F32
  8
0
 10
4679.0260673898883397
 20
235.0739831351181124
 30
0.0
 40
0.2497423969015097
 50
233.9720070756582118
 51
269.401749269153413
  0
ARC
  5
10F33
  8
0
 10
4661.7061555080026665
 20
232.4383813381936079
 30
0.0
 40
19.713600479419231
 50
7.1804345956459219
 51
7.3168365705925673
  0
ARC
  5
10F34
  8
0
 10
4681.2771879732208617
 20
234.9039882105122103
 30
0.0
 40
0.0121321813326604
 50
187.180434595650695
 51
219.2080726685126137
  0
ARC
  5
10F35
  8
0
 10
4681.745036613809134
 20
235.2856660273257035
 30
0.0
 40
0.6159204772995643
 50
219.2080726685138075
 51
228.5160785461648061
  0
ARC
  5
10F36
  8
0
 10
4681.5908268477587626
 20
235.1112650017591932
 30
0.0
 40
0.3831193397085453
 50
228.5160785461648061
 51
259.8978872510348879
  0
ARC
  5
10F37
  8
0
 10
4681.808414373589585
 20
236.332533557868004
 30
0.0
 40
1.623619729687144
 50
259.8978872510348879
 51
268.6978956148382167
  0
ARC
  5
10F38
  8
0
 10
4691.9198320256391526
 20
233.7187438108898903
 30
0.0
 40
9.5661299568289007
 50
172.6108177113501938
 51
172.8919111224242897
  0
ARC
  5
10F39
  8
0
 10
4682.4154061594481391
 20
234.9039452859634025
 30
0.0
 40
0.0119081294609214
 50
324.9602778290303036
 51
352.8919111224195149
  0
ARC
  5
10F3A
  8
0
 10
4681.9715182091413226
 20
235.2620091194959002
 30
0.0
 40
0.5821854024879555
 50
311.2433415141892965
 51
321.1872161454490993
  0
ARC
  5
10F3B
  8
0
 10
4681.918689143555639
 20
235.9647484434464957
 30
0.0
 40
1.255443669736322
 50
270.3847983942360997
 51
281.9420054191469944
  0
ARC
  5
10F3C
  8
0
 10
4682.0966246458829119
 20
235.1234415282650048
 30
0.0
 40
0.3955260175624351
 50
281.9419986334478949
 51
310.8496486970158799
  0
ARC
  5
10F3D
  8
0
 10
4690.9090458226555711
 20
235.0645736148860863
 30
0.0
 40
0.2403193008694545
 50
270.0322230431750086
 51
301.5813071463281858
  0
ARC
  5
10F3E
  8
0
 10
4691.811700788316557
 20
233.576900816932806
 30
0.0
 40
1.499787823541239
 50
110.0479017024830029
 51
121.1940701035067036
  0
ARC
  5
10F3F
  8
0
 10
4675.5709430664528554
 20
292.1596720100295101
 30
0.0
 40
55.9488831052594122
 50
274.1150528717083148
 51
275.5818894396156225
  0
ARC
  5
10F40
  8
0
 10
4690.1509255104392651
 20
145.4727846276433922
 30
0.0
 40
91.4609364400361784
 50
94.4399230663716338
 51
95.7340299119132538
  0
ARC
  5
10F41
  8
0
 10
4684.9440907082516787
 20
213.3334343372318926
 30
0.0
 40
23.4009348469984602
 50
91.0648935523651346
 51
94.5920635386935942
  0
ARC
  5
10F42
  8
0
 10
4685.3317877322588174
 20
192.476095751182811
 30
0.0
 40
44.2618763855655928
 50
87.9257203175969551
 51
91.0648935523651346
  0
ARC
  5
10F43
  8
0
 10
4683.3660636924150822
 20
138.2025653468373889
 30
0.0
 40
98.5709932404015632
 50
86.6001476391474512
 51
87.9257203175969551
  0
ARC
  5
10F44
  8
0
 10
4690.3548117545333298
 20
255.8416976690710953
 30
0.0
 40
19.2755512698374716
 50
266.600147639147508
 51
271.1195424017349751
  0
ARC
  5
10F45
  8
0
 10
4690.2860731359996862
 20
259.3591450489398085
 30
0.0
 40
22.7936702371015016
 50
271.1195424017349751
 51
274.9063203107297113
  0
ARC
  5
10F46
  8
0
 10
4648.893531701864049
 20
636.9332441033960777
 30
0.0
 40
402.6239076355831799
 50
276.1798013300027037
 51
276.408394286263615
  0
ARC
  5
10F47
  8
0
 10
4692.9194122797025557
 20
236.2360373613186084
 30
0.0
 40
1.2510908704636969
 50
2.0597880251258691
 51
18.9784750872607795
  0
ARC
  5
10F48
  8
0
 10
4693.8471718534838146
 20
236.5551007866222903
 30
0.0
 40
0.27
 50
18.9784750872500005
 51
90.0
  0
ARC
  5
10F49
  8
0
 10
4698.3841282286321075
 20
236.3537594972301008
 30
0.0
 40
4.2144835450393323
 50
180.9880738352657943
 51
182.3492573701240929
  0
ARC
  5
10F4A
  8
0
 10
4687.42322743103432
 20
285.4748717752297011
 30
0.0
 40
49.7538672869640095
 50
270.0009013456282787
 51
277.2493404128188104
  0
ARC
  5
10F4B
  8
0
 10
4687.4234021619240593
 20
285.4734981518973882
 30
0.0
 40
49.7524825949610516
 50
277.2493404128188104
 51
277.7972080369746095
  0
ARC
  5
10F4C
  8
0
 10
4694.0390306489389332
 20
236.252291109579204
 30
0.0
 40
0.1345783360494671
 50
280.9983298131372749
 51
326.4870500425315072
  0
ARC
  5
10F4D
  8
0
 10
4689.9879753055611218
 20
262.852724819677519
 30
0.0
 40
27.0416056418613486
 50
278.3891391789322824
 51
278.6708388781553936
  0
ARC
  5
10F4E
  8
0
 10
4689.5977113516219106
 20
265.8538273894407098
 30
0.0
 40
30.0675787385210391
 50
276.2299790093769047
 51
278.290508450944003
  0
ARC
  5
10F4F
  8
0
 10
4686.9854725127133861
 20
288.8067179277467744
 30
0.0
 40
53.1685013893602729
 50
271.5632353446835054
 51
276.3441553234243884
  0
ARC
  5
10F50
  8
0
 10
4684.9010845318844076
 20
654.7719937055112496
 30
0.0
 40
419.8349129553478178
 50
270.432267296102907
 51
270.8729753208680222
  0
ARC
  5
10F51
  8
0
 10
4687.4580977612840798
 20
486.9611453830523828
 30
0.0
 40
252.0045845538379012
 50
270.8729753208680222
 51
271.1529410938283036
  0
ARC
  5
10F52
  8
0
 10
4694.4923378029943706
 20
157.3558622433149026
 30
0.0
 40
77.6765405101440933
 50
90.6571523568416211
 51
91.4485379733649069
  0
ARC
  5
10F53
  8
0
 10
4686.583307038361454
 20
543.7246457395224297
 30
0.0
 40
308.712646006680302
 50
270.02456941266081
 51
271.3046436999994739
  0
ARC
  5
10F54
  8
0
 10
4686.2393756272567771
 20
552.9545497270594296
 30
0.0
 40
317.4821160124200219
 50
270.2276788310334155
 51
271.2190521803465231
  0
ARC
  5
10F55
  8
0
 10
4692.9276531020123002
 20
238.6511498872978052
 30
0.0
 40
3.107562006513743
 50
271.2190521803465231
 51
275.1378797374810006
  0
ARC
  5
10F56
  8
0
 10
4693.1802560751921192
 20
235.8417673462259927
 30
0.0
 40
0.286846047020801
 50
275.1378797374810006
 51
305.5124865149560947
  0
ARC
  5
10F57
  8
0
 10
4691.9562240632321846
 20
60.1187934031532905
 30
0.0
 40
175.5745060233105903
 50
89.7451316244831219
 51
91.148868572988377
  0
ARC
  5
10F58
  8
0
 10
4692.6844729558997642
 20
210.4243920073708125
 30
0.0
 40
25.2672254225710411
 50
88.829978035424034
 51
89.880372469869485
  0
ARC
  5
10F59
  8
0
 10
4693.2230184972313509
 20
235.3059542105307003
 30
0.0
 40
0.3810662279355792
 50
2.1006816195920681
 51
93.4009663267835322
  0
LINE
  5
10F5A
  8
0
 10
4693.6121878508438385
 20
235.0920281519287869
 30
0.0
 11
4693.6038286325701847
 21
235.3199224206962015
 31
0.0
  0
ARC
  5
10F5B
  8
0
 10
4693.2755828610333992
 20
235.2816158729372091
 30
0.0
 40
0.334352918233211
 50
14.2456369879907392
 51
77.687109851158894
  0
ARC
  5
10F5C
  8
0
 10
4693.4698131897430358
 20
235.1714414117238903
 30
0.0
 40
0.1459011739318404
 50
273.3018704470861735
 51
326.8050232232685062
  0
ARC
  5
10F5D
  8
0
 10
4693.6021734536798249
 20
235.0703077033732029
 30
0.0
 40
0.0430201318762579
 50
269.0343080785253846
 51
354.7190423469464804
  0
ARC
  5
10F5E
  8
0
 10
4781.8438355355401654
 20
230.6740714719221899
 30
0.0
 40
88.3081239036582417
 50
176.8506942444691106
 51
177.1490415310636877
  0
ARC
  5
10F5F
  8
0
 10
4694.1961845505611564
 20
235.4979285070733113
 30
0.0
 40
0.5278299753039098
 50
116.1074210248004022
 51
177.0002853908198119
  0
ARC
  5
10F60
  8
0
 10
4694.1961869124197619
 20
235.4979258215221876
 30
0.0
 40
0.5278334261999963
 50
28.7530250928360402
 51
116.1075229619626015
  0
ARC
  5
10F61
  8
0
 10
4694.1984467312167908
 20
235.4978871240340936
 30
0.0
 40
0.5258720496085602
 50
329.162748046947172
 51
28.8751600661460515
  0
ARC
  5
10F62
  8
0
 10
4694.0443640610856164
 20
235.5388653604751141
 30
0.0
 40
0.6805877837385529
 50
269.9744268604808894
 51
332.8524604563070284
  0
ARC
  5
10F63
  8
0
 10
4737.416721483571564
 20
242.9088794566681031
 30
0.0
 40
45.6461608710581785
 50
189.9697737393969987
 51
190.0777881543656065
  0
ARC
  5
10F64
  8
0
 10
4692.5494772253332485
 20
234.9347503262123098
 30
0.0
 40
0.0758158787531661
 50
190.0777881543608032
 51
270.9184284058202934
  0
ARC
  5
10F65
  8
0
 10
4692.90217735299575
 20
-650.5717776796009275
 30
0.0
 40
885.430791630793351
 50
89.9261093111156242
 51
90.0227444098462399
  0
ARC
  5
10F66
  8
0
 10
4692.8807072408480963
 20
233.3806165962936063
 30
0.0
 40
1.502989147304068
 50
89.5658077420830949
 51
92.2804325429957544
  0
ARC
  5
10F67
  8
0
 10
4692.8632700063681114
 20
233.8184950741905084
 30
0.0
 40
1.0647636134157941
 50
92.2804325429957544
 51
95.1092179514560456
  0
ARC
  5
10F68
  8
0
 10
4692.8058150442793703
 20
234.4610976599105072
 30
0.0
 40
0.4195976224936428
 50
95.1092179514560456
 51
98.9996291617688513
  0
ARC
  5
10F69
  8
0
 10
4692.754682606409915
 20
234.7839486911566951
 30
0.0
 40
0.0927225476113974
 50
98.9996291617688513
 51
106.5427479230714027
  0
ARC
  5
10F6A
  8
0
 10
4692.7313412576913834
 20
234.8625324151169877
 30
0.0
 40
0.0107455982203236
 50
106.542747923122306
 51
126.6853284335733036
  0
ARC
  5
10F6B
  8
0
 10
4692.7254775752708156
 20
234.8704033540751084
 30
0.0
 40
0.000930586676675
 50
126.6853284336237948
 51
226.4261819601642003
  0
ARC
  5
10F6C
  8
0
 10
4692.7281500669932939
 20
234.8732123159755076
 30
0.0
 40
0.0048077607718783
 50
226.4261819601607897
 51
258.687269829320428
  0
ARC
  5
10F6D
  8
0
 10
4692.7454927766793844
 20
234.9350400350953976
 30
0.0
 40
0.0690088278388331
 50
254.6343560234170127
 51
264.2902045538654079
  0
ARC
  5
10F6E
  8
0
 10
4692.7972145944340809
 20
235.4429787973764974
 30
0.0
 40
0.5795740338398115
 50
264.1982222230442972
 51
268.3866461997582746
  0
ARC
  5
10F6F
  8
0
 10
4692.8823824196488204
 20
238.3961341917932941
 30
0.0
 40
3.5339571662624278
 50
268.3543969050859914
 51
271.3413222146040198
  0
ARC
  5
10F70
  8
0
 10
4692.9535955900319095
 20
235.5836603702973946
 30
0.0
 40
0.7206069380581465
 50
270.9152787687925752
 51
275.6286825555201858
  0
ARC
  5
10F71
  8
0
 10
4693.0180716877475788
 20
234.9252756455107942
 30
0.0
 40
0.0590741998996873
 50
276.0262252778222205
 51
286.4922994704704138
  0
ARC
  5
10F72
  8
0
 10
4693.0330568109366141
 20
234.8742635545299038
 30
0.0
 40
0.0059078612754207
 50
287.5886450545158937
 51
308.8900278522435201
  0
ARC
  5
10F73
  8
0
 10
4693.0360707068111878
 20
234.8704066341672103
 30
0.0
 40
0.0010164269079037
 50
313.1559680376727783
 51
56.38530905254526
  0
ARC
  5
10F74
  8
0
 10
4693.0202465883921832
 20
234.8391391726495101
 30
0.0
 40
0.0360531787764718
 50
62.9660763062909865
 51
81.9752420121988763
  0
ARC
  5
10F75
  8
0
 10
4692.9685871418150782
 20
234.5609458732238011
 30
0.0
 40
0.3189719920297409
 50
79.7621388504320805
 51
84.4716716371514593
  0
ARC
  5
10F76
  8
0
 10
4692.9039029282712363
 20
233.9081011916746036
 30
0.0
 40
0.975012767998108
 50
84.3841324699794626
 51
87.8639188311930894
  0
ARC
  5
10F77
  8
0
 10
4692.8820026318526288
 20
233.4221610094386108
 30
0.0
 40
1.4614364394940691
 50
87.7160125479256578
 51
89.604249523795886
  0
LINE
  5
10F78
  8
0
 10
4693.8641995751213472
 20
234.8584776455099075
 30
0.0
 11
4693.8641995751213472
 21
234.7199236104985971
 31
0.0
  0
ARC
  5
10F79
  8
0
 10
4694.1961868540201976
 20
235.4979257543222104
 30
0.0
 40
0.5600000000000068
 50
165.5708861215998127
 51
196.4256529774064006
  0
ARC
  5
10F7A
  8
0
 10
4694.1961868540201976
 20
235.4979257543222104
 30
0.0
 40
0.5599999999999845
 50
101.7607271388866934
 51
165.5708861215998127
  0
ARC
  5
10F7B
  8
0
 10
4694.1961868540201976
 20
235.4979257543222104
 30
0.0
 40
0.5600000000000137
 50
34.9090012089757309
 51
101.7607271388866934
  0
ARC
  5
10F7C
  8
0
 10
4694.1961868544112804
 20
235.4979257545944051
 30
0.0
 40
0.5599999995243832
 50
1.399999966632105
 51
34.9090012089757309
  0
LINE
  5
10F7D
  8
0
 10
4695.8833023361212327
 20
234.8879236942221951
 30
0.0
 11
4695.8891598795225946
 21
234.7203244508336866
 31
0.0
  0
ARC
  5
10F7E
  8
0
 10
4695.3843746208031007
 20
234.8551963250413905
 30
0.0
 40
0.499999945806526
 50
3.752963742515198
 51
9.8032362479360771
  0
ARC
  5
10F7F
  8
0
 10
4695.8573657432207256
 20
234.9369235918221932
 30
0.0
 40
0.0199999999999824
 50
9.8032357904214571
 51
54.6340522388887706
  0
LINE
  5
10F80
  8
0
 10
4694.7560196882213859
 20
235.5116077740221954
 30
0.0
 11
4694.7624000025207351
 21
235.0676696708221982
 31
0.0
  0
ARC
  5
10F81
  8
0
 10
4694.8111109902511089
 20
235.0413577954084019
 30
0.0
 40
0.0534984777533299
 50
172.9899003946649998
 51
267.1911494200169841
  0
ARC
  5
10F82
  8
0
 10
4694.8015260464089806
 20
235.0486140685898988
 30
0.0
 40
0.0435196884948323
 50
154.03247516209629
 51
180.9572924094956932
  0
LINE
  5
10F83
  8
0
 10
4694.7624000025207351
 20
235.0676696708221982
 30
0.0
 11
4695.8254760247709783
 21
235.067522261580109
 31
0.0
  0
LINE
  5
10F84
  8
0
 10
4695.8549033067656637
 20
235.0462578700573886
 30
0.0
 11
4695.8742198917625501
 21
234.987862172867608
 31
0.0
  0
ARC
  5
10F85
  8
0
 10
4695.8254717262207123
 20
235.0365222618781047
 30
0.0
 40
0.031
 50
18.3035859532558689
 51
89.9920551990436337
  0
LINE
  5
10F86
  8
0
 10
4695.8742198917625501
 20
234.987862172867608
 30
0.0
 11
4694.808489347820796
 21
234.9879235918222093
 31
0.0
  0
LINE
  5
10F87
  8
0
 10
4695.8645314899340519
 20
234.9730660085417071
 30
0.0
 11
4695.8713679767770373
 21
234.9403290301154072
 31
0.0
  0
ARC
  5
10F88
  8
0
 10
4695.8463242643947524
 20
234.9692637804853064
 30
0.0
 40
0.0186
 50
11.79559904155035
 51
89.9966979956637942
  0
LINE
  5
10F89
  8
0
 10
4695.8713679767770373
 20
234.9403290301154072
 30
0.0
 11
4695.877073708907119
 21
234.9403288948221871
 31
0.0
  0
ARC
  5
10F8A
  8
0
 10
4695.2392128767160102
 20
233.960099336453311
 30
0.0
 40
1.1358242554467699
 50
77.1906586320506989
 51
102.806363485028001
  0
ARC
  5
10F8B
  8
0
 10
4692.9079043910051041
 20
236.0263144908626884
 30
0.0
 40
0.078378470828096
 50
232.8825303572878909
 51
270.0647917719621773
  0
ARC
  5
10F8C
  8
0
 10
4693.088586543420206
 20
76.2479963969957453
 30
0.0
 40
159.7000417834263999
 50
89.8681477968363964
 51
90.06479177196222
  0
ARC
  5
10F8D
  8
0
 10
4693.4458118551710868
 20
235.7504854952740061
 30
0.0
 40
0.1973979332423914
 50
5.1252843294566004
 51
87.0134033325357734
  0
ARC
  5
10F8E
  8
0
 10
4695.024633822737087
 20
235.822923396825189
 30
0.0
 40
1.383299313881998
 50
182.2705398651469011
 51
187.7294601126619966
  0
ARC
  5
10F8F
  8
0
 10
4693.9537149513289478
 20
235.2818880190174013
 30
0.0
 40
0.8338039797243093
 50
67.6178694154925353
 51
85.5400460012311044
  0
ARC
  5
10F90
  8
0
 10
4693.2673839576500541
 20
234.4727867530216088
 30
0.0
 40
1.502989147304068
 50
89.5658077420830949
 51
92.2804325429957544
  0
ARC
  5
10F91
  8
0
 10
4693.2499467231691597
 20
234.9106652309185108
 30
0.0
 40
1.0647636134157941
 50
92.2804325429957544
 51
95.1092179514560456
  0
ARC
  5
10F92
  8
0
 10
4693.1924917610822376
 20
235.5532678166385097
 30
0.0
 40
0.4195976224936428
 50
95.1092179514560456
 51
98.9996291617688513
  0
ARC
  5
10F93
  8
0
 10
4693.1413593232100538
 20
235.8761188478846975
 30
0.0
 40
0.0927225476113974
 50
98.9996291617688513
 51
106.5427479230714027
  0
ARC
  5
10F94
  8
0
 10
4693.1180179744942507
 20
235.9547025718449049
 30
0.0
 40
0.0107455982203236
 50
106.542747923122306
 51
126.6853284335733036
  0
ARC
  5
10F95
  8
0
 10
4693.1121542920718639
 20
235.9625735108029971
 30
0.0
 40
0.000930586676675
 50
126.6853284336237948
 51
226.4261819601642003
  0
ARC
  5
10F96
  8
0
 10
4693.1148267837952517
 20
235.9653824727035101
 30
0.0
 40
0.0048077607718783
 50
226.4261819601607897
 51
258.687269829320428
  0
ARC
  5
10F97
  8
0
 10
4693.1321694934813422
 20
236.0272101918234
 30
0.0
 40
0.0690088278388331
 50
254.6343560234170127
 51
264.2902045538654079
  0
ARC
  5
10F98
  8
0
 10
4693.1838913112351293
 20
236.5351489541044998
 30
0.0
 40
0.5795740338398115
 50
264.1982222230442972
 51
268.3866461997582746
  0
ARC
  5
10F99
  8
0
 10
4693.2690591364507782
 20
239.4883043485212966
 30
0.0
 40
3.5339571662624278
 50
268.3543969050859914
 51
271.3413222146040198
  0
ARC
  5
10F9A
  8
0
 10
4693.3402723068338673
 20
236.675830527025397
 30
0.0
 40
0.7206069380581465
 50
270.9152787687925752
 51
275.6286825555201858
  0
ARC
  5
10F9B
  8
0
 10
4693.4047484045486271
 20
236.0174458022387114
 30
0.0
 40
0.0590741998996873
 50
276.0262252778222205
 51
286.4922994704704138
  0
ARC
  5
10F9C
  8
0
 10
4693.4197335277385719
 20
235.9664337112579915
 30
0.0
 40
0.0059078612754207
 50
287.5886450545158937
 51
308.8900278522435201
  0
ARC
  5
10F9D
  8
0
 10
4693.4227474236122362
 20
235.9625767908952128
 30
0.0
 40
0.0010164269079037
 50
313.1559680376727783
 51
56.38530905254526
  0
ARC
  5
10F9E
  8
0
 10
4693.4069233051932315
 20
235.9313093293775125
 30
0.0
 40
0.0360531787764718
 50
62.9660763062909865
 51
81.9752420121988763
  0
ARC
  5
10F9F
  8
0
 10
4693.3552638586179455
 20
235.6531160299518035
 30
0.0
 40
0.3189719920297409
 50
79.7621388504320805
 51
84.4716716371514593
  0
ARC
  5
10FA0
  8
0
 10
4693.2905796450722846
 20
235.000271348402606
 30
0.0
 40
0.975012767998108
 50
84.3841324699794626
 51
87.8639188311930894
  0
ARC
  5
10FA1
  8
0
 10
4693.2686793486545866
 20
234.5143311661666132
 30
0.0
 40
1.4614364394940691
 50
87.7160125479256578
 51
89.604249523795886
  0
LINE
  5
10FA2
  8
0
 10
4676.6111868539210263
 20
235.0120281165222025
 30
0.0
 11
4686.7156883101934
 21
235.0120281165222025
 31
0.0
  0
LINE
  5
10FA3
  8
0
 10
4695.8771665767244485
 20
234.7079235918222082
 30
0.0
 11
4693.8761995751219729
 21
234.7079235918222082
 31
0.0
  0
ARC
  5
10FA4
  8
0
 10
4695.8771665767244485
 20
234.7199235918222087
 30
0.0
 40
0.012
 50
270.0000000000521254
 51
1.914316935001215
  0
ARC
  5
10FA5
  8
0
 10
4693.8761995751219729
 20
234.7199235918222087
 30
0.0
 40
0.012
 50
180.0000000000098055
 51
269.9999999999478746
  0
LINE
  5
10FA7
  8
0
 10
4681.2681135496522984
 20
234.8959194106222128
 30
0.0
 11
4682.4241970886196214
 21
234.8959194106222128
 31
0.0
  0
ENDSEC
  0
EOF
