  0
SECTION
  2
HEADER
  9
$ACADVER
  1
AC1009
  9
$INSBASE
 10
4552.9126910875329486
 20
218.9269010082940952
 30
0.0
  9
$EXTMIN
 10
4527.197717550516245
 20
199.6489377653003885
 30
0.0
  9
$EXTMAX
 10
4574.7251918158908666
 20
248.6376643282646057
 30
0.0
  9
$LIMMIN
 10
0.0
 20
0.0
  9
$LIMMAX
 10
11.6929133858000007
 20
8.2677165353999982
  9
$ORTHOMODE
 70
     0
  9
$REGENMODE
 70
     1
  9
$FILLMODE
 70
     1
  9
$QTEXTMODE
 70
     0
  9
$MIRRTEXT
 70
     0
  9
$DRAGMODE
 70
     2
  9
$LTSCALE
 40
0.6431102362
  9
$OSMODE
 70
  4095
  9
$ATTMODE
 70
     1
  9
$TEXTSIZE
 40
0.2
  9
$TRACEWID
 40
0.05
  9
$TEXTSTYLE
  7
STANDARD
  9
$CLAYER
  8
0
  9
$CELTYPE
  6
BYLAYER
  9
$CECOLOR
 62
   256
  9
$DIMSCALE
 40
1.0
  9
$DIMASZ
 40
0.1875
  9
$DIMEXO
 40
0.0625
  9
$DIMDLI
 40
0.4443307087
  9
$DIMRND
 40
0.0
  9
$DIMDLE
 40
0.0
  9
$DIMEXE
 40
0.125
  9
$DIMTP
 40
0.01
  9
$DIMTM
 40
0.01
  9
$DIMTXT
 40
2.0
  9
$DIMCEN
 40
0.1052362205
  9
$DIMTSZ
 40
0.0
  9
$DIMTOL
 70
     1
  9
$DIMLIM
 70
     0
  9
$DIMTIH
 70
     1
  9
$DIMTOH
 70
     1
  9
$DIMSE1
 70
     0
  9
$DIMSE2
 70
     0
  9
$DIMTAD
 70
     0
  9
$DIMZIN
 70
     0
  9
$DIMBLK
  1

  9
$DIMASO
 70
     1
  9
$DIMSHO
 70
     1
  9
$DIMPOST
  1
\X
  9
$DIMAPOST
  1

  9
$DIMALT
 70
     1
  9
$DIMALTD
 70
     2
  9
$DIMALTF
 40
25.3999999999999986
  9
$DIMLFAC
 40
1.0
  9
$DIMTOFL
 70
     0
  9
$DIMTVP
 40
0.0
  9
$DIMTIX
 70
     0
  9
$DIMSOXD
 70
     0
  9
$DIMSAH
 70
     0
  9
$DIMBLK1
  1

  9
$DIMBLK2
  1

  9
$DIMSTYLE
  2
STANDARD
  9
$DIMCLRD
 70
     0
  9
$DIMCLRE
 70
     0
  9
$DIMCLRT
 70
     0
  9
$DIMTFAC
 40
1.0
  9
$DIMGAP
 40
0.09
  9
$LUNITS
 70
     2
  9
$LUPREC
 70
     4
  9
$SKETCHINC
 40
0.1
  9
$FILLETRAD
 40
0.0
  9
$AUNITS
 70
     0
  9
$AUPREC
 70
     0
  9
$MENU
  1
.
  9
$ELEVATION
 40
0.0
  9
$PELEVATION
 40
0.0
  9
$THICKNESS
 40
0.0
  9
$LIMCHECK
 70
     0
  9
$BLIPMODE
 70
     0
  9
$CHAMFERA
 40
0.0
  9
$CHAMFERB
 40
0.0
  9
$SKPOLY
 70
     0
  9
$TDCREATE
 40
2458060.468368056230247
  9
$TDUPDATE
 40
2459816.6882291659712791
  9
$TDINDWG
 40
0.5262802083
  9
$TDUSRTIMER
 40
0.5262802083
  9
$USRTIMER
 70
     1
  9
$ANGBASE
 50
0.0
  9
$ANGDIR
 70
     0
  9
$PDMODE
 70
     0
  9
$PDSIZE
 40
0.3125
  9
$PLINEWID
 40
0.0
  9
$COORDS
 70
     1
  9
$SPLFRAME
 70
     0
  9
$SPLINETYPE
 70
     6
  9
$SPLINESEGS
 70
     8
  9
$ATTDIA
 70
     1
  9
$ATTREQ
 70
     1
  9
$HANDLING
 70
     1
  9
$HANDSEED
  5
10C42
  9
$SURFTAB1
 70
     6
  9
$SURFTAB2
 70
     6
  9
$SURFTYPE
 70
     6
  9
$SURFU
 70
     6
  9
$SURFV
 70
     6
  9
$UCSNAME
  2

  9
$UCSORG
 10
0.0
 20
0.0
 30
0.0
  9
$UCSXDIR
 10
1.0
 20
0.0
 30
0.0
  9
$UCSYDIR
 10
0.0
 20
1.0
 30
0.0
  9
$PUCSNAME
  2

  9
$PUCSORG
 10
0.0
 20
0.0
 30
0.0
  9
$PUCSXDIR
 10
1.0
 20
0.0
 30
0.0
  9
$PUCSYDIR
 10
0.0
 20
1.0
 30
0.0
  9
$USERI1
 70
     0
  9
$USERI2
 70
     0
  9
$USERI3
 70
     0
  9
$USERI4
 70
     0
  9
$USERI5
 70
     0
  9
$USERR1
 40
0.0
  9
$USERR2
 40
0.0
  9
$USERR3
 40
0.0
  9
$USERR4
 40
0.0
  9
$USERR5
 40
0.0
  9
$WORLDVIEW
 70
     1
  9
$SHADEDGE
 70
     3
  9
$SHADEDIF
 70
    70
  9
$TILEMODE
 70
     1
  9
$MAXACTVP
 70
    64
  9
$PLIMCHECK
 70
     0
  9
$PEXTMIN
 10
1.0000000000000000E+20
 20
1.0000000000000000E+20
 30
1.0000000000000000E+20
  9
$PEXTMAX
 10
-1.0000000000000000E+20
 20
-1.0000000000000000E+20
 30
-1.0000000000000000E+20
  9
$PLIMMIN
 10
0.0
 20
0.0
  9
$PLIMMAX
 10
12.0
 20
9.0
  9
$UNITMODE
 70
     0
  9
$VISRETAIN
 70
     1
  9
$PLINEGEN
 70
     0
  9
$PSLTSCALE
 70
     1
  0
ENDSEC
  0
SECTION
  2
TABLES
  0
TABLE
  2
VPORT
 70
     1
  0
VPORT
  2
*ACTIVE
 70
     0
 10
0.0
 20
0.0
 11
1.0
 21
1.0
 12
749.761223082625861
 22
92.7237493350766044
 13
0.0
 23
0.0
 14
1.0
 24
1.0
 15
0.0
 25
0.0
 16
0.0
 26
0.0
 36
17.1152628219792007
 17
3803.5440673828129547
 27
125.9952621967499056
 37
0.0
 40
1.6794834544632891
 41
2.0416666666666661
 42
50.0
 43
0.0
 44
0.0
 50
0.0
 51
0.0
 71
     0
 72
   100
 73
     1
 74
     1
 75
     0
 76
     0
 77
     0
 78
     0
  0
ENDTAB
  0
TABLE
  2
LTYPE
 70
     2
  0
LTYPE
  2
CONTINUOUS
 70
     0
  3
Solid line
 72
    65
 73
     0
 40
0.0
  0
LTYPE
  2
PHANTOM2
 70
     0
  3
___ _ _ ___ _ _ ___ _ _ ___ _ _
 72
    65
 73
     6
 40
1.25
 49
0.625
 49
-0.125
 49
0.125
 49
-0.125
 49
0.125
 49
-0.125
  0
ENDTAB
  0
TABLE
  2
LAYER
 70
     2
  0
LAYER
  2
0
 70
     0
 62
   255
  6
CONTINUOUS
  0
LAYER
  2
DEFPOINTS
 70
     0
 62
     7
  6
CONTINUOUS
  0
ENDTAB
  0
TABLE
  2
STYLE
 70
     1
  0
STYLE
  2
STANDARD
 70
     0
 40
0.0
 41
0.8
 50
0.0
 71
     0
 42
0.2
  3
txt
  4

  0
ENDTAB
  0
TABLE
  2
VIEW
 70
     0
  0
ENDTAB
  0
TABLE
  2
UCS
 70
     0
  0
ENDTAB
  0
TABLE
  2
APPID
 70
     9
  0
APPID
  2
ACAD
 70
     0
  0
APPID
  2
ACAD_MLEADERVER
 70
     0
  0
APPID
  2
ACAD_EXEMPT_FROM_CAD_STANDARDS
 70
     0
  0
APPID
  2
ACAD_NAV_VCDISPLAY
 70
     0
  0
APPID
  2
ACAECLAYERSTANDARD
 70
     0
  0
APPID
  2
ACCMTRANSPARENCY
 70
     0
  0
APPID
  2
ACAD_DSTYLE_DIMJAG
 70
     0
  0
APPID
  2
ACAD_DSTYLE_DIMTALN
 70
     0
  0
APPID
  2
ACDBATTR
 70
     0
  0
ENDTAB
  0
TABLE
  2
DIMSTYLE
 70
     1
  0
DIMSTYLE
  2
STANDARD
 70
     0
  3

  4

  5

  6

  7

 40
1.0
 41
0.1875
 42
0.0625
 43
0.38
 44
0.125
 45
0.0
 46
0.0
 47
0.01
 48
0.01
140
0.15625
141
0.09
142
0.0
143
25.3999999999999986
144
1.0
145
0.0
146
1.0
147
0.09
 71
     1
 72
     0
 73
     1
 74
     1
 75
     0
 76
     0
 77
     0
 78
     4
170
     0
171
     2
172
     0
173
     0
174
     0
175
     0
176
     0
177
     0
178
     0
  0
ENDTAB
  0
ENDSEC
  0
SECTION
  2
BLOCKS
  0
BLOCK
  8
0
  2
$MODEL_SPACE
 70
     0
 10
0.0
 20
0.0
 30
0.0
  3
$MODEL_SPACE
  1

  0
ENDBLK
  5
21
  8
0
  0
BLOCK
 67
     1
  8
0
  2
$PAPER_SPACE
 70
     0
 10
0.0
 20
0.0
 30
0.0
  3
$PAPER_SPACE
  1

  0
ENDBLK
  5
1D
 67
     1
  8
0
  0
BLOCK
  8
0
  2
_FILLED
 70
     0
 10
0.0
 20
0.0
 30
0.0
  3
_FILLED
  1

  0
SOLID
  5
10875
  8
0
  6
BYBLOCK
 62
     0
 10
0.0
 20
0.0
 30
0.0
 11
-1.0
 21
0.1666666667
 31
0.0
 12
-1.0
 22
-0.1666666667
 32
0.0
 13
-1.0
 23
-0.1666666667
 33
0.0
  0
ENDBLK
  5
10876
  8
0
  6
BYBLOCK
 62
     0
  0
ENDSEC
  0
SECTION
  2
ENTITIES
  0
ATTDEF
  5
3930
  8
DEFPOINTS
 10
4552.9126910875329486
 20
218.9302343416275107
 30
0.0
 40
0.001
  1
P70303-CP
  3

  2
MODELNUMBER
 70
     0
1001
ACDBATTR
1070
     0
1070
     1
  0
ATTDEF
  5
3931
  8
DEFPOINTS
 10
4552.9126910875329486
 20
218.9285676749607887
 30
0.0
 40
0.001
  1

  3

  2
TRADENAME
 70
     0
1001
ACDBATTR
1070
     0
1070
     1
  0
ATTDEF
  5
3932
  8
DEFPOINTS
 10
4552.9126910875329486
 20
218.9269010082940952
 30
0.0
 40
0.001
  1
TOILET SEAT
  3

  2
PRODUCT
 70
     0
1001
ACDBATTR
1070
     0
1070
     1
  0
LINE
  5
10AEA
  8
0
 10
4548.9626906267330924
 20
217.1954269308475034
 30
0.0
 11
4548.9626906283929202
 21
217.1954269308475034
 31
0.0
  0
LINE
  5
10AEB
  8
0
 10
4549.1026910693326499
 20
217.1954269308475034
 30
0.0
 11
4556.7226911057350662
 21
217.1954269308475034
 31
0.0
  0
ARC
  5
10AEC
  8
0
 10
4550.1618991209334126
 20
218.2772744732475019
 30
0.0
 40
0.649627198652691
 50
309.3901656368381055
 51
230.773625626236992
  0
ARC
  5
10AED
  8
0
 10
4549.6677044210637177
 20
217.6729191154526859
 30
0.0
 40
0.1310621469202039
 50
1.9446304381566411
 51
50.4921786415580627
  0
ARC
  5
10AEE
  8
0
 10
4550.6646127062258529
 20
217.6710706077180078
 30
0.0
 40
0.1379468656981193
 50
130.9781340981573976
 51
178.9031636951683879
  0
LINE
  5
10AEF
  8
0
 10
4549.7986910875333706
 20
217.1954269308475034
 30
0.0
 11
4549.7986910875333706
 21
217.7522461838615015
 31
0.0
  0
LINE
  5
10AF0
  8
0
 10
4549.7846910875332469
 20
217.6908698599361003
 30
0.0
 11
4549.7846910875332469
 21
217.1954269308475034
 31
0.0
  0
LINE
  5
10AF1
  8
0
 10
4549.7551635285326483
 20
217.1954269308475034
 30
0.0
 11
4549.7551635285326483
 21
217.710552912547513
 31
0.0
  0
LINE
  5
10AF2
  8
0
 10
4549.7531635494333386
 20
217.6874527186988075
 30
0.0
 11
4549.7531635494333386
 21
217.1954269308475034
 31
0.0
  0
LINE
  5
10AF3
  8
0
 10
4548.9626906267330924
 20
217.5154010680319914
 30
0.0
 11
4548.9626906267330924
 21
217.1860744932093041
 31
0.0
  0
ARC
  5
10AF4
  8
0
 10
4550.1634379174338392
 20
213.0409560876472881
 30
0.0
 40
4.7292438136002177
 50
95.7682706406989439
 51
103.4821778742111036
  0
ARC
  5
10AF5
  8
0
 10
4549.0906906267337035
 20
217.5154010680319914
 30
0.0
 40
0.128
 50
103.4821778742111036
 51
180.0000000000015916
  0
ARC
  5
10AF6
  8
0
 10
4549.6940635494329399
 20
217.6874527186988075
 30
0.0
 40
0.0591
 50
0.0
 51
95.768270640699086
  0
LINE
  5
10AF7
  8
0
 10
4549.7531635285331504
 20
217.6416552773474962
 30
0.0
 11
4549.7551635285326483
 21
217.6416552773474962
 31
0.0
  0
LINE
  5
10AF8
  8
0
 10
4549.7551635285326483
 20
217.710552912547513
 30
0.0
 11
4549.7650060430332815
 21
217.7105529151475025
 31
0.0
  0
ARC
  5
10AF9
  8
0
 10
4549.7650060482328627
 20
217.6908678757475002
 30
0.0
 40
0.0196850393999995
 50
0.0057752298970765
 51
90.000015135253534
  0
LINE
  5
10AFA
  8
0
 10
4549.7846910875332469
 20
217.5934269308474995
 30
0.0
 11
4549.7986910875333706
 21
217.5934269308474995
 31
0.0
  0
LINE
  5
10AFB
  8
0
 10
4550.5266910875334361
 20
217.7520844460051137
 30
0.0
 11
4550.5266910875334361
 21
217.1954269308475034
 31
0.0
  0
LINE
  5
10AFC
  8
0
 10
4550.5306910875333415
 20
217.5634269308474984
 30
0.0
 11
4550.5306910875333415
 21
217.1954269308475034
 31
0.0
  0
LINE
  5
10AFD
  8
0
 10
4550.5406910875326503
 20
217.7105529151475025
 30
0.0
 11
4550.5406910875326503
 21
217.1954269308475034
 31
0.0
  0
LINE
  5
10AFE
  8
0
 10
4550.5702186466332932
 20
217.7105529151475025
 30
0.0
 11
4550.5702186466332932
 21
217.1954269308475034
 31
0.0
  0
LINE
  5
10AFF
  8
0
 10
4550.5723365873327566
 20
217.6874313411863113
 30
0.0
 11
4550.5723365873327566
 21
217.1954269308475034
 31
0.0
  0
LINE
  5
10B00
  8
0
 10
4551.3626795543286789
 20
217.5152455772204974
 30
0.0
 11
4551.3626795543286789
 21
217.1954269308475034
 31
0.0
  0
LINE
  5
10B01
  8
0
 10
4550.5406910875326503
 20
217.7105528989474976
 30
0.0
 11
4550.5702186466332932
 21
217.7105528989474976
 31
0.0
  0
ARC
  5
10B02
  8
0
 10
4550.5006910875335961
 20
217.5634269308474984
 30
0.0
 40
0.0299999999999635
 50
0.0
 51
29.9190343416239912
  0
ARC
  5
10B03
  8
0
 10
4550.1618460033523661
 20
213.0467970548033918
 30
0.0
 40
4.7234329530080341
 50
76.4993456381503165
 51
84.2218492687094482
  0
ARC
  5
10B04
  8
0
 10
4550.6314365873331553
 20
217.6874313411863113
 30
0.0
 40
0.0591
 50
84.221849268709235
 51
180.0000000000129887
  0
LINE
  5
10B05
  8
0
 10
4550.5702186466332932
 20
217.6121277182475069
 30
0.0
 11
4550.5723365873327566
 21
217.6121277182475069
 31
0.0
  0
ARC
  5
10B06
  8
0
 10
4551.2346795543280678
 20
217.5152455772204974
 30
0.0
 40
0.128
 50
0.0
 51
76.4993456381503165
  0
LINE
  5
10B07
  8
0
 10
4550.5306910875333415
 20
217.359727295847506
 30
0.0
 11
4550.5406910875326503
 21
217.359727295847506
 31
0.0
  0
LINE
  5
10B08
  8
0
 10
4550.5306910875333415
 20
217.3526442965475098
 30
0.0
 11
4550.5406910875326503
 21
217.3526442965475098
 31
0.0
  0
ARC
  5
10B09
  8
0
 10
4549.118003411987047
 20
215.9136722459824114
 30
0.0
 40
1.2818461452184089
 50
90.6844452264668774
 51
140.8029150094430122
  0
ARC
  5
10B0A
  8
0
 10
4556.578617291921546
 20
210.0241711277924992
 30
0.0
 40
10.7868069626840306
 50
141.6039736493596877
 51
177.7618660431276112
  0
ARC
  5
10B0B
  8
0
 10
4562.0499930169216896
 20
210.0377650393614033
 30
0.0
 40
16.2550666181318206
 50
178.5629246830480952
 51
181.3221003947276984
  0
ARC
  5
10B0C
  8
0
 10
4559.0488698274893977
 20
210.1406001291763062
 30
0.0
 40
13.2582314981264204
 50
182.0656504556231141
 51
221.4203660300464946
  0
ARC
  5
10B0D
  8
0
 10
4552.9126910875829708
 20
204.7189588615345031
 30
0.0
 40
5.0700210962341101
 50
221.3526195547958935
 51
269.999999999426791
  0
LINE
  5
10B0E
  8
0
 10
4556.8626915483328048
 20
217.1954269308475034
 30
0.0
 11
4556.862691546674796
 21
217.1954269308475034
 31
0.0
  0
ARC
  5
10B0F
  8
0
 10
4555.663483054133394
 20
218.2772744732475019
 30
0.0
 40
0.649627198652691
 50
309.226374373763008
 51
230.6098343631618093
  0
ARC
  5
10B10
  8
0
 10
4556.1576777540030889
 20
217.6729191154526859
 30
0.0
 40
0.1310621469202039
 50
129.5078213584419018
 51
178.0553695618432926
  0
ARC
  5
10B11
  8
0
 10
4555.1607694688418633
 20
217.6710706077180078
 30
0.0
 40
0.1379468656981193
 50
1.0968363048315739
 51
49.0218659018426024
  0
LINE
  5
10B12
  8
0
 10
4556.0266910875334361
 20
217.1954269308475034
 30
0.0
 11
4556.0266910875334361
 21
217.7520845299553116
 31
0.0
  0
LINE
  5
10B13
  8
0
 10
4556.0406910875335598
 20
217.6908698599361003
 30
0.0
 11
4556.0406910875335598
 21
217.1954269308475034
 31
0.0
  0
LINE
  5
10B14
  8
0
 10
4556.0702186465332488
 20
217.1954269308475034
 30
0.0
 11
4556.0702186465332488
 21
217.710552912547513
 31
0.0
  0
LINE
  5
10B15
  8
0
 10
4556.0722186256325585
 20
217.6874527186988075
 30
0.0
 11
4556.0722186256325585
 21
217.1954269308475034
 31
0.0
  0
LINE
  5
10B16
  8
0
 10
4556.8626915483328048
 20
217.5154010680319914
 30
0.0
 11
4556.8626915483328048
 21
217.1860744932093041
 31
0.0
  0
ARC
  5
10B17
  8
0
 10
4555.661944257633877
 20
213.0409560876472881
 30
0.0
 40
4.7292438136002177
 50
76.5178221257888822
 51
84.2317293593010419
  0
ARC
  5
10B18
  8
0
 10
4556.7346915483340126
 20
217.5154010680319914
 30
0.0
 40
0.128
 50
359.9999999999984084
 51
76.5178221257888822
  0
ARC
  5
10B19
  8
0
 10
4556.1313186256338668
 20
217.6874527186988075
 30
0.0
 40
0.0591
 50
84.2317293593009566
 51
180.0
  0
LINE
  5
10B1A
  8
0
 10
4556.0722186465327468
 20
217.6416552773474962
 30
0.0
 11
4556.0702186465332488
 21
217.6416552773474962
 31
0.0
  0
LINE
  5
10B1B
  8
0
 10
4556.0702186465332488
 20
217.710552912547513
 30
0.0
 11
4556.0603761320326157
 21
217.7105529151475025
 31
0.0
  0
ARC
  5
10B1C
  8
0
 10
4556.060376126833944
 20
217.6908678757475002
 30
0.0
 40
0.0196850393999995
 50
89.9999848647464518
 51
179.9942247701029032
  0
LINE
  5
10B1D
  8
0
 10
4556.0406910875335598
 20
217.5934269308474995
 30
0.0
 11
4556.0266910875334361
 21
217.5934269308474995
 31
0.0
  0
LINE
  5
10B1E
  8
0
 10
4555.2986910875333706
 20
217.7522372061897897
 30
0.0
 11
4555.2986910875333706
 21
217.1954269308475034
 31
0.0
  0
LINE
  5
10B1F
  8
0
 10
4555.2946910875325557
 20
217.5634269308474984
 30
0.0
 11
4555.2946910875325557
 21
217.1954269308475034
 31
0.0
  0
LINE
  5
10B20
  8
0
 10
4555.2846910875332469
 20
217.7105529151475025
 30
0.0
 11
4555.2846910875332469
 21
217.1954269308475034
 31
0.0
  0
LINE
  5
10B21
  8
0
 10
4555.2551635284344229
 20
217.7105529151475025
 30
0.0
 11
4555.2551635284344229
 21
217.1954269308475034
 31
0.0
  0
LINE
  5
10B22
  8
0
 10
4555.2530455877331406
 20
217.6874313411863113
 30
0.0
 11
4555.2530455877331406
 21
217.1954269308475034
 31
0.0
  0
LINE
  5
10B23
  8
0
 10
4554.4627026207390372
 20
217.5152455772204974
 30
0.0
 11
4554.4627026207390372
 21
217.1954269308475034
 31
0.0
  0
LINE
  5
10B24
  8
0
 10
4555.2846910875332469
 20
217.7105528989474976
 30
0.0
 11
4555.2551635284344229
 21
217.7105528989474976
 31
0.0
  0
ARC
  5
10B25
  8
0
 10
4555.3246910875332105
 20
217.5634269308474984
 30
0.0
 40
0.0299999999999635
 50
150.0809656583759875
 51
180.0
  0
ARC
  5
10B26
  8
0
 10
4555.6635361717153501
 20
213.0467970548033918
 30
0.0
 40
4.7234329530080341
 50
95.7781507312905518
 51
103.5006543618495982
  0
ARC
  5
10B27
  8
0
 10
4555.1939455877336513
 20
217.6874313411863113
 30
0.0
 40
0.0591
 50
359.9999999999852776
 51
95.7781507312907792
  0
LINE
  5
10B28
  8
0
 10
4555.2551635284344229
 20
217.6121277182475069
 30
0.0
 11
4555.2530455877331406
 21
217.6121277182475069
 31
0.0
  0
ARC
  5
10B29
  8
0
 10
4554.5907026207378294
 20
217.5152455772204974
 30
0.0
 40
0.128
 50
103.5006543618495982
 51
180.0
  0
LINE
  5
10B2A
  8
0
 10
4555.2946910875325557
 20
217.359727295847506
 30
0.0
 11
4555.2846910875332469
 21
217.359727295847506
 31
0.0
  0
LINE
  5
10B2B
  8
0
 10
4555.2946910875325557
 20
217.3526442965475098
 30
0.0
 11
4555.2846910875332469
 21
217.3526442965475098
 31
0.0
  0
ARC
  5
10B2C
  8
0
 10
4556.7073787630788502
 20
215.9136722459824114
 30
0.0
 40
1.2818461452184089
 50
39.1970849905569878
 51
89.3155547735331083
  0
ARC
  5
10B2D
  8
0
 10
4549.246715030568339
 20
210.0207050594131886
 30
0.0
 40
10.7889991204884108
 50
2.2560999470678951
 51
38.4102880107433293
  0
ARC
  5
10B2E
  8
0
 10
4543.7773971428669029
 20
210.0377650393614033
 30
0.0
 40
16.2550666181318206
 50
358.6778996052722164
 51
1.4370753169518571
  0
ARC
  5
10B2F
  8
0
 10
4546.7764901197942891
 20
210.1438171901639009
 30
0.0
 40
13.2603767212118697
 50
318.5692739633565793
 51
357.9207744066143846
  0
ARC
  5
10B30
  8
0
 10
4552.9126910874838359
 20
204.7189588615345031
 30
0.0
 40
5.0700210962341101
 50
270.000000000573209
 51
318.6473804452040781
  0
ARC
  5
10B32
  8
0
 10
4550.1618571164090099
 20
214.2964038727895968
 30
0.0
 40
3.50087060140988
 50
84.4476034044112396
 51
95.5247424733070858
  0
ARC
  5
10B33
  8
0
 10
4549.8275910875336194
 20
217.7522461838615015
 30
0.0
 40
0.0289
 50
95.5247424733070858
 51
180.0
  0
ARC
  5
10B34
  8
0
 10
4550.4977910875331872
 20
217.7520844460051137
 30
0.0
 40
0.0289
 50
0.0
 51
84.4476034044113248
  0
ARC
  5
10B35
  8
0
 10
4555.6619040584300819
 20
214.2973539896158002
 30
0.0
 40
3.499920484335135
 50
84.4468572992402358
 51
95.5270379448094644
  0
ARC
  5
10B36
  8
0
 10
4555.3275910875327099
 20
217.7522372061897897
 30
0.0
 40
0.0289
 50
95.5270379448094644
 51
180.0
  0
ARC
  5
10B37
  8
0
 10
4555.9977910875331872
 20
217.7520845299553116
 30
0.0
 40
0.0289
 50
0.0
 51
84.4468572992402358
  0
ARC
  5
10B38
  8
0
 10
4550.1618991209334126
 20
218.2772744732475019
 30
0.0
 40
0.5785167994000014
 50
301.5313786756710783
 51
238.4674122009056987
  0
ARC
  5
10B39
  8
0
 10
4550.1618991209334126
 20
218.2772744732475019
 30
0.0
 40
0.6349979599000014
 50
305.0128269218442938
 51
235.1415165454783107
  0
ARC
  5
10B3A
  8
0
 10
4555.6618991209334126
 20
218.2772744732475019
 30
0.0
 40
0.5785167994000013
 50
301.5314621625051927
 51
238.4686799999547873
  0
ARC
  5
10B3B
  8
0
 10
4555.6618991209334126
 20
218.2772744732475019
 30
0.0
 40
0.6349979599000016
 50
305.0128283980159267
 51
235.141641524975114
  0
ENDSEC
  0
EOF
