  0
SECTION
  2
HEADER
  9
$ACADVER
  1
AC1009
  9
$INSBASE
 10
3579.2930857160167761
 20
242.0909833088485072
 30
0.0
  9
$EXTMIN
 10
3549.4886674550180032
 20
242.0778894604264053
 30
-0.0015258207003583
  9
$EXTMAX
 10
3579.5283438831597778
 20
275.0696219462644194
 30
0.0000000349246037
  9
$LIMMIN
 10
0.0
 20
0.0
  9
$LIMMAX
 10
11.6929133858000007
 20
8.2677165353999982
  9
$ORTHOMODE
 70
     0
  9
$REGENMODE
 70
     1
  9
$FILLMODE
 70
     1
  9
$QTEXTMODE
 70
     0
  9
$MIRRTEXT
 70
     0
  9
$DRAGMODE
 70
     2
  9
$LTSCALE
 40
0.6431102362
  9
$OSMODE
 70
  4095
  9
$ATTMODE
 70
     1
  9
$TEXTSIZE
 40
0.2
  9
$TRACEWID
 40
0.05
  9
$TEXTSTYLE
  7
STANDARD
  9
$CLAYER
  8
0
  9
$CELTYPE
  6
BYLAYER
  9
$CECOLOR
 62
     7
  9
$DIMSCALE
 40
1.0
  9
$DIMASZ
 40
0.1875
  9
$DIMEXO
 40
0.0625
  9
$DIMDLI
 40
0.4443307087
  9
$DIMRND
 40
0.0
  9
$DIMDLE
 40
0.0
  9
$DIMEXE
 40
0.125
  9
$DIMTP
 40
0.01
  9
$DIMTM
 40
0.01
  9
$DIMTXT
 40
2.0
  9
$DIMCEN
 40
0.1052362205
  9
$DIMTSZ
 40
0.0
  9
$DIMTOL
 70
     1
  9
$DIMLIM
 70
     0
  9
$DIMTIH
 70
     1
  9
$DIMTOH
 70
     1
  9
$DIMSE1
 70
     0
  9
$DIMSE2
 70
     0
  9
$DIMTAD
 70
     0
  9
$DIMZIN
 70
     0
  9
$DIMBLK
  1

  9
$DIMASO
 70
     1
  9
$DIMSHO
 70
     1
  9
$DIMPOST
  1
\X
  9
$DIMAPOST
  1

  9
$DIMALT
 70
     1
  9
$DIMALTD
 70
     2
  9
$DIMALTF
 40
25.3999999999999986
  9
$DIMLFAC
 40
1.0
  9
$DIMTOFL
 70
     0
  9
$DIMTVP
 40
0.0
  9
$DIMTIX
 70
     0
  9
$DIMSOXD
 70
     0
  9
$DIMSAH
 70
     0
  9
$DIMBLK1
  1

  9
$DIMBLK2
  1

  9
$DIMSTYLE
  2
STANDARD
  9
$DIMCLRD
 70
     0
  9
$DIMCLRE
 70
     0
  9
$DIMCLRT
 70
     0
  9
$DIMTFAC
 40
1.0
  9
$DIMGAP
 40
0.09
  9
$LUNITS
 70
     2
  9
$LUPREC
 70
     4
  9
$SKETCHINC
 40
0.1
  9
$FILLETRAD
 40
0.0
  9
$AUNITS
 70
     0
  9
$AUPREC
 70
     0
  9
$MENU
  1
.
  9
$ELEVATION
 40
0.0
  9
$PELEVATION
 40
0.0
  9
$THICKNESS
 40
0.0
  9
$LIMCHECK
 70
     0
  9
$BLIPMODE
 70
     0
  9
$CHAMFERA
 40
0.0
  9
$CHAMFERB
 40
0.0
  9
$SKPOLY
 70
     0
  9
$TDCREATE
 40
2458060.468368056230247
  9
$TDUPDATE
 40
2461028.6343518518842757
  9
$TDINDWG
 40
0.8219399306
  9
$TDUSRTIMER
 40
0.8219399306
  9
$USRTIMER
 70
     1
  9
$ANGBASE
 50
0.0
  9
$ANGDIR
 70
     0
  9
$PDMODE
 70
     0
  9
$PDSIZE
 40
0.3125
  9
$PLINEWID
 40
0.0
  9
$COORDS
 70
     1
  9
$SPLFRAME
 70
     0
  9
$SPLINETYPE
 70
     6
  9
$SPLINESEGS
 70
     8
  9
$ATTDIA
 70
     1
  9
$ATTREQ
 70
     1
  9
$HANDLING
 70
     1
  9
$HANDSEED
  5
12D62
  9
$SURFTAB1
 70
     6
  9
$SURFTAB2
 70
     6
  9
$SURFTYPE
 70
     6
  9
$SURFU
 70
     6
  9
$SURFV
 70
     6
  9
$UCSNAME
  2

  9
$UCSORG
 10
0.0
 20
0.0
 30
0.0
  9
$UCSXDIR
 10
1.0
 20
0.0
 30
0.0
  9
$UCSYDIR
 10
0.0
 20
1.0
 30
0.0
  9
$PUCSNAME
  2

  9
$PUCSORG
 10
0.0
 20
0.0
 30
0.0
  9
$PUCSXDIR
 10
1.0
 20
0.0
 30
0.0
  9
$PUCSYDIR
 10
0.0
 20
1.0
 30
0.0
  9
$USERI1
 70
     0
  9
$USERI2
 70
     0
  9
$USERI3
 70
     0
  9
$USERI4
 70
     0
  9
$USERI5
 70
     0
  9
$USERR1
 40
0.0
  9
$USERR2
 40
0.0
  9
$USERR3
 40
0.0
  9
$USERR4
 40
0.0
  9
$USERR5
 40
0.0
  9
$WORLDVIEW
 70
     1
  9
$SHADEDGE
 70
     3
  9
$SHADEDIF
 70
    70
  9
$TILEMODE
 70
     1
  9
$MAXACTVP
 70
    64
  9
$PLIMCHECK
 70
     0
  9
$PEXTMIN
 10
1.0000000000000000E+20
 20
1.0000000000000000E+20
 30
1.0000000000000000E+20
  9
$PEXTMAX
 10
-1.0000000000000000E+20
 20
-1.0000000000000000E+20
 30
-1.0000000000000000E+20
  9
$PLIMMIN
 10
0.0
 20
0.0
  9
$PLIMMAX
 10
12.0
 20
9.0
  9
$UNITMODE
 70
     0
  9
$VISRETAIN
 70
     1
  9
$PLINEGEN
 70
     0
  9
$PSLTSCALE
 70
     1
  0
ENDSEC
  0
SECTION
  2
TABLES
  0
TABLE
  2
VPORT
 70
     1
  0
VPORT
  2
*ACTIVE
 70
     0
 10
0.0
 20
0.0
 11
1.0
 21
1.0
 12
118.9738375431516033
 22
51.5474778549200323
 13
0.0
 23
0.0
 14
1.0
 24
1.0
 15
0.0
 25
0.0
 16
0.0
 26
0.0
 36
0.0338437241156522
 17
3445.5346681259370598
 27
207.026277848425309
 37
0.0
 40
33.2271075095182198
 41
1.9261904761904749
 42
50.0
 43
0.0
 44
0.0
 50
0.0
 51
0.0
 71
     0
 72
   100
 73
     1
 74
     1
 75
     0
 76
     0
 77
     0
 78
     0
  0
ENDTAB
  0
TABLE
  2
LTYPE
 70
     2
  0
LTYPE
  2
CONTINUOUS
 70
     0
  3
Solid line
 72
    65
 73
     0
 40
0.0
  0
LTYPE
  2
PHANTOM2
 70
     0
  3
___ _ _ ___ _ _ ___ _ _ ___ _ _
 72
    65
 73
     6
 40
1.25
 49
0.625
 49
-0.125
 49
0.125
 49
-0.125
 49
0.125
 49
-0.125
  0
ENDTAB
  0
TABLE
  2
LAYER
 70
     2
  0
LAYER
  2
0
 70
     0
 62
   255
  6
CONTINUOUS
  0
LAYER
  2
DEFPOINTS
 70
     0
 62
     7
  6
CONTINUOUS
  0
ENDTAB
  0
TABLE
  2
STYLE
 70
     1
  0
STYLE
  2
STANDARD
 70
     0
 40
0.0
 41
0.8
 50
0.0
 71
     0
 42
0.2
  3
txt
  4

  0
ENDTAB
  0
TABLE
  2
VIEW
 70
     0
  0
ENDTAB
  0
TABLE
  2
UCS
 70
     0
  0
ENDTAB
  0
TABLE
  2
APPID
 70
     9
  0
APPID
  2
ACAD
 70
     0
  0
APPID
  2
ACAD_MLEADERVER
 70
     0
  0
APPID
  2
ACAD_EXEMPT_FROM_CAD_STANDARDS
 70
     0
  0
APPID
  2
ACAD_NAV_VCDISPLAY
 70
     0
  0
APPID
  2
ACAECLAYERSTANDARD
 70
     0
  0
APPID
  2
ACCMTRANSPARENCY
 70
     0
  0
APPID
  2
ACAD_DSTYLE_DIMJAG
 70
     0
  0
APPID
  2
ACAD_DSTYLE_DIMTALN
 70
     0
  0
APPID
  2
ACDBATTR
 70
     0
  0
ENDTAB
  0
TABLE
  2
DIMSTYLE
 70
     1
  0
DIMSTYLE
  2
STANDARD
 70
     0
  3

  4

  5

  6

  7

 40
1.0
 41
0.1875
 42
0.0625
 43
0.38
 44
0.125
 45
0.0
 46
0.0
 47
0.01
 48
0.01
140
0.15625
141
0.09
142
0.0
143
25.3999999999999986
144
1.0
145
0.0
146
1.0
147
0.09
 71
     1
 72
     0
 73
     1
 74
     1
 75
     0
 76
     0
 77
     0
 78
     4
170
     0
171
     2
172
     0
173
     0
174
     0
175
     0
176
     0
177
     0
178
     0
  0
ENDTAB
  0
ENDSEC
  0
SECTION
  2
BLOCKS
  0
BLOCK
  8
0
  2
$MODEL_SPACE
 70
     0
 10
0.0
 20
0.0
 30
0.0
  3
$MODEL_SPACE
  1

  0
ENDBLK
  5
21
  8
0
  0
BLOCK
 67
     1
  8
0
  2
$PAPER_SPACE
 70
     0
 10
0.0
 20
0.0
 30
0.0
  3
$PAPER_SPACE
  1

  0
ENDBLK
  5
1D
 67
     1
  8
0
  0
BLOCK
  8
0
  2
_FILLED
 70
     0
 10
0.0
 20
0.0
 30
0.0
  3
_FILLED
  1

  0
SOLID
  5
11BFB
  8
0
  6
BYBLOCK
 62
     0
 10
0.0
 20
0.0
 30
0.0
 11
-1.0
 21
0.1666666667
 31
0.0
 12
-1.0
 22
-0.1666666667
 32
0.0
 13
-1.0
 23
-0.1666666667
 33
0.0
  0
ENDBLK
  5
11BFC
  8
0
  6
BYBLOCK
 62
     0
  0
ENDSEC
  0
SECTION
  2
ENTITIES
  0
ATTDEF
  5
3930
  8
DEFPOINTS
 10
3579.2846484145570685
 20
242.095080539420195
 30
0.0
 40
0.001
  1
P70320-00
  3

  2
MODELNUMBER
 70
     0
1001
ACDBATTR
1070
     0
1070
     1
  0
ATTDEF
  5
3931
  8
DEFPOINTS
 10
3579.2846484145570685
 20
242.0934138727535014
 30
0.0
 40
0.001
  1
KALLISTA
  3

  2
BRANDNAME
 70
     0
1001
ACDBATTR
1070
     0
1070
     1
  0
ATTDEF
  5
3932
  8
DEFPOINTS
 10
3579.2846484145570685
 20
242.0917472060868079
 30
0.0
 40
0.001
  1
TOILET
  3

  2
PRODUCT
 70
     0
1001
ACDBATTR
1070
     0
1070
     1
  0
LINE
  5
12AC7
  8
0
 10
3567.6119013510419791
 20
260.7081583411484189
 30
0.0
 11
3567.6268649383641787
 21
260.7081583411484189
 31
0.0
  0
LINE
  5
12AC8
  8
0
 10
3550.5222846067008504
 20
258.8320866011483758
 30
0.0
 11
3561.84818684918082
 21
258.8320866011483758
 31
0.0
  0
LINE
  5
12AC9
  8
0
 10
3550.6325504636238293
 20
259.357997890548404
 30
0.0
 11
3561.2806584386648865
 21
259.357997890548404
 31
0.0
  0
LINE
  5
12ACA
  8
0
 10
3550.5232846067010541
 20
259.5410620495483727
 30
0.0
 11
3562.2156139546609666
 21
259.5410620495483727
 31
0.0
  0
LINE
  5
12ACB
  8
0
 10
3550.3918799389011838
 20
259.6040620489484922
 30
0.0
 11
3561.2037032163320873
 21
259.6040620489484922
 31
0.0
  0
LINE
  5
12ACC
  8
0
 10
3550.7142810732780163
 20
260.2380846636607998
 30
0.0
 11
3553.3654995625838637
 21
260.2380846636607998
 31
0.0
  0
LINE
  5
12ACD
  8
0
 10
3552.8031528506489849
 20
258.7073119065483979
 30
0.0
 11
3555.1167379092489682
 21
258.7073119065483979
 31
0.0
  0
LINE
  5
12ACE
  8
0
 10
3556.1350219327778177
 20
258.7073119065483979
 30
0.0
 11
3564.6888740626700383
 21
258.7073119065483979
 31
0.0
  0
LINE
  5
12ACF
  8
0
 10
3555.5512122384047871
 20
258.5923906412983797
 30
0.0
 11
3555.7068137234041387
 21
258.5923906412983797
 31
0.0
  0
ARC
  5
12AD0
  8
0
 10
3551.6552638619741629
 20
259.6581660654816801
 30
0.0
 40
1.2607058827519071
 50
161.7703764065402936
 51
177.9137220705935931
  0
ARC
  5
12AD1
  8
0
 10
3665.9502873571168493
 20
255.5937040839889107
 30
0.0
 40
115.6279745392158986
 50
177.9628135088032082
 51
178.0123955372060038
  0
ARC
  5
12AD2
  8
0
 10
3550.7142810732780163
 20
259.968084663660818
 30
0.0
 40
0.27
 50
90.0
 51
161.7703764065387873
  0
ARC
  5
12AD3
  8
0
 10
3550.5252405404758065
 20
259.6744264582861774
 30
0.0
 40
0.133378750912247
 50
211.8402943616709138
 51
269.1597554590343861
  0
ARC
  5
12AD4
  8
0
 10
3550.5237389293438355
 20
258.9646495460432902
 30
0.0
 40
0.1325709222022546
 50
211.6500357585296115
 51
269.3714442085237124
  0
ARC
  5
12AD5
  8
0
 10
3555.4143391794909803
 20
258.7188350362889082
 30
0.0
 40
5.0265502115391678
 50
176.849541279492513
 51
177.9905725540207015
  0
ARC
  5
12AD6
  8
0
 10
3551.6395279038802073
 20
258.926605783947025
 30
0.0
 40
1.2460252678230139
 50
170.4820560303139985
 51
176.849541279492513
  0
ARC
  5
12AD7
  8
0
 10
3550.6776247639982103
 20
259.091694001861697
 30
0.0
 40
0.2700915653696774
 50
99.6067704428551224
 51
171.2794258616362129
  0
ARC
  5
12AD8
  8
0
 10
3550.5975248285631096
 20
259.5654263392107737
 30
0.0
 40
0.210364817462247
 50
279.5843540424743878
 51
323.1041996339091043
  0
ARC
  5
12AD9
  8
0
 10
3551.0008810815011202
 20
259.2528023006483977
 30
0.0
 40
0.3000010581999981
 50
106.0843288355049054
 51
141.6038778970869885
  0
ARC
  5
12ADA
  8
0
 10
3551.7754782985020938
 20
257.5400427147486084
 30
0.0
 40
1.502217828799743
 50
53.9808052214579988
 51
59.3282762945060824
  0
ARC
  5
12ADB
  8
0
 10
3552.8057604747677942
 20
258.957040689644316
 30
0.0
 40
0.2497423969015097
 50
233.9720070756370944
 51
269.4017492691793905
  0
ARC
  5
12ADC
  8
0
 10
3535.48584859288394
 20
256.3214388927196978
 30
0.0
 40
19.713600479419231
 50
7.1804345956459219
 51
7.3168365705892491
  0
ARC
  5
12ADD
  8
0
 10
3555.0568810581021353
 20
258.7870457650383855
 30
0.0
 40
0.0121321813326604
 50
187.180434595650695
 51
219.2080726685126137
  0
ARC
  5
12ADE
  8
0
 10
3555.5247296986890433
 20
259.1687235818519071
 30
0.0
 40
0.6159204772995643
 50
219.2080726685138075
 51
228.5160785461843034
  0
ARC
  5
12ADF
  8
0
 10
3555.3705199326391266
 20
258.9943225562853968
 30
0.0
 40
0.3831193397085453
 50
228.5160785461843034
 51
259.8978872510605811
  0
ARC
  5
12AE0
  8
0
 10
3555.5881074584699491
 20
260.2155911123941792
 30
0.0
 40
1.623619729687144
 50
259.8978872510605811
 51
268.6978956148121824
  0
ARC
  5
12AE1
  8
0
 10
3565.6995251105181524
 20
257.6018013654161223
 30
0.0
 40
9.5661299568289007
 50
172.6108177113501938
 51
172.8919111224242897
  0
ARC
  5
12AE2
  8
0
 10
3556.1950992443280484
 20
258.7870028404894924
 30
0.0
 40
0.0119081294609214
 50
324.9602778290139895
 51
352.8919111224195149
  0
ARC
  5
12AE3
  8
0
 10
3555.7512112940198676
 20
259.1450666740220186
 30
0.0
 40
0.5821854024879555
 50
311.2433415141892965
 51
321.1872161454490993
  0
ARC
  5
12AE4
  8
0
 10
3555.6983822284369126
 20
259.8478059979727277
 30
0.0
 40
1.255443669736322
 50
270.3847983942620772
 51
281.9420054191469944
  0
ARC
  5
12AE5
  8
0
 10
3555.8763177307628212
 20
259.0064990827912084
 30
0.0
 40
0.3955260175624351
 50
281.9419986334734176
 51
310.8496486970356045
  0
ARC
  5
12AE6
  8
0
 10
3564.6887389075350256
 20
258.9476311694123751
 30
0.0
 40
0.2403193008694545
 50
270.0322230431488038
 51
301.5813071463060169
  0
ARC
  5
12AE7
  8
0
 10
3565.5913938731978305
 20
257.4599583714589812
 30
0.0
 40
1.499787823541239
 50
110.0479017024585033
 51
121.1940701034844068
  0
ARC
  5
12AE8
  8
0
 10
3549.3506361513332195
 20
316.0427295645557138
 30
0.0
 40
55.9488831052594122
 50
274.1150528716822237
 51
275.5818894396156225
  0
ARC
  5
12AE9
  8
0
 10
3563.9306185953200838
 20
169.3558421821697095
 30
0.0
 40
91.4609364400361784
 50
94.4399230663716338
 51
95.7340299119391744
  0
ARC
  5
12AEA
  8
0
 10
3558.7237837931329523
 20
237.2164918917580962
 30
0.0
 40
23.4009348469984602
 50
91.0648935523651346
 51
94.5920635386935942
  0
ARC
  5
12AEB
  8
0
 10
3559.1114808171400909
 20
216.3591533057089862
 30
0.0
 40
44.2618763855655928
 50
87.925720317570935
 51
91.0648935523651346
  0
ARC
  5
12AEC
  8
0
 10
3557.1457567772949915
 20
162.0856229013635925
 30
0.0
 40
98.5709932404015632
 50
86.6001476391474512
 51
87.925720317570935
  0
ARC
  5
12AED
  8
0
 10
3564.1345048394118749
 20
279.7247552235972989
 30
0.0
 40
19.2755512698374716
 50
266.600147639147508
 51
271.119542401708884
  0
ARC
  5
12AEE
  8
0
 10
3564.0657662208800502
 20
283.2422026034660121
 30
0.0
 40
22.7936702371015016
 50
271.119542401708884
 51
274.9063203107297113
  0
ARC
  5
12AEF
  8
0
 10
3522.6732247867439582
 20
660.8163016579221676
 30
0.0
 40
402.6239076355831799
 50
276.1798013300286243
 51
276.408394286263615
  0
ARC
  5
12AF0
  8
0
 10
3566.6921799511292193
 20
260.1179531990169949
 30
0.0
 40
1.25805316141597
 50
2.100415466797092
 51
18.5586036929364084
  0
ARC
  5
12AF1
  8
0
 10
3567.6273146424218794
 20
260.4385872028323092
 30
0.0
 40
0.2695715134185898
 50
17.2128433246617583
 51
90.0955818966999971
  0
ARC
  5
12AF2
  8
0
 10
3572.1638213135120168
 20
260.2368170517564181
 30
0.0
 40
4.2144835450393323
 50
180.9880738352657943
 51
182.3492573701225012
  0
ARC
  5
12AF3
  8
0
 10
3561.2029205159151388
 20
309.3579293297559047
 30
0.0
 40
49.7538672869640095
 50
270.0009013456282787
 51
277.2493404127928898
  0
ARC
  5
12AF4
  8
0
 10
3561.2030952468048781
 20
309.3565557064235918
 30
0.0
 40
49.7524825949610516
 50
277.2493404127928898
 51
277.7972080369746095
  0
ARC
  5
12AF5
  8
0
 10
3567.8187237338188424
 20
260.1353486641054928
 30
0.0
 40
0.1345783360494671
 50
280.9983298131372749
 51
326.4870500425315072
  0
ARC
  5
12AF6
  8
0
 10
3563.7676683904410311
 20
286.7357823742037226
 30
0.0
 40
27.0416056418613486
 50
278.3891391789322824
 51
278.6708388781553936
  0
ARC
  5
12AF7
  8
0
 10
3563.3774044365031841
 20
289.7368849439667997
 30
0.0
 40
30.0675787385210391
 50
276.2299790093769047
 51
278.2905084509698099
  0
ARC
  5
12AF8
  8
0
 10
3560.7651655975928406
 20
312.6897754822730917
 30
0.0
 40
53.1685013893602729
 50
271.5632353446835054
 51
276.3441553234243884
  0
ARC
  5
12AF9
  8
0
 10
3558.6807776167638622
 20
678.6550512600374532
 30
0.0
 40
419.8349129553478178
 50
270.432267296102907
 51
270.8729753208939997
  0
ARC
  5
12AFA
  8
0
 10
3561.237790846163989
 20
510.8442029375785864
 30
0.0
 40
252.0045845538379012
 50
270.8729753208939997
 51
271.1529410938283036
  0
ARC
  5
12AFB
  8
0
 10
3568.2720308878738251
 20
181.2389197978411062
 30
0.0
 40
77.6765405101440933
 50
90.6571523568416211
 51
91.4485379733649069
  0
ARC
  5
12AFC
  8
0
 10
3560.3630001232418181
 20
567.6077032940486333
 30
0.0
 40
308.712646006680302
 50
270.02456941266081
 51
271.3046436999733828
  0
ARC
  5
12AFD
  8
0
 10
3560.0190687121371411
 20
576.8376072815856332
 30
0.0
 40
317.4821160124200219
 50
270.2276788310073243
 51
271.2190521803204888
  0
ARC
  5
12AFE
  8
0
 10
3566.7073461868922095
 20
262.5342074418239235
 30
0.0
 40
3.107562006513743
 50
271.2190521803204888
 51
275.1378797374810006
  0
ARC
  5
12AFF
  8
0
 10
3566.9599491600720285
 20
259.7248249007521963
 30
0.0
 40
0.286846047020801
 50
275.1378797374810006
 51
305.5124865149560947
  0
ARC
  5
12B00
  8
0
 10
3565.7359171481130033
 20
84.0018509576794941
 30
0.0
 40
175.5745060233105903
 50
89.7451316244831219
 51
91.1488685729623143
  0
ARC
  5
12B01
  8
0
 10
3566.4641660407801282
 20
234.3074495618969024
 30
0.0
 40
25.2672254225710411
 50
88.829978035424034
 51
89.880372469869485
  0
ARC
  5
12B02
  8
0
 10
3567.0027115821108055
 20
259.1890117650568754
 30
0.0
 40
0.3810662279355792
 50
2.1006816195920681
 51
93.4009663267835322
  0
LINE
  5
12B03
  8
0
 10
3567.3918809357228383
 20
258.9750857064549905
 30
0.0
 11
3567.3835217174510035
 21
259.2029799752223767
 31
0.0
  0
ARC
  5
12B04
  8
0
 10
3567.0552759459128538
 20
259.1646734274635264
 30
0.0
 40
0.334352918233211
 50
14.24563698798916
 51
77.6871098511334424
  0
ARC
  5
12B05
  8
0
 10
3567.2495062746229451
 20
259.0544989662500939
 30
0.0
 40
0.1459011739318404
 50
273.3018704470861735
 51
326.805023223282717
  0
ARC
  5
12B06
  8
0
 10
3567.3818665385601889
 20
258.9533652578992928
 30
0.0
 40
0.0430201318762579
 50
269.0343080785253846
 51
354.7190423469464804
  0
ARC
  5
12B07
  8
0
 10
3655.6235286204200747
 20
254.5571290264483082
 30
0.0
 40
88.3081239036582417
 50
176.8506942444691106
 51
177.1490415310624087
  0
ARC
  5
12B08
  8
0
 10
3567.9758776354410656
 20
259.3809860615995149
 30
0.0
 40
0.5278299753039098
 50
116.1074210248004022
 51
177.0002853908183909
  0
ARC
  5
12B09
  8
0
 10
3567.9758799973010355
 20
259.3809833760483912
 30
0.0
 40
0.5278334261999963
 50
28.7530250928485707
 51
116.1075229619626015
  0
ARC
  5
12B0A
  8
0
 10
3567.9781398160980643
 20
259.3809446785602972
 30
0.0
 40
0.5258720496085602
 50
329.1627480469339275
 51
28.8751600661446304
  0
ARC
  5
12B0B
  8
0
 10
3567.8240571459668899
 20
259.4219229150012893
 30
0.0
 40
0.6805877837385529
 50
269.9744268604808894
 51
332.8524604562950913
  0
ARC
  5
12B0C
  8
0
 10
3611.1964145684528376
 20
266.791937011194193
 30
0.0
 40
45.6461608710581785
 50
189.9697737393998977
 51
190.0777881543656065
  0
ARC
  5
12B0D
  8
0
 10
3566.3291703102140673
 20
258.817807880738485
 30
0.0
 40
0.0758158787531661
 50
190.0777881543608032
 51
270.9184284058202934
  0
ARC
  5
12B0E
  8
0
 10
3566.6818704378752045
 20
-626.6887201250747239
 30
0.0
 40
885.430791630793351
 50
89.9261093111156242
 51
90.0227444098201772
  0
ARC
  5
12B0F
  8
0
 10
3566.660400325728915
 20
257.2636741508197815
 30
0.0
 40
1.502989147304068
 50
89.5658077421091576
 51
92.2804325429697485
  0
ARC
  5
12B10
  8
0
 10
3566.6429630912471112
 20
257.7015526287166836
 30
0.0
 40
1.0647636134157941
 50
92.2804325429697485
 51
95.1092179514300966
  0
ARC
  5
12B11
  8
0
 10
3566.5855081291601891
 20
258.3441552144367961
 30
0.0
 40
0.4195976224936428
 50
95.1092179514300966
 51
98.9996291617431154
  0
ARC
  5
12B12
  8
0
 10
3566.5343756912898243
 20
258.667006245682785
 30
0.0
 40
0.0927225476113974
 50
98.9996291617431154
 51
106.5427479230963996
  0
ARC
  5
12B13
  8
0
 10
3566.5110343425708379
 20
258.7455899696432198
 30
0.0
 40
0.0107455982203236
 50
106.5427479230972949
 51
126.6853284335733036
  0
ARC
  5
12B14
  8
0
 10
3566.5051706601511796
 20
258.7534609086011983
 30
0.0
 40
0.000930586676675
 50
126.6853284336029049
 51
226.4261819601452999
  0
ARC
  5
12B15
  8
0
 10
3566.5078431518741127
 20
258.7562698705016828
 30
0.0
 40
0.0048077607718783
 50
226.4261819601418892
 51
258.687269829320428
  0
ARC
  5
12B16
  8
0
 10
3566.5251858615602032
 20
258.8180975896215728
 30
0.0
 40
0.0690088278388331
 50
254.6343560234421943
 51
264.2902045538912716
  0
ARC
  5
12B17
  8
0
 10
3566.5769076793148997
 20
259.326036351902701
 30
0.0
 40
0.5795740338398115
 50
264.1982222230702746
 51
268.3866461997582746
  0
ARC
  5
12B18
  8
0
 10
3566.6620755045291844
 20
262.2791917463194977
 30
0.0
 40
3.5339571662624278
 50
268.3543969050859914
 51
271.3413222146299972
  0
ARC
  5
12B19
  8
0
 10
3566.7332886749131831
 20
259.4667179248236266
 30
0.0
 40
0.7206069380581465
 50
270.9152787687665978
 51
275.6286825555201858
  0
ARC
  5
12B1A
  8
0
 10
3566.7977647726279429
 20
258.8083332000368841
 30
0.0
 40
0.0590741998996873
 50
276.0262252777961862
 51
286.4922994704954249
  0
ARC
  5
12B1B
  8
0
 10
3566.8127498958169781
 20
258.757321109056079
 30
0.0
 40
0.0059078612754207
 50
287.5886450544911099
 51
308.8900278522435201
  0
ARC
  5
12B1C
  8
0
 10
3566.8157637916910971
 20
258.7534641886933855
 30
0.0
 40
0.0010164269079037
 50
313.1559680376918209
 51
56.3853090525235601
  0
ARC
  5
12B1D
  8
0
 10
3566.799939673271183
 20
258.7221967271756853
 30
0.0
 40
0.0360531787764718
 50
62.9660763062677802
 51
81.9752420121730836
  0
ARC
  5
12B1E
  8
0
 10
3566.748280226695897
 20
258.4440034277500899
 30
0.0
 40
0.3189719920297409
 50
79.7621388504064441
 51
84.4716716371514593
  0
ARC
  5
12B1F
  8
0
 10
3566.6835960131497814
 20
257.7911587462007788
 30
0.0
 40
0.975012767998108
 50
84.3841324699794626
 51
87.8639188311930894
  0
ARC
  5
12B20
  8
0
 10
3566.6616957167339024
 20
257.3052185639648997
 30
0.0
 40
1.4614364394940691
 50
87.7160125479517063
 51
89.6042495238219487
  0
LINE
  5
12B21
  8
0
 10
3567.6438926600008017
 20
258.7415352000360826
 30
0.0
 11
3567.6438926600008017
 21
258.602981165024687
 31
0.0
  0
ARC
  5
12B22
  8
0
 10
3567.9758799389010164
 20
259.3809833088483856
 30
0.0
 40
0.5600000000000068
 50
165.5708861215998127
 51
196.4256529774079922
  0
ARC
  5
12B23
  8
0
 10
3567.9758799389010164
 20
259.3809833088483856
 30
0.0
 40
0.5599999999999845
 50
101.7607271389122019
 51
165.5708861215998127
  0
ARC
  5
12B24
  8
0
 10
3567.9758799389010164
 20
259.3809833088483856
 30
0.0
 40
0.5600000000000137
 50
34.9090012089757309
 51
101.7607271389122019
  0
ARC
  5
12B25
  8
0
 10
3567.9758799392911897
 20
259.3809833091206087
 30
0.0
 40
0.5599999995243832
 50
1.399999966630477
 51
34.9090012089757309
  0
LINE
  5
12B26
  8
0
 10
3569.6629954210020514
 20
258.7709812487483987
 30
0.0
 11
3569.6688529644038681
 21
258.6033820053600039
 31
0.0
  0
ARC
  5
12B27
  8
0
 10
3569.16406770568301
 20
258.7382538795675941
 30
0.0
 40
0.499999945806526
 50
3.752963742515198
 51
9.8032362479316433
  0
ARC
  5
12B28
  8
0
 10
3569.6370588281019991
 20
258.8199811463484252
 30
0.0
 40
0.0199999999999824
 50
9.8032357904214571
 51
54.6340522389100229
  0
LINE
  5
12B29
  8
0
 10
3568.5357127731008404
 20
259.394665328548399
 30
0.0
 11
3568.5420930874020087
 21
258.9507272253483734
 31
0.0
  0
ARC
  5
12B2A
  8
0
 10
3568.5908040751310182
 20
258.9244153499345771
 30
0.0
 40
0.0534984777533299
 50
172.9899003946617881
 51
267.1911494200169841
  0
ARC
  5
12B2B
  8
0
 10
3568.5812191312888899
 20
258.931671623116074
 30
0.0
 40
0.0435196884948323
 50
154.03247516209629
 51
180.95729240949521
  0
LINE
  5
12B2C
  8
0
 10
3568.5420930874020087
 20
258.9507272253483734
 30
0.0
 11
3569.605169109651797
 21
258.9505798161061989
 31
0.0
  0
LINE
  5
12B2D
  8
0
 10
3569.6345963916460278
 20
258.9293154245835922
 30
0.0
 11
3569.6539129766438236
 21
258.8709197273938116
 31
0.0
  0
ARC
  5
12B2E
  8
0
 10
3569.6051648111010763
 20
258.9195798164042799
 30
0.0
 40
0.031
 50
18.3035859532543306
 51
89.9920551990696964
  0
LINE
  5
12B2F
  8
0
 10
3569.6539129766438236
 20
258.8709197273938116
 30
0.0
 11
3568.5881824327020695
 21
258.8709811463484129
 31
0.0
  0
LINE
  5
12B30
  8
0
 10
3569.6442245748139612
 20
258.8561235630679107
 30
0.0
 11
3569.6510610616569465
 21
258.8233865846415824
 31
0.0
  0
ARC
  5
12B31
  8
0
 10
3569.6260173492751164
 20
258.8523213350114816
 30
0.0
 40
0.0186
 50
11.7955990415450191
 51
89.9966979956637942
  0
LINE
  5
12B32
  8
0
 10
3569.6510610616569465
 20
258.8233865846415824
 30
0.0
 11
3569.6567667937879378
 21
258.8233864493483907
 31
0.0
  0
ARC
  5
12B33
  8
0
 10
3569.0189059615959195
 20
257.8431568909795146
 30
0.0
 40
1.1358242554467699
 50
77.1906586320760937
 51
102.806363485028001
  0
ARC
  5
12B34
  8
0
 10
3566.6875974758859229
 20
259.9093720453889205
 30
0.0
 40
0.078378470828096
 50
232.8825303573086103
 51
270.0647917719882116
  0
ARC
  5
12B35
  8
0
 10
3566.8682796283001153
 20
100.1310539515219062
 30
0.0
 40
159.7000417834263999
 50
89.8681477968624449
 51
90.0647917719882543
  0
ARC
  5
12B36
  8
0
 10
3567.2255049400509961
 20
259.6335430498002097
 30
0.0
 40
0.1973979332423914
 50
5.1252843294566004
 51
87.0134033325357734
  0
ARC
  5
12B37
  8
0
 10
3568.8043269076169963
 20
259.7059809513514779
 30
0.0
 40
1.383299313881998
 50
182.2705398651469011
 51
187.7294601126619966
  0
ARC
  5
12B38
  8
0
 10
3567.7334080362102213
 20
259.1649455735434913
 30
0.0
 40
0.8338039797243093
 50
67.6178694154925353
 51
85.5400460012311044
  0
ARC
  5
12B39
  8
0
 10
3567.0470770425308729
 20
258.355844307547784
 30
0.0
 40
1.502989147304068
 50
89.5658077421091576
 51
92.2804325429697485
  0
ARC
  5
12B3A
  8
0
 10
3567.0296398080499785
 20
258.793722785444686
 30
0.0
 40
1.0647636134157941
 50
92.2804325429697485
 51
95.1092179514300966
  0
ARC
  5
12B3B
  8
0
 10
3566.9721848459621469
 20
259.4363253711647985
 30
0.0
 40
0.4195976224936428
 50
95.1092179514300966
 51
98.9996291617431154
  0
ARC
  5
12B3C
  8
0
 10
3566.9210524080917821
 20
259.7591764024107874
 30
0.0
 40
0.0927225476113974
 50
98.9996291617431154
 51
106.5427479230963996
  0
ARC
  5
12B3D
  8
0
 10
3566.8977110593727957
 20
259.8377601263712222
 30
0.0
 40
0.0107455982203236
 50
106.5427479230972949
 51
126.6853284335733036
  0
ARC
  5
12B3E
  8
0
 10
3566.8918473769531374
 20
259.8456310653292007
 30
0.0
 40
0.000930586676675
 50
126.6853284336029049
 51
226.4261819601452999
  0
ARC
  5
12B3F
  8
0
 10
3566.8945198686760705
 20
259.8484400272296853
 30
0.0
 40
0.0048077607718783
 50
226.4261819601418892
 51
258.687269829320428
  0
ARC
  5
12B40
  8
0
 10
3566.911862578362161
 20
259.9102677463495752
 30
0.0
 40
0.0690088278388331
 50
254.6343560234421943
 51
264.2902045538912716
  0
ARC
  5
12B41
  8
0
 10
3566.963584396115948
 20
260.4182065086307034
 30
0.0
 40
0.5795740338398115
 50
264.1982222230702746
 51
268.3866461997582746
  0
ARC
  5
12B42
  8
0
 10
3567.0487522213311422
 20
263.3713619030475002
 30
0.0
 40
3.5339571662624278
 50
268.3543969050859914
 51
271.3413222146299972
  0
ARC
  5
12B43
  8
0
 10
3567.1199653917137766
 20
260.5588880815515722
 30
0.0
 40
0.7206069380581465
 50
270.9152787687665978
 51
275.6286825555201858
  0
ARC
  5
12B44
  8
0
 10
3567.1844414894299007
 20
259.9005033567650003
 30
0.0
 40
0.0590741998996873
 50
276.0262252777961862
 51
286.4922994704954249
  0
ARC
  5
12B45
  8
0
 10
3567.1994266126189359
 20
259.8494912657840814
 30
0.0
 40
0.0059078612754207
 50
287.5886450544911099
 51
308.8900278522435201
  0
ARC
  5
12B46
  8
0
 10
3567.2024405084930549
 20
259.8456343454213879
 30
0.0
 40
0.0010164269079037
 50
313.1559680376918209
 51
56.3853090525235601
  0
ARC
  5
12B47
  8
0
 10
3567.1866163900731408
 20
259.8143668839036877
 30
0.0
 40
0.0360531787764718
 50
62.9660763062677802
 51
81.9752420121730836
  0
ARC
  5
12B48
  8
0
 10
3567.1349569434978548
 20
259.5361735844779787
 30
0.0
 40
0.3189719920297409
 50
79.7621388504064441
 51
84.4716716371514593
  0
ARC
  5
12B49
  8
0
 10
3567.0702727299521939
 20
258.8833289029287812
 30
0.0
 40
0.975012767998108
 50
84.3841324699794626
 51
87.8639188311930894
  0
ARC
  5
12B4A
  8
0
 10
3567.0483724335358602
 20
258.3973887206927884
 30
0.0
 40
1.4614364394940691
 50
87.7160125479517063
 51
89.6042495238219487
  0
LINE
  5
12B4B
  8
0
 10
3550.3908799388009356
 20
258.8950856710483777
 30
0.0
 11
3560.4953813950728545
 21
258.8950856710483777
 31
0.0
  0
LINE
  5
12B4C
  8
0
 10
3569.6568596616029936
 20
258.5909811463483834
 30
0.0
 11
3567.6558926600018822
 21
258.5909811463483834
 31
0.0
  0
ARC
  5
12B4D
  8
0
 10
3569.6568596616029936
 20
258.6029811463483838
 30
0.0
 40
0.012
 50
270.0000000000521254
 51
1.9143169350028431
  0
ARC
  5
12B4E
  8
0
 10
3567.6558926600018822
 20
258.6029811463483838
 30
0.0
 40
0.012
 50
180.0000000000098055
 51
269.9999999999478746
  0
LINE
  5
12B4F
  8
0
 10
3555.0478066345322077
 20
258.778976965148388
 30
0.0
 11
3556.2038901734990759
 21
258.778976965148388
 31
0.0
  0
ARC
  5
12B50
  8
0
 10
3574.0695173395970414
 20
218.8485984671121116
 30
0.0
 40
56.2142202332797609
 50
86.5621985339724063
 51
92.6878460363796535
  0
ARC
  5
12B51
  8
0
 10
3571.4477285561001736
 20
274.6952573487383233
 30
0.0
 40
0.3060537039972477
 50
92.6878460363796535
 51
143.2985217821307913
  0
ARC
  5
12B52
  8
0
 10
3570.7230768664421703
 20
275.2354251552154096
 30
0.0
 40
0.5977722363682004
 50
288.978674640015015
 51
323.2985217821308197
  0
ARC
  5
12B53
  8
0
 10
3568.1863362863527982
 20
282.6115720890292096
 30
0.0
 40
8.3979386679184085
 50
287.1878316036497836
 51
288.978674640015015
  0
ARC
  5
12B54
  8
0
 10
3570.8751382824061693
 20
273.9189213494034902
 30
0.0
 40
0.7010630935440169
 50
107.1878316036497978
 51
158.8453328195157042
  0
ARC
  5
12B55
  8
0
 10
3569.357355735614874
 20
274.5062492763231035
 30
0.0
 40
0.92639441836938
 50
337.0159297682560009
 51
338.8453328195158178
  0
ARC
  5
12B56
  8
0
 10
3570.0430892878857776
 20
274.215397630116513
 30
0.0
 40
0.1815285345953076
 50
300.5368676736110274
 51
337.0159297682560009
  0
ARC
  5
12B57
  8
0
 10
3570.2661218320981789
 20
273.8373200237560923
 30
0.0
 40
0.2574318192051723
 50
120.536867673610999
 51
178.0601143552856911
  0
ARC
  5
12B58
  8
0
 10
11326.0514866269204504
 20
138.3230250232413141
 30
0.0
 40
7757.2265701325222835
 50
178.9989603314315048
 51
179.0031190288590892
  0
ARC
  5
12B59
  8
0
 10
3570.1210084567860576
 20
273.2829538567871737
 30
0.0
 40
0.1219872015550483
 50
179.9419650050029986
 51
269.0532404080489073
  0
LINE
  5
12B5A
  8
0
 10
3570.1189928232001876
 20
273.160983308848472
 30
0.0
 11
3577.9608806949931932
 21
273.1610478408068161
 31
0.0
  0
ARC
  5
12B5B
  8
0
 10
3577.9624750037301055
 20
274.1154783300501094
 30
0.0
 40
0.9544892121465
 50
269.787977402543504
 51
281.262717951192883
  0
ARC
  5
12B5C
  8
0
 10
3577.1834471017268697
 20
278.0273777827085269
 30
0.0
 40
4.9432035162561316
 50
281.262717951192883
 51
284.6642371932098854
  0
ARC
  5
12B5D
  8
0
 10
3578.2690647571880618
 20
273.8787011436414787
 30
0.0
 40
0.6548374463655318
 50
284.6642371932098854
 51
288.2670940279746219
  0
ARC
  5
12B5E
  8
0
 10
3578.4407191996638176
 20
273.3745261923867247
 30
0.0
 40
0.1223665163532917
 50
285.9384859264990268
 51
0.6864879839633797
  0
ARC
  5
12B5F
  8
0
 10
3177.3802420273909775
 20
266.7076263792500868
 30
0.0
 40
401.2382510762579955
 50
0.9522691626987562
 51
1.015910415532959
  0
ARC
  5
12B60
  8
0
 10
3577.451997734221095
 20
274.6471847606802044
 30
0.0
 40
0.3146889428209667
 50
71.7413460884590108
 51
92.1101863511585606
  0
ARC
  5
12B61
  8
0
 10
3577.4552428566407798
 20
274.6606257414935044
 30
0.0
 40
0.3009100901883819
 50
47.2295454337442777
 51
71.5262945873263192
  0
ARC
  5
12B62
  8
0
 10
3573.2741942777502118
 20
270.1863453082489173
 30
0.0
 40
6.4246595848629848
 50
46.1594597053202591
 51
46.9539121551250673
  0
ARC
  5
12B63
  8
0
 10
3578.4955487014399296
 20
275.6935147025491233
 30
0.0
 40
1.1651007413333809
 50
228.547839306670113
 51
238.8884156820423073
  0
ARC
  5
12B64
  8
0
 10
3524.5691821457558035
 20
177.3906557477839954
 30
0.0
 40
110.9586242033861936
 50
61.160044559630677
 51
61.2767952833870595
  0
ARC
  5
12B65
  8
0
 10
3577.4512378804688524
 20
273.4240638249601716
 30
0.0
 40
1.3277558968426031
 50
54.5211056625397603
 51
61.160044559630677
  0
ARC
  5
12B66
  8
0
 10
3577.5148239680797815
 20
273.5132777272294788
 30
0.0
 40
1.2182008381010769
 50
38.572170292586847
 51
54.5211056625397603
  0
ARC
  5
12B67
  8
0
 10
3577.3159790692861861
 20
273.354700000680225
 30
0.0
 40
1.4725356354328061
 50
36.2884149694643696
 51
38.5721702925881189
  0
ARC
  5
12B68
  8
0
 10
3578.2945330387287868
 20
274.0732147727999859
 30
0.0
 40
0.258521076679591
 50
353.7480107195656842
 51
36.2884149694643696
  0
ARC
  5
12B69
  8
0
 10
3563.6629978298042261
 20
273.6730517848134241
 30
0.0
 40
14.8931656026617105
 50
0.5714985826749582
 51
1.4313143679038181
  0
LINE
  5
12B6A
  8
0
 10
3570.2213200906621751
 20
274.17192576294849
 30
0.0
 11
3575.9236481261950757
 21
274.1653542738391138
 31
0.0
  0
ARC
  5
12B6B
  8
0
 10
3575.4477808582391845
 20
167.9242943508461963
 30
0.0
 40
106.2421256527639031
 50
88.6529522629147237
 51
89.7433666065915645
  0
ARC
  5
12B6C
  8
0
 10
3577.5024552934928579
 20
255.3024021168542959
 30
0.0
 40
18.8398636465492402
 50
87.0307987049308878
 51
88.6529522629147237
  0
ARC
  5
12B6D
  8
0
 10
3578.1580576514670611
 20
267.9420355891401755
 30
0.0
 40
6.183238947779353
 50
86.3657127395464954
 51
87.0307987049308878
  0
LINE
  5
12B6E
  8
0
 10
3570.4348799388008047
 20
273.160983308848472
 30
0.0
 11
3570.43487572933509
 21
273.0984833072100173
 31
0.0
  0
ARC
  5
12B6F
  8
0
 10
3571.959218857507949
 20
273.0983806405030236
 30
0.0
 40
1.5243431316298
 50
179.9961410466655138
 51
199.7054097453327017
  0
ARC
  5
12B70
  8
0
 10
5006.7627271849250974
 20
319.6162709122351089
 30
0.0
 40
1436.891298041653954
 50
181.9182447588061962
 51
182.3177293316618943
  0
ARC
  5
12B71
  8
0
 10
3566.6206998081770507
 20
271.5026548415164029
 30
0.0
 40
4.0559835447621708
 50
0.2250575342819744
 51
15.4876121062863401
  0
ARC
  5
12B72
  8
0
 10
3576.7349728181029604
 20
261.5194891538315005
 30
0.0
 40
5.6838567332326058
 50
180.1261093646538995
 51
200.5463328104196989
  0
ARC
  5
12B73
  8
0
 10
3569.4546588903099291
 20
258.7907790000214732
 30
0.0
 40
2.0910278312304511
 50
13.0515057178324305
 51
20.5463328104196812
  0
ARC
  5
12B74
  8
0
 10
3569.7892564445460266
 20
258.868343814412583
 30
0.0
 40
1.7475575650755211
 50
6.3639735372401507
 51
13.0515057178324305
  0
ARC
  5
12B75
  8
0
 10
3571.7736759553040429
 20
259.089668752604382
 30
0.0
 40
0.2491661321191271
 50
186.3639735372400992
 51
273.5595473435972167
  0
LINE
  5
12B76
  8
0
 10
3571.7891456501661196
 20
258.8409833088484788
 30
0.0
 11
3577.686609154866801
 21
258.8421936215929122
 31
0.0
  0
ARC
  5
12B77
  8
0
 10
3577.6620190922772053
 20
259.0910164720920079
 30
0.0
 40
0.2500349617726723
 50
275.643962357653777
 51
347.830386367014512
  0
ARC
  5
12B78
  8
0
 10
3578.8227616670560565
 20
258.8406993374724152
 30
0.0
 40
0.9373916645032323
 50
154.7794441663658063
 51
167.830386367014512
  0
ARC
  5
12B79
  8
0
 10
3576.3547782078358068
 20
260.0031258752644021
 30
0.0
 40
1.7906438577627299
 50
334.77944416636592
 51
343.0946711489708036
  0
ARC
  5
12B7A
  8
0
 10
3570.0291991075951046
 20
261.1625662247415107
 30
0.0
 40
8.2125441058219835
 50
348.194932861842176
 51
2.4035658287305859
  0
LINE
  5
12B7B
  8
0
 10
3578.2345179979010936
 20
261.5069825403484742
 30
0.0
 11
3578.4241701859009481
 21
272.6020560817485148
 31
0.0
  0
LINE
  5
12B7C
  8
0
 10
3578.4241701845921853
 20
272.6020560051765074
 30
0.0
 11
3578.4293610781987809
 21
272.9149570844517143
 31
0.0
  0
LINE
  5
12B7D
  8
0
 10
3578.4293610781987809
 20
272.9149570844517143
 30
0.0
 11
3578.4324551699919539
 21
273.1014653689526881
 31
0.0
  0
LINE
  5
12B7E
  8
0
 10
3578.4324551661729856
 20
273.1014651387388881
 30
0.0
 11
3578.4348395724250622
 21
273.2451944019284724
 31
0.0
  0
ARC
  5
12B7F
  8
0
 10
3571.7289535121449262
 20
259.8435615524280138
 30
0.0
 40
0.8074228985636787
 50
255.4453337229168142
 51
268.5380086463966904
  0
ARC
  5
12B80
  8
0
 10
3569.6921870991131982
 20
180.0395389451622918
 30
0.0
 40
79.02258675771931
 50
87.9732601702587971
 51
88.5380086463966904
  0
ARC
  5
12B81
  8
0
 10
3573.2212187316440577
 20
360.8456274040221956
 30
0.0
 40
101.8355834198264063
 50
269.5868422845848045
 51
270.4921169387754958
  0
ARC
  5
12B82
  8
0
 10
3570.7927614235918554
 20
581.5898446009339295
 30
0.0
 40
322.5929555502485186
 50
270.5866776002702068
 51
270.982363272967973
  0
ARC
  5
12B83
  8
0
 10
3576.8592538568809687
 20
316.2419223209054167
 30
0.0
 40
57.200127625007589
 50
269.4633418201250947
 51
270.7529742288941179
  0
ARC
  5
12B84
  8
0
 10
3577.6575958059770528
 20
255.4974915345150919
 30
0.0
 40
3.5495490937227641
 50
85.9800097249931667
 51
90.7529742288940753
  0
LINE
  5
12B85
  8
0
 10
3572.2125899388001926
 20
258.8409833088484788
 30
0.0
 11
3572.2125899388001926
 21
258.5909833088484788
 31
0.0
  0
LINE
  5
12B86
  8
0
 10
3572.2775899388011567
 20
258.8409833088484788
 30
0.0
 11
3572.2775899388011567
 21
258.5909833088484788
 31
0.0
  0
LINE
  5
12B87
  8
0
 10
3573.1575899388008111
 20
258.8409833088484788
 30
0.0
 11
3573.1575899388008111
 21
258.5909833088484788
 31
0.0
  0
LINE
  5
12B88
  8
0
 10
3573.1575899388008111
 20
258.7359833088485175
 30
0.0
 11
3573.7634053544011294
 21
258.7359833088485175
 31
0.0
  0
LINE
  5
12B89
  8
0
 10
3573.7634053544011294
 20
258.8409833088484788
 30
0.0
 11
3573.7634053544011294
 21
258.7359833088485175
 31
0.0
  0
LINE
  5
12B8A
  8
0
 10
3575.9021418009010631
 20
258.8409833088484788
 30
0.0
 11
3575.9021418009010631
 21
258.7359833088485175
 31
0.0
  0
LINE
  5
12B8B
  8
0
 10
3575.9021418009010631
 20
258.7359833088485175
 30
0.0
 11
3575.9625899388011021
 21
258.7359833088485175
 31
0.0
  0
LINE
  5
12B8C
  8
0
 10
3575.9625899388011021
 20
258.7359833088485175
 30
0.0
 11
3575.9625899388011021
 21
258.5909833088484788
 31
0.0
  0
ARC
  5
12B8D
  8
0
 10
3575.9925899388008474
 20
258.7359833088485175
 30
0.0
 40
0.029999999999994
 50
90.0
 51
180.0000000000098055
  0
LINE
  5
12B8E
  8
0
 10
3575.9925899388008474
 20
258.7659833088484902
 30
0.0
 11
3576.4042615075018148
 21
258.7659833088484902
 31
0.0
  0
ARC
  5
12B8F
  8
0
 10
3576.4042615075018148
 20
258.6817321396558214
 30
0.0
 40
0.0842511691927142
 50
76.9740041685271166
 51
90.0
  0
ARC
  5
12B90
  8
0
 10
3576.3644883533929715
 20
258.5573159608649121
 30
0.0
 40
0.214697607562006
 50
56.3234732839309871
 51
74.1154278280257586
  0
ARC
  5
12B91
  8
0
 10
3576.2175899388012112
 20
258.7359833088485175
 30
0.0
 40
0.0299999999999999
 50
0.0
 51
81.4285714285073254
  0
LINE
  5
12B92
  8
0
 10
3576.2475899388009566
 20
258.7359833088485175
 30
0.0
 11
3576.2475899388009566
 21
258.5909833088484788
 31
0.0
  0
LINE
  5
12B93
  8
0
 10
3576.483538937000958
 20
258.8409833088484788
 30
0.0
 11
3576.483538937000958
 21
258.7359833088489154
 31
0.0
  0
LINE
  5
12B94
  8
0
 10
3576.483538937000958
 20
258.7359833088489154
 30
0.0
 11
3576.2475899388009566
 21
258.7359833088489154
 31
0.0
  0
LINE
  5
12B95
  8
0
 10
3575.9925899388008474
 20
258.7659833088484902
 30
0.0
 11
3575.9498983042030886
 21
258.7659833088484902
 31
0.0
  0
ARC
  5
12B96
  8
0
 10
3575.9517204631529239
 20
258.7100712507249227
 30
0.0
 40
0.0559417420791869
 50
91.8665934146379186
 51
152.4063900045422884
  0
LINE
  5
12B97
  8
0
 10
3577.22830213340103
 20
258.5909833088484788
 30
0.0
 11
3569.6570874670610465
 21
258.5909833088484788
 31
0.0
  0
LINE
  5
12B98
  8
0
 10
3567.6612985929191382
 20
258.5909834660229194
 30
0.0
 11
3550.5130988567011627
 21
258.5909833088484788
 31
0.0
  0
ARC
  5
12B99
  8
0
 10
3550.5130838521658916
 20
258.3409908772209178
 30
0.0
 40
0.249983472290078
 50
89.9965611779677346
 51
163.6602108916964085
  0
ARC
  5
12B9A
  8
0
 10
3883.8756823407497905
 20
160.6075942188172974
 30
0.0
 40
347.6437642074241126
 50
163.6602108916964085
 51
163.9392061209057943
  0
ARC
  5
12B9B
  8
0
 10
3551.2536530730849336
 20
256.3674913315272192
 30
0.0
 40
1.511748570071467
 50
163.9392061209057943
 51
184.5181954171218877
  0
ARC
  5
12B9C
  8
0
 10
3555.7497885736529497
 20
256.7227815869297274
 30
0.0
 40
6.0218999649860221
 50
184.5181954171218877
 51
188.5164969772721122
  0
ARC
  5
12B9D
  8
0
 10
3554.033514094957809
 20
258.8103440275177718
 30
0.0
 40
5.1814748324205064
 50
215.0999794467387005
 51
222.7540297593556033
  0
ARC
  5
12B9E
  8
0
 10
3564.1720128916858812
 20
269.3479046651792146
 30
0.0
 40
19.7978343289032388
 50
225.228976500257005
 51
230.217542746801513
  0
ARC
  5
12B9F
  8
0
 10
3569.8740462044797823
 20
274.3918545152474167
 30
0.0
 40
27.3469679239847494
 50
227.7981899092146136
 51
231.4439329597352923
  0
ARC
  5
12BA0
  8
0
 10
3552.583013544620826
 20
252.7170533848461957
 30
0.0
 40
0.3800466113901036
 50
356.933750306351385
 51
49.6209302298777502
  0
ARC
  5
12BA1
  8
0
 10
3451.7624340170718824
 20
257.0599707313921272
 30
0.0
 40
101.2940991577271035
 50
353.9434899560203007
 51
357.5312187731535118
  0
ARC
  5
12BA2
  8
0
 10
3540.8632129097300094
 20
247.6515868518270906
 30
0.0
 40
11.6980675449543892
 50
342.9106404860685871
 51
353.7226381332430947
  0
ARC
  5
12BA3
  8
0
 10
3548.8871814275221368
 20
245.1819719008105096
 30
0.0
 40
3.302649491654595
 50
317.0152407421118141
 51
342.9562587541269068
  0
ARC
  5
12BA4
  8
0
 10
3551.6419408048282094
 20
242.5891781512441128
 30
0.0
 40
0.480686950443004
 50
134.8078824511424898
 51
175.8255823272590987
  0
ARC
  5
12BA5
  8
0
 10
3535.8625371976040697
 20
243.7408619176088109
 30
0.0
 40
15.3406895287819403
 50
354.3141031418123248
 51
355.8255823272606904
  0
ARC
  5
12BA6
  8
0
 10
3551.2459810878967801
 20
242.2092142949709057
 30
0.0
 40
0.1188153263464714
 50
174.3141031418107048
 51
275.6846122695927193
  0
LINE
  5
12BA7
  8
0
 10
3551.2577500439028881
 20
242.0909832776812038
 30
0.0
 11
3573.5208562734060251
 21
242.0911638318733026
 31
0.0
  0
ARC
  5
12BA8
  8
0
 10
3573.5140069145008965
 20
242.2209858939484945
 30
0.0
 40
0.1300026212000036
 50
273.0201017471251816
 51
359.9999999999984084
  0
ARC
  5
12BA9
  8
0
 10
3479.8536187272570714
 20
234.3403205023589919
 30
0.0
 40
94.1208919157424759
 50
4.8029519104332881
 51
5.0656868969656577
  0
ARC
  5
12BAA
  8
0
 10
3573.1025798345190196
 20
242.6002002626835861
 30
0.0
 40
0.5068589853448437
 50
5.750518063865945
 51
84.6553831228503242
  0
LINE
  5
12BAB
  8
0
 10
3573.606886010746166
 20
242.6509860043325943
 30
0.0
 11
3562.154543925957114
 21
242.5909961457741133
 31
0.0
  0
ARC
  5
12BAC
  8
0
 10
3557.418291463280184
 20
132.9952693290983063
 30
0.0
 40
109.6984472081936985
 50
87.5208559413904368
 51
90.9573318814833556
  0
ARC
  5
12BAD
  8
0
 10
3547.2761107632559288
 20
739.9426429832741405
 30
0.0
 40
497.3336592038588151
 50
270.4477786124816134
 51
270.9573318814832987
  0
LINE
  5
12BAE
  8
0
 10
3573.1497918510608542
 20
243.1048575006313115
 30
0.0
 11
3562.1635221250007817
 21
243.0895976431484939
 31
0.0
  0
ARC
  5
12BAF
  8
0
 10
3562.1771375823300332
 20
244.0018754426882026
 30
0.0
 40
0.912379397077448
 50
176.3268655195888925
 51
269.1449421138941034
  0
ARC
  5
12BB0
  8
0
 10
3340.7414333498240921
 20
235.3657359240592086
 30
0.0
 40
220.6965322152815929
 50
2.2578166080674591
 51
4.0417168554947853
  0
ARC
  5
12BB1
  8
0
 10
3555.2260798955671817
 20
258.211507561141616
 30
0.0
 40
5.9612544097133124
 50
247.6841140340551988
 51
265.2473593214934908
  0
ARC
  5
12BB2
  8
0
 10
3554.1185918992218831
 20
244.8907473100751986
 30
0.0
 40
7.4054648335579429
 50
74.3663942525445094
 51
85.2473593214935619
  0
ARC
  5
12BB3
  8
0
 10
3592.724731388184864
 20
382.8499442959317207
 30
0.0
 40
135.8536501965984939
 50
254.3663942525444952
 51
255.1852727926234081
  0
ARC
  5
12BB4
  8
0
 10
3560.9397749546528757
 20
262.6737961094075899
 30
0.0
 40
11.5452029839050798
 50
255.1852727926234081
 51
267.1959280813462101
  0
ARC
  5
12BB5
  8
0
 10
3560.2096022248269946
 20
249.504406010091401
 30
0.0
 40
1.6463374191401801
 50
72.0074536592630636
 51
84.2349820483582477
  0
ARC
  5
12BB6
  8
0
 10
3560.5185926915819437
 20
250.5491172542398886
 30
0.0
 40
0.5580158829905107
 50
58.4026132417533574
 51
69.0465076262704827
  0
ARC
  5
12BB7
  8
0
 10
3560.7175973800572137
 20
250.8726278194139923
 30
0.0
 40
0.1781975687740708
 50
15.7643207193630097
 51
58.4026132417533574
  0
ARC
  5
12BB8
  8
0
 10
3556.0382926526081064
 20
248.8426313437105932
 30
0.0
 40
5.2773141139460984
 50
17.5038058687228784
 51
23.1935516569260116
  0
ARC
  5
12BB9
  8
0
 10
3555.638824459287207
 20
248.7166503330010983
 30
0.0
 40
5.696176922673005
 50
4.9987866408664248
 51
17.5038058687228784
  0
ARC
  5
12BBA
  8
0
 10
3582.8500086577910224
 20
251.0967398074662924
 30
0.0
 40
21.6188989767522415
 50
184.998786640866399
 51
187.9182584565996876
  0
ARC
  5
12BBB
  8
0
 10
3565.4996582530029627
 20
248.6835439861262955
 30
0.0
 40
4.1015312166961513
 50
187.9182584565996876
 51
197.9311310681102043
  0
ARC
  5
12BBC
  8
0
 10
3562.5313768806367989
 20
247.7230338768825106
 30
0.0
 40
0.981711674560519
 50
197.9311310681102043
 51
216.1790632192623036
  0
ARC
  5
12BBD
  8
0
 10
3561.7684273099589518
 20
247.5930724385065957
 30
0.0
 40
0.4505180674652655
 50
266.2500874219526281
 51
295.6977345798143233
  0
ARC
  5
12BBE
  8
0
 10
3564.6688181335262016
 20
256.3916806301983797
 30
0.0
 40
9.593814602902011
 50
253.6230077047324016
 51
256.6327900157128852
  0
ARC
  5
12BBF
  8
0
 10
3562.3705011095098598
 20
248.7715557579925019
 30
0.0
 40
1.7156582121047981
 50
272.6830631563399265
 51
278.3802322116608821
  0
ARC
  5
12BC0
  8
0
 10
3562.5843983577901781
 20
245.1450217070263875
 30
0.0
 40
1.929533066140162
 50
75.2669460717607137
 51
88.9266222939730397
  0
ARC
  5
12BC1
  8
0
 10
3562.8553492121782256
 20
244.5486075118787141
 30
0.0
 40
2.4722930465421951
 50
81.7831721439275157
 51
84.9002939004334962
  0
ARC
  5
12BC2
  8
0
 10
3562.2303486331438762
 20
242.6471243559981872
 30
0.0
 40
4.4570954425842437
 50
70.9975349820947912
 51
77.3202361521573636
  0
ARC
  5
12BC3
  8
0
 10
56949.9098805225075921
 20
-405261.5428370360750705
 30
0.0
 40
409007.5246458345791325
 50
97.4999857674052492
 51
97.5000047306364337
  0
ARC
  5
12BC4
  8
0
 10
3563.8656593447490195
 20
246.8831775546165943
 30
0.0
 40
0.0500045826379298
 50
86.533387799740737
 51
184.7948908473321978
  0
ARC
  5
12BC5
  8
0
 10
3563.8554734929689403
 20
-848.5934643681127909
 30
0.0
 40
1095.5265550867989077
 50
89.9842888130534959
 51
89.9993091476681002
  0
ARC
  5
12BC6
  8
0
 10
3564.1546097194009235
 20
251.3922319311483875
 30
0.0
 40
4.4591825808999452
 50
270.0163211563909158
 51
293.074769012423701
  0
ARC
  5
12BC7
  8
0
 10
3564.1534738597410978
 20
251.3944843768566102
 30
0.0
 40
4.4617000005617573
 50
293.0768516610779102
 51
307.8127475620210021
  0
ARC
  5
12BC8
  8
0
 10
1766.7427210049308997
 20
2572.4417771490839186
 30
0.0
 40
2940.0955218605517985
 50
307.7541619518465836
 51
307.8445329610249814
  0
ARC
  5
12BC9
  8
0
 10
3571.1905045487528696
 20
250.5685327058392886
 30
0.0
 40
0.6533155576434849
 50
125.3426881651777052
 51
167.3263891411602913
  0
ARC
  5
12BCA
  8
0
 10
3571.0539713389889585
 20
250.807964061989594
 30
0.0
 40
0.5099999529932081
 50
190.8607946315821948
 51
216.4275129232430004
  0
ARC
  5
12BCB
  8
0
 10
3571.0539713403009046
 20
250.8079640627485105
 30
0.0
 40
0.5099999544999512
 50
216.4275129042808032
 51
246.6624614842160099
  0
ARC
  5
12BCC
  8
0
 10
3571.0539707822272248
 20
250.8079621036492881
 30
0.0
 40
0.5099979346010876
 50
246.6624318615938023
 51
270.0000612251951111
  0
LINE
  5
12BCD
  8
0
 10
3571.0539713272009976
 20
250.2979641690484982
 30
0.0
 11
3571.7256776343010642
 21
250.2979641690484982
 31
0.0
  0
ARC
  5
12BCE
  8
0
 10
3571.7256711308418744
 20
251.1780754886034117
 30
0.0
 40
0.8801113465789624
 50
270.0004233855902953
 51
273.3489802068863241
  0
ARC
  5
12BCF
  8
0
 10
3571.1907462322387801
 20
251.6151559456424138
 30
0.0
 40
1.4404270645425661
 50
294.0202175453366067
 51
319.1387810858740863
  0
ARC
  5
12BD0
  8
0
 10
3572.0371653580991733
 20
249.6786668947538033
 30
0.0
 40
1.877205832728041
 50
107.486734164521593
 51
130.7184577595951112
  0
ARC
  5
12BD1
  8
0
 10
3572.0072860944901549
 20
249.7735083746229918
 30
0.0
 40
1.7777690352254849
 50
86.499005377870489
 51
107.486734164521593
  0
ARC
  5
12BD2
  8
0
 10
3572.0888475302131155
 20
251.106646268488106
 30
0.0
 40
0.4421385055294163
 50
20.9592475600365518
 51
86.499005377870489
  0
ARC
  5
12BD3
  8
0
 10
3572.0940511873091054
 20
251.1086395199066033
 30
0.0
 40
0.4365661542856058
 50
337.229884898285718
 51
20.9592475600365518
  0
ARC
  5
12BD4
  8
0
 10
3571.5961259579521538
 20
251.4487728335774079
 30
0.0
 40
1.0344198294667151
 50
311.3952787834404035
 51
330.517380529596096
  0
ARC
  5
12BD5
  8
0
 10
3576.2591990087421436
 20
247.0231746977042064
 30
0.0
 40
5.5518857709280862
 50
143.834304290354396
 51
184.967269793154486
  0
ARC
  5
12BD6
  8
0
 10
4015.447974495615199
 20
285.1944194221516113
 30
0.0
 40
446.3963304875122162
 50
184.967269793154486
 51
185.0851659719014037
  0
ARC
  5
12BD7
  8
0
 10
3570.753438963814915
 20
245.6225364005927929
 30
0.0
 40
0.0554181457705398
 50
269.4220247408135265
 51
5.0851659719030229
  0
ARC
  5
12BD8
  8
0
 10
3569.4544404082321307
 20
116.8547231060107947
 30
0.0
 40
128.7189470746245945
 50
89.4220247408134838
 51
90.578018139914235
  0
ARC
  5
12BD9
  8
0
 10
3568.1843476401099906
 20
242.7478074672978039
 30
0.0
 40
2.8194561080693501
 50
90.578018139914235
 51
137.9329957535609026
  0
ARC
  5
12BDA
  8
0
 10
3566.0579646056721685
 20
244.6669188126338099
 30
0.0
 40
0.0448925377732856
 50
257.9229529780834014
 51
317.9329957535586004
  0
ARC
  5
12BDB
  8
0
 10
5394683.3230231506749988
 20
18801311.9798185490071774
 30
0.0
 40
19558739.2032760493457317
 50
253.9999996934541002
 51
254.0000057373497953
  0
ARC
  5
12BDC
  8
0
 10
3564.077006772742152
 20
245.2344243435620967
 30
0.0
 40
0.0442862264844319
 50
186.7873498696760919
 51
254.7127160238821943
  0
ARC
  5
12BDD
  8
0
 10
-11048837.5779515001922846
 20
-1454830.2060361460316926
 30
0.0
 40
11147772.2390012200921774
 50
7.4999957135142727
 51
7.5000042661330131
  0
LINE
  5
12BDE
  8
0
 10
3562.4536524339819152
 20
247.0522444864542138
 30
0.0
 11
3562.743758207503106
 21
244.8486723177014994
 31
0.0
  0
ARC
  5
12BDF
  8
0
 10
3563.7890262405289832
 20
244.9862844619993894
 30
0.0
 40
1.0542876093005209
 50
187.4999998438379976
 51
254.0007600273671926
  0
ARC
  5
12BE0
  8
0
 10
-14233.4247595904507762
 20
-61824.3815709780028556
 30
0.0
 40
64569.428477447530895
 50
73.9992378914738538
 51
74.0007600273671642
  0
LINE
  5
12BE1
  8
0
 10
3566.0485718668010122
 20
244.6230198231484962
 30
0.0
 11
3566.0112590431999706
 21
244.4928945140034102
 31
0.0
  0
ARC
  5
12BE2
  8
0
 10
3524.4801259768150885
 20
269.8320937424746262
 30
0.0
 40
48.6508995941286599
 50
328.0596611435944965
 51
328.6115727622182021
  0
ARC
  5
12BE3
  8
0
 10
3568.1531260410361028
 20
242.8124741531777886
 30
0.0
 40
2.7100376962713142
 50
151.7780271553830005
 51
154.5765427900743987
  0
ARC
  5
12BE4
  8
0
 10
3540.238750711585908
 20
258.4227296895879249
 30
0.0
 40
29.2791310381263301
 50
329.5537329167651137
 51
330.4345759081141978
  0
ARC
  5
12BE5
  8
0
 10
3564.215995568335984
 20
243.8480912176177924
 30
0.0
 40
1.291287849472484
 50
324.263539724461225
 51
348.2944961188796924
  0
ARC
  5
12BE6
  8
0
 10
3561.2958993085808288
 20
237.5939893358205097
 30
0.0
 40
7.0508768467249157
 50
54.4218565098144893
 51
56.8906786206426176
  0
ARC
  5
12BE7
  8
0
 10
3568.7468799696739552
 20
254.9118331167883866
 30
0.0
 40
1.791954920072701
 50
164.1446860631347988
 51
183.7275456441547021
  0
ARC
  5
12BE8
  8
0
 10
3566.4722266913058775
 20
254.579837465490499
 30
0.0
 40
0.5320815361734765
 50
353.6643813562882883
 51
23.8915919712417697
  0
ARC
  5
12BE9
  8
0
 10
3562.2657130742040863
 20
255.6844543058695933
 30
0.0
 40
4.8761502291838852
 50
314.2163065811075171
 51
346.197480469658899
  0
ARC
  5
12BEA
  8
0
 10
3562.9182094507727925
 20
255.2543990537650132
 30
0.0
 40
4.1163129069315119
 50
294.8463291263238943
 51
311.8807859932019255
  0
ARC
  5
12BEB
  8
0
 10
3565.6647119036238109
 20
248.4113355681907933
 30
0.0
 40
3.2699017459826498
 50
108.1185113171954981
 51
131.7039339022728939
  0
ARC
  5
12BEC
  8
0
 10
3564.0397691683851917
 20
250.4010187090111117
 30
0.0
 40
0.7120061376413708
 50
140.634463520658187
 51
180.9615488296707895
  0
ARC
  5
12BED
  8
0
 10
3563.8002530152148211
 20
250.3419408655518055
 30
0.0
 40
0.4747349021754168
 50
174.3025679110494934
 51
219.3580576060022054
  0
ARC
  5
12BEE
  8
0
 10
3563.5791504206140416
 20
250.1605960436162093
 30
0.0
 40
0.1887763356274667
 50
219.3580576060022054
 51
255.3583394633199077
  0
ARC
  5
12BEF
  8
0
 10
3563.9495384225010639
 20
251.5783107141566006
 30
0.0
 40
1.654075676720367
 50
255.3583394633199077
 51
261.7282058220336012
  0
ARC
  5
12BF0
  8
0
 10
3434.7945146015831597
 20
314.4817803782955252
 30
0.0
 40
144.8270999068691935
 50
335.9246784195373152
 51
336.5596549490358029
  0
ARC
  5
12BF1
  8
0
 10
3587.3117377727598978
 20
247.6635286529800908
 30
0.0
 40
21.6927578692625005
 50
151.5879752127688107
 51
154.8858818175899899
  0
ARC
  5
12BF2
  8
0
 10
3569.6896214619009697
 20
257.177358710065505
 30
0.0
 40
1.6665691094445161
 50
134.5751805510363113
 51
151.0076033097271875
  0
ARC
  5
12BF3
  8
0
 10
3553.3162784489982187
 20
589.1152649568765582
 30
0.0
 40
330.7179461594741952
 50
269.4727888921495946
 51
269.9312213036761818
  0
ARC
  5
12BF4
  8
0
 10
3551.8435410828219574
 20
-637.7412968336044514
 30
0.0
 40
896.1394995789089535
 50
89.7434789075866348
 51
89.9312213036762245
  0
ARC
  5
12BF5
  8
0
 10
3567.104760097576218
 20
2770.9358967236212266
 30
0.0
 40
2512.5718573246031156
 50
269.7434789075866206
 51
269.9588061668430896
  0
ARC
  5
12BF6
  8
0
 10
3568.2085221374618413
 20
4306.1388809470472552
 30
0.0
 40
4047.7752383328502219
 50
269.9588061668430896
 51
270.0232598316674739
  0
ARC
  5
12BF7
  8
0
 10
3571.4136158165752022
 20
-3588.9453722217899667
 30
0.0
 40
3847.3096654069458964
 50
89.9490504103023341
 51
90.023259831667545
  0
ARC
  5
12BF8
  8
0
 10
3575.7898983887771465
 20
1332.4378381611691111
 30
0.0
 40
1074.0754907547238872
 50
269.9490504103022772
 51
270.0509573279624078
  0
ARC
  5
12BF9
  8
0
 10
3577.1112793373799832
 20
-153.3059116286615904
 30
0.0
 40
411.6688466355138871
 50
89.9490504243981803
 51
90.0509573279623794
  0
ARC
  5
12BFA
  8
0
 10
3577.22830213340103
 20
258.3409833088484788
 30
0.0
 40
0.2499999999999876
 50
5.0000000006978347
 51
90.0
  0
ARC
  5
12BFB
  8
0
 10
3577.2447930417401949
 20
258.3026724769429165
 30
0.0
 40
0.2401980299014385
 50
342.7164283411465249
 51
14.48988490647654
  0
ARC
  5
12BFC
  8
0
 10
3577.3540098337011841
 20
258.2809833088484766
 30
0.0
 40
0.1299999999999912
 50
270.0
 51
337.5357236340046256
  0
LINE
  5
12BFD
  8
0
 10
3577.3540098337011841
 20
258.1509833088484811
 30
0.0
 11
3570.3758809939008643
 21
258.1509833088484811
 31
0.0
  0
ARC
  5
12BFE
  8
0
 10
3576.2551789717881547
 20
258.0211611124145747
 30
0.0
 40
0.1297970731192184
 50
91.0391734801984995
 51
127.3660437040481952
  0
ARC
  5
12BFF
  8
0
 10
3576.2547178318541228
 20
258.0217649998093066
 30
0.0
 40
0.1290372507558587
 50
127.3660437040472004
 51
139.4875059843728025
  0
LINE
  5
12C00
  8
0
 10
3576.1566154131510302
 20
258.1055893848484857
 30
0.0
 11
3575.5769094158008556
 21
257.391720391648505
 31
0.0
  0
ARC
  5
12C01
  8
0
 10
3575.1658580825837817
 20
257.4732159445740081
 30
0.0
 40
0.4191692074266432
 50
327.3916930961530056
 51
348.8221494258557982
  0
ARC
  5
12C02
  8
0
 10
3575.4230567652780337
 20
257.3086779793661094
 30
0.0
 40
0.1138433087967276
 50
275.2290056813496903
 51
327.3916930961516982
  0
ARC
  5
12C03
  8
0
 10
3575.461198568556938
 20
257.3186799297939729
 30
0.0
 40
0.1264575117704194
 50
214.2101764954865075
 51
257.3161192802439245
  0
ARC
  5
12C04
  8
0
 10
3575.7713470914491154
 20
257.5152842424395203
 30
0.0
 40
0.4936220050415306
 50
177.5639959969662129
 51
212.8419141651712039
  0
LINE
  5
12C05
  8
0
 10
3575.2781711634011117
 20
257.5362648967484915
 30
0.0
 11
3575.2781051037009092
 21
257.9707010550484938
 31
0.0
  0
ARC
  5
12C06
  8
0
 10
3575.501618208182208
 20
257.9733363746375971
 30
0.0
 40
0.2235286630650417
 50
141.3431478507625059
 51
180.6760250927833056
  0
ARC
  5
12C07
  8
0
 10
3575.4072635616630578
 20
258.0488121084803765
 30
0.0
 40
0.1027007452688611
 50
95.820884920898493
 51
141.3431478507611985
  0
ARC
  5
12C08
  8
0
 10
3573.3175278921557947
 20
258.0209894693825845
 30
0.0
 40
0.1299863439129528
 50
3.0504050741608939
 51
86.3819046672140871
  0
ARC
  5
12C09
  8
0
 10
3278.0896369195411353
 20
242.2883037373244122
 30
0.0
 40
295.7767773098938164
 50
2.9496070892346289
 51
3.0504050741608939
  0
ARC
  5
12C0A
  8
0
 10
3573.7329825774609162
 20
257.5094130833031159
 30
0.0
 40
0.2584221109090245
 50
180.2528776213607102
 51
224.3972617213671015
  0
ARC
  5
12C0B
  8
0
 10
3573.6049429320928539
 20
257.3948233174677966
 30
0.0
 40
0.0871081075502254
 50
229.472017111162188
 51
264.0279662640629113
  0
ARC
  5
12C0C
  8
0
 10
3573.5716910751098112
 20
257.426368321893392
 30
0.0
 40
0.1206304207978515
 50
281.5673951883721884
 51
333.534940460080179
  0
ARC
  5
12C0D
  8
0
 10
3573.409488361764943
 20
257.5203576134662171
 30
0.0
 40
0.3079500530480598
 50
331.3289230278627997
 51
357.8095689556570278
  0
LINE
  5
12C0E
  8
0
 10
3573.7172169348159514
 20
257.508613147153028
 30
0.0
 11
3573.741388732400992
 21
257.9698803023484857
 31
0.0
  0
ARC
  5
12C0F
  8
0
 10
7761.2784795315110387
 20
38.5302393068562878
 30
0.0
 40
4193.2828002483338423
 50
176.9994789415017067
 51
177.0002712430697898
  0
ARC
  5
12C10
  8
0
 10
3573.8746262439349266
 20
258.0209618605720152
 30
0.0
 40
0.1303813855522576
 50
94.2583681875679673
 51
176.9994789415017067
  0
ARC
  5
12C11
  8
0
 10
3570.7493251576520379
 20
258.0212560467821845
 30
0.0
 40
0.1299863439129528
 50
3.0504050741608939
 51
86.3819046672140871
  0
ARC
  5
12C12
  8
0
 10
3275.5214341850360142
 20
242.2885703147240122
 30
0.0
 40
295.7767773098938164
 50
2.9496070892346289
 51
3.0504050741608939
  0
ARC
  5
12C13
  8
0
 10
3571.1647798429571594
 20
257.5096796607027727
 30
0.0
 40
0.2584221109090245
 50
180.2528776213607102
 51
224.3972617213671015
  0
ARC
  5
12C14
  8
0
 10
3571.0367401975900066
 20
257.3950898948675103
 30
0.0
 40
0.0871081075502254
 50
229.472017111162188
 51
264.0279662640629113
  0
ARC
  5
12C15
  8
0
 10
3571.0034883406069639
 20
257.4266348992931057
 30
0.0
 40
0.1206304207978515
 50
281.5673951883721884
 51
333.534940460080179
  0
ARC
  5
12C16
  8
0
 10
3570.8412856272598219
 20
257.520624190865874
 30
0.0
 40
0.3079500530480598
 50
331.3289230278627997
 51
357.8095689556570278
  0
LINE
  5
12C17
  8
0
 10
3571.1490142003121946
 20
257.508879724552628
 30
0.0
 11
3571.1731859978981447
 21
257.9701468797481994
 31
0.0
  0
ARC
  5
12C18
  8
0
 10
7758.7102767970072819
 20
38.5305058842559802
 30
0.0
 40
4193.2828002483338423
 50
176.9994789415017067
 51
177.0002712430697898
  0
ARC
  5
12C19
  8
0
 10
3571.3064235094320793
 20
258.0212284379716721
 30
0.0
 40
0.1303813855522576
 50
94.2583681875679673
 51
176.9994789415017067
  0
LINE
  5
12C1A
  8
0
 10
3575.9887785071009603
 20
257.899002410548519
 30
0.0
 11
3575.8260107771011462
 21
255.1819289519484926
 31
0.0
  0
ARC
  5
12C1B
  8
0
 10
3572.7253344321597979
 20
255.5166234683948971
 30
0.0
 40
3.1186878996488678
 50
333.6242079220244818
 51
353.8392084826393784
  0
ARC
  5
12C1C
  8
0
 10
3572.0876507492162091
 20
256.1171488030634009
 30
0.0
 40
3.9649659115301992
 50
321.4815849710400926
 51
329.9409079854070228
  0
ARC
  5
12C1D
  8
0
 10
3572.8328358204048527
 20
255.5240106892671861
 30
0.0
 40
3.0125407898752972
 50
312.1209247587640903
 51
321.4815849710400926
  0
ARC
  5
12C1E
  8
0
 10
3575.0252059044159978
 20
253.0994472709714103
 30
0.0
 40
0.2562501723318834
 50
132.1209247587640903
 51
212.9495976706272984
  0
ARC
  5
12C1F
  8
0
 10
3571.9468622449630857
 20
251.1041953405643028
 30
0.0
 40
3.412159558258522
 50
22.5989613716003817
 51
32.9495976706273197
  0
ARC
  5
12C20
  8
0
 10
3571.2071432803390962
 20
250.7962957869808065
 30
0.0
 40
4.213400022613901
 50
13.84532937099425
 51
22.5989613716003817
  0
ARC
  5
12C21
  8
0
 10
3575.7048730806750427
 20
254.0017901806884026
 30
0.0
 40
0.2253859378662389
 50
149.854062826666393
 51
174.0529759926261875
  0
ARC
  5
12C22
  8
0
 10
3626.3796286928541122
 20
248.7230259058981972
 30
0.0
 40
51.1743428322213774
 50
174.0529759926261875
 51
176.5471342581786871
  0
ARC
  5
12C23
  8
0
 10
3572.0910478510340909
 20
251.173694046523508
 30
0.0
 40
3.268703562959919
 50
344.4767332653082121
 51
11.1380950392777898
  0
ARC
  5
12C24
  8
0
 10
-3944704.9390133619308472
 20
1098099.9681624278891832
 30
0.0
 40
4098071.5309002348221838
 50
344.4609916662828937
 51
344.4610010865666823
  0
ARC
  5
12C25
  8
0
 10
-31941682.4580864608287811
 20
8882874.1427781078964472
 30
0.0
 40
33157208.8056584782898426
 50
344.4609975858465987
 51
344.4610011594850221
  0
ARC
  5
12C26
  8
0
 10
3573.9649758632249359
 20
247.8082537237305871
 30
0.0
 40
0.5616887657168076
 50
309.6003239936010232
 51
344.4053732847947913
  0
ARC
  5
12C27
  8
0
 10
3574.4058949814098014
 20
247.252898965281986
 30
0.0
 40
0.147961164747737
 50
124.0672612406098949
 51
156.5355695738703048
  0
ARC
  5
12C28
  8
0
 10
4025.6323958305611086
 20
64.5101699858257405
 30
0.0
 40
486.9746408227964025
 50
157.9520588305439901
 51
158.1438217059969986
  0
ARC
  5
12C29
  8
0
 10
3569.2968958240430766
 20
246.2078198752375044
 30
0.0
 40
4.3829867467383661
 50
338.8842740032077927
 51
354.662857552097023
  0
ARC
  5
12C2A
  8
0
 10
3628.5884603865288227
 20
248.2036152996014096
 30
0.0
 40
55.3184999099027408
 50
183.7051360546566059
 51
185.4879556347003131
  0
ARC
  5
12C2B
  8
0
 10
3573.6552138507699965
 20
242.9252495275758008
 30
0.0
 40
0.1322462350691815
 50
185.250626947607401
 51
210.008590515775893
  0
ARC
  5
12C2C
  8
0
 10
3569.5541750615179808
 20
246.1256668260218987
 30
0.0
 40
4.1134180395538502
 50
329.2157892099781975
 51
338.6607308327623969
  0
ARC
  5
12C2D
  8
0
 10
3568.3043393110528996
 20
246.8702517256587043
 30
0.0
 40
5.5682362673429173
 50
326.1359987549936932
 51
329.2157892099781975
  0
ARC
  5
12C2E
  8
0
 10
3575.0573592727891992
 20
242.3385668029021076
 30
0.0
 40
2.5643799686988511
 50
146.1359987549936932
 51
156.9108321469136911
  0
ARC
  5
12C2F
  8
0
 10
3572.8359942239849261
 20
243.2855629609105108
 30
0.0
 40
0.1495788581877035
 50
156.9108321469136911
 51
264.6886331526389995
  0
ARC
  5
12C30
  8
0
 10
3568.9732565085778333
 20
201.736137308030095
 30
0.0
 40
41.5790146328738572
 50
84.2350221399842525
 51
84.6886331526390137
  0
ARC
  5
12C31
  8
0
 10
3563.8892433198511753
 20
251.5571941983980935
 30
0.0
 40
1.6254909492635601
 50
263.7247252176430266
 51
270.1986815813506269
  0
ARC
  5
12C32
  8
0
 10
3564.0253799387010076
 20
212.2982836344091027
 30
0.0
 40
37.6336556518824992
 50
89.8013184186493731
 51
90.1986815813506411
  0
ARC
  5
12C33
  8
0
 10
3564.1600179279089389
 20
251.1250212273342868
 30
0.0
 40
1.193315379837292
 50
269.8013184186493731
 51
314.4451511014524954
  0
ARC
  5
12C34
  8
0
 10
3626.0221942726329871
 20
177.7168901256256959
 30
0.0
 40
94.8084703080883031
 50
126.9149568374044037
 51
130.0669912506996013
  0
ARC
  5
12C35
  8
0
 10
3571.9747680005898474
 20
249.6807904401308065
 30
0.0
 40
4.8088882430693429
 50
112.5151189460021044
 51
127.0481338554862987
  0
ARC
  5
12C36
  8
0
 10
3571.8466434905299138
 20
250.0937379777784031
 30
0.0
 40
4.3785344368930534
 50
100.8549743630994016
 51
113.035543002196107
  0
ARC
  5
12C37
  8
0
 10
3573.5406538468391773
 20
254.9867610323755969
 30
0.0
 40
0.8652623784381885
 50
161.6345905659968878
 51
165.0623269366132888
  0
ARC
  5
12C38
  8
0
 10
3572.6768695140121963
 20
255.217204543751194
 30
0.0
 40
0.0287329154932374
 50
308.8117856188712267
 51
345.0623269366179784
  0
ARC
  5
12C39
  8
0
 10
3570.902263046707958
 20
258.6517167703337918
 30
0.0
 40
3.894051243156476
 50
279.4570460517056176
 51
297.4095080014910764
  0
ARC
  5
12C3A
  8
0
 10
3571.6835789746592127
 20
253.6644958871698066
 30
0.0
 40
1.1547943912933221
 50
97.0378688455681839
 51
123.3251180598341961
  0
ARC
  5
12C3B
  8
0
 10
3571.1320011854800214
 20
254.5383746530876863
 30
0.0
 40
0.1230893804309622
 50
132.3082184711138893
 51
182.6257334149458131
  0
ARC
  5
12C3C
  8
0
 10
3571.3853546494019611
 20
254.4980200100135903
 30
0.0
 40
0.3779115182064268
 50
174.7292632609741929
 51
195.9883509819057963
  0
ARC
  5
12C3D
  8
0
 10
3571.0357812974539229
 20
254.3911586215556895
 30
0.0
 40
0.0139962804969011
 50
168.590614153039013
 51
210.1501434275473059
  0
ARC
  5
12C3E
  8
0
 10
3571.0616083657109812
 20
254.4061602629863899
 30
0.0
 40
0.0438641009789869
 50
210.1501434275459133
 51
232.837010314198011
  0
ARC
  5
12C3F
  8
0
 10
3570.8683299003901084
 20
254.1511834521070909
 30
0.0
 40
0.276088613094644
 50
48.258238776735233
 51
52.8370103141970375
  0
ARC
  5
12C40
  8
0
 10
3571.0256754947381523
 20
254.3275253316834892
 30
0.0
 40
0.0397539043586176
 50
30.4965046289003006
 51
48.258238776734153
  0
ARC
  5
12C41
  8
0
 10
3578.4542038443669298
 20
261.9592556430641253
 30
0.0
 40
10.6118362762504699
 50
225.8295748287669085
 51
234.049074525818213
  0
ARC
  5
12C42
  8
0
 10
3572.9703217837918601
 20
254.6812141039530104
 30
0.0
 40
1.509772700826109
 50
240.378031477742212
 51
254.3357973390901918
  0
ARC
  5
12C43
  8
0
 10
3576.0712885691459633
 20
265.9518406674607718
 30
0.0
 40
13.1991971147618692
 50
254.584347562496589
 51
258.24741357235348
  0
ARC
  5
12C44
  8
0
 10
3574.2851868435641336
 20
258.5408205580724257
 30
0.0
 40
5.5848579063392396
 50
260.7015088781208192
 51
271.6673724105988867
  0
ARC
  5
12C45
  8
0
 10
3574.5806312396198337
 20
262.9825586088858245
 30
0.0
 40
10.0251127810336502
 50
269.2401864485598253
 51
271.3119961926996098
  0
ARC
  5
12C46
  8
0
 10
3573.6925172390510852
 20
248.3385290893405966
 30
0.0
 40
1.151091771314481
 50
282.4348664534977047
 51
303.2118648275110786
  0
ARC
  5
12C47
  8
0
 10
3574.2975949833548839
 20
245.594440908537706
 30
0.0
 40
1.658915171857311
 50
102.4348664534977047
 51
111.1631335540161984
  0
ARC
  5
12C48
  8
0
 10
-31415.3460385402504471
 20
116143.5985373016010271
 30
0.0
 40
121062.8845305238937726
 50
286.7989341132064851
 51
286.7990219672948911
  0
ARC
  5
12C49
  8
0
 10
3573.5428491917527936
 20
247.0247352428492036
 30
0.0
 40
0.0667714121159155
 50
109.121478074832595
 51
194.1947792412726983
  0
ARC
  5
12C4A
  8
0
 10
3567.1314787886008162
 20
245.9479829698485105
 30
0.0
 40
6.4346105299999179
 50
359.5190249149669057
 51
9.4852085286977186
  0
ARC
  5
12C4B
  8
0
 10
3573.9015986798449376
 20
245.8911491941506995
 30
0.0
 40
0.3357479110185589
 50
179.519024914966792
 51
220.6945792658821119
  0
LINE
  5
12C4C
  8
0
 10
3567.0366642204899108
 20
255.4010723750945999
 30
0.0
 11
3575.8260107771011462
 21
255.1819289519484926
 31
0.0
  0
ARC
  5
12C4D
  8
0
 10
3568.2592423455848802
 20
243.0142356610272998
 30
0.0
 40
1.7017016667078311
 50
153.5958897043475133
 51
177.2559497267226902
  0
ARC
  5
12C4E
  8
0
 10
3567.2196408283689379
 20
243.4486690091445098
 30
0.0
 40
0.5819806845804535
 50
99.2891539032812034
 51
146.3705366475658991
  0
ARC
  5
12C4F
  8
0
 10
3567.2835943672439498
 20
243.1935821317092916
 30
0.0
 40
0.8443307072869159
 50
69.7366290416343162
 51
100.7781236321820018
  0
ARC
  5
12C50
  8
0
 10
3567.2911472347809649
 20
243.3751558428297983
 30
0.0
 40
0.6736935225153912
 50
4.9192274694705729
 51
64.9855423593991191
  0
ARC
  5
12C51
  8
0
 10
3561.9898224135667988
 20
242.2933972604895132
 30
0.0
 40
6.0802731787582971
 50
7.6016672112799224
 51
10.8019098023152296
  0
LINE
  5
12C53
  8
0
 10
3553.3654995625838637
 20
260.2380846636607998
 30
0.0
 11
3561.1904877359011152
 21
260.238541977648481
 31
0.0
  0
ARC
  5
12C54
  8
0
 10
3561.1944485143849306
 20
307.1149391689738195
 30
0.0
 40
46.8763973586564688
 50
269.9951588453180875
 51
273.5422915763236915
  0
ARC
  5
12C55
  8
0
 10
3561.2838245460161488
 20
305.6711440577108192
 30
0.0
 40
45.4298385460474279
 50
273.5422915763236915
 51
276.6578171112277005
  0
ARC
  5
12C56
  8
0
 10
3560.8447378166270028
 20
309.4328097363078882
 30
0.0
 40
49.2170440901738004
 50
276.6578171112277005
 51
277.4885241126963251
  0
ARC
  5
12C57
  8
0
 10
3569.6864418910517998
 20
242.1692961062653069
 30
0.0
 40
18.62509618265846
 50
96.4225744627326691
 51
97.4885241126963251
  0
ARC
  5
12C58
  8
0
 10
3567.6334876182631888
 20
260.404721644404276
 30
0.0
 40
0.274473259227664
 50
20.7086404030862212
 51
96.3711052470786882
  0
ENDSEC
  0
EOF
