  0
SECTION
  2
HEADER
  9
$ACADVER
  1
AC1009
  9
$INSBASE
 10
5773.5774521866705982
 20
-53.0462236115137173
 30
0.0
  9
$EXTMIN
 10
5766.6773526597607997
 20
-54.6112766949095487
 30
-0.0000000000000058
  9
$EXTMAX
 10
5780.7901724815601483
 20
-48.5428945536577032
 30
0.0000000000000104
  9
$LIMMIN
 10
0.0
 20
0.0
  9
$LIMMAX
 10
11.6929133858000007
 20
8.2677165353999982
  9
$ORTHOMODE
 70
     0
  9
$REGENMODE
 70
     1
  9
$FILLMODE
 70
     1
  9
$QTEXTMODE
 70
     0
  9
$MIRRTEXT
 70
     0
  9
$DRAGMODE
 70
     2
  9
$LTSCALE
 40
0.6431102362
  9
$OSMODE
 70
  4095
  9
$ATTMODE
 70
     1
  9
$TEXTSIZE
 40
0.2
  9
$TRACEWID
 40
0.05
  9
$TEXTSTYLE
  7
STANDARD
  9
$CLAYER
  8
0
  9
$CELTYPE
  6
BYLAYER
  9
$CECOLOR
 62
   256
  9
$DIMSCALE
 40
1.0
  9
$DIMASZ
 40
0.1875
  9
$DIMEXO
 40
0.0625
  9
$DIMDLI
 40
0.4443307087
  9
$DIMRND
 40
0.0
  9
$DIMDLE
 40
0.0
  9
$DIMEXE
 40
0.125
  9
$DIMTP
 40
0.01
  9
$DIMTM
 40
0.01
  9
$DIMTXT
 40
2.0
  9
$DIMCEN
 40
0.1052362205
  9
$DIMTSZ
 40
0.0
  9
$DIMTOL
 70
     1
  9
$DIMLIM
 70
     0
  9
$DIMTIH
 70
     1
  9
$DIMTOH
 70
     1
  9
$DIMSE1
 70
     0
  9
$DIMSE2
 70
     0
  9
$DIMTAD
 70
     0
  9
$DIMZIN
 70
     0
  9
$DIMBLK
  1

  9
$DIMASO
 70
     1
  9
$DIMSHO
 70
     1
  9
$DIMPOST
  1
\X
  9
$DIMAPOST
  1

  9
$DIMALT
 70
     1
  9
$DIMALTD
 70
     2
  9
$DIMALTF
 40
25.3999999999999986
  9
$DIMLFAC
 40
1.0
  9
$DIMTOFL
 70
     0
  9
$DIMTVP
 40
0.0
  9
$DIMTIX
 70
     0
  9
$DIMSOXD
 70
     0
  9
$DIMSAH
 70
     0
  9
$DIMBLK1
  1

  9
$DIMBLK2
  1

  9
$DIMSTYLE
  2
STANDARD
  9
$DIMCLRD
 70
     0
  9
$DIMCLRE
 70
     0
  9
$DIMCLRT
 70
     0
  9
$DIMTFAC
 40
1.0
  9
$DIMGAP
 40
0.09
  9
$LUNITS
 70
     2
  9
$LUPREC
 70
     4
  9
$SKETCHINC
 40
0.1
  9
$FILLETRAD
 40
0.0
  9
$AUNITS
 70
     0
  9
$AUPREC
 70
     0
  9
$MENU
  1
.
  9
$ELEVATION
 40
0.0
  9
$PELEVATION
 40
0.0
  9
$THICKNESS
 40
0.0
  9
$LIMCHECK
 70
     0
  9
$BLIPMODE
 70
     0
  9
$CHAMFERA
 40
0.0
  9
$CHAMFERB
 40
0.0
  9
$SKPOLY
 70
     0
  9
$TDCREATE
 40
2458060.468368056230247
  9
$TDUPDATE
 40
2460892.9418518519960344
  9
$TDINDWG
 40
0.7486644676
  9
$TDUSRTIMER
 40
0.7486644676
  9
$USRTIMER
 70
     1
  9
$ANGBASE
 50
0.0
  9
$ANGDIR
 70
     0
  9
$PDMODE
 70
     0
  9
$PDSIZE
 40
0.3125
  9
$PLINEWID
 40
0.0
  9
$COORDS
 70
     1
  9
$SPLFRAME
 70
     0
  9
$SPLINETYPE
 70
     6
  9
$SPLINESEGS
 70
     8
  9
$ATTDIA
 70
     1
  9
$ATTREQ
 70
     1
  9
$HANDLING
 70
     1
  9
$HANDSEED
  5
24F63
  9
$SURFTAB1
 70
     6
  9
$SURFTAB2
 70
     6
  9
$SURFTYPE
 70
     6
  9
$SURFU
 70
     6
  9
$SURFV
 70
     6
  9
$UCSNAME
  2

  9
$UCSORG
 10
0.0
 20
0.0
 30
0.0
  9
$UCSXDIR
 10
1.0
 20
0.0
 30
0.0
  9
$UCSYDIR
 10
0.0
 20
1.0
 30
0.0
  9
$PUCSNAME
  2

  9
$PUCSORG
 10
0.0
 20
0.0
 30
0.0
  9
$PUCSXDIR
 10
1.0
 20
0.0
 30
0.0
  9
$PUCSYDIR
 10
0.0
 20
1.0
 30
0.0
  9
$USERI1
 70
     0
  9
$USERI2
 70
     0
  9
$USERI3
 70
     0
  9
$USERI4
 70
     0
  9
$USERI5
 70
     0
  9
$USERR1
 40
0.0
  9
$USERR2
 40
0.0
  9
$USERR3
 40
0.0
  9
$USERR4
 40
0.0
  9
$USERR5
 40
0.0
  9
$WORLDVIEW
 70
     1
  9
$SHADEDGE
 70
     3
  9
$SHADEDIF
 70
    70
  9
$TILEMODE
 70
     1
  9
$MAXACTVP
 70
    64
  9
$PLIMCHECK
 70
     0
  9
$PEXTMIN
 10
1.0000000000000000E+20
 20
1.0000000000000000E+20
 30
1.0000000000000000E+20
  9
$PEXTMAX
 10
-1.0000000000000000E+20
 20
-1.0000000000000000E+20
 30
-1.0000000000000000E+20
  9
$PLIMMIN
 10
0.0
 20
0.0
  9
$PLIMMAX
 10
12.0
 20
9.0
  9
$UNITMODE
 70
     0
  9
$VISRETAIN
 70
     1
  9
$PLINEGEN
 70
     0
  9
$PSLTSCALE
 70
     1
  0
ENDSEC
  0
SECTION
  2
TABLES
  0
TABLE
  2
VPORT
 70
     1
  0
VPORT
  2
*ACTIVE
 70
     0
 10
0.0
 20
0.0
 11
1.0
 21
1.0
 12
1981.3758524144100193
 22
-171.7577420573890947
 13
0.0
 23
0.0
 14
1.0
 24
1.0
 15
0.0
 25
0.0
 16
0.0
 26
0.0
 36
5.1040778033513332
 17
3792.35791015625
 27
120.1806564331053977
 37
0.0
 40
6.2294310974136389
 41
2.2726190476190471
 42
50.0
 43
0.0
 44
0.0
 50
0.0
 51
0.0
 71
     0
 72
   100
 73
     1
 74
     1
 75
     0
 76
     0
 77
     0
 78
     0
  0
ENDTAB
  0
TABLE
  2
LTYPE
 70
     2
  0
LTYPE
  2
CONTINUOUS
 70
     0
  3
Solid line
 72
    65
 73
     0
 40
0.0
  0
LTYPE
  2
PHANTOM2
 70
     0
  3
___ _ _ ___ _ _ ___ _ _ ___ _ _
 72
    65
 73
     6
 40
1.25
 49
0.625
 49
-0.125
 49
0.125
 49
-0.125
 49
0.125
 49
-0.125
  0
ENDTAB
  0
TABLE
  2
LAYER
 70
     2
  0
LAYER
  2
0
 70
     0
 62
   255
  6
CONTINUOUS
  0
LAYER
  2
DEFPOINTS
 70
     0
 62
     7
  6
CONTINUOUS
  0
ENDTAB
  0
TABLE
  2
STYLE
 70
     1
  0
STYLE
  2
STANDARD
 70
     0
 40
0.0
 41
0.8
 50
0.0
 71
     0
 42
0.2
  3
txt
  4

  0
ENDTAB
  0
TABLE
  2
VIEW
 70
     0
  0
ENDTAB
  0
TABLE
  2
UCS
 70
     0
  0
ENDTAB
  0
TABLE
  2
APPID
 70
    10
  0
APPID
  2
ACAD
 70
     0
  0
APPID
  2
ACAD_MLEADERVER
 70
     0
  0
APPID
  2
ACAD_EXEMPT_FROM_CAD_STANDARDS
 70
     0
  0
APPID
  2
ACAD_NAV_VCDISPLAY
 70
     0
  0
APPID
  2
ACAECLAYERSTANDARD
 70
     0
  0
APPID
  2
ACCMTRANSPARENCY
 70
     0
  0
APPID
  2
ACAD_DSTYLE_DIMJAG
 70
     0
  0
APPID
  2
ACAD_DSTYLE_DIMTALN
 70
     0
  0
APPID
  2
ACDBATTR
 70
     0
  0
APPID
  2
ACLAYERTOOLS
 70
     0
  0
ENDTAB
  0
TABLE
  2
DIMSTYLE
 70
     1
  0
DIMSTYLE
  2
STANDARD
 70
     0
  3

  4

  5

  6

  7

 40
1.0
 41
0.1875
 42
0.0625
 43
0.38
 44
0.125
 45
0.0
 46
0.0
 47
0.01
 48
0.01
140
0.15625
141
0.09
142
0.0
143
25.3999999999999986
144
1.0
145
0.0
146
1.0
147
0.09
 71
     1
 72
     0
 73
     1
 74
     1
 75
     0
 76
     0
 77
     0
 78
     4
170
     0
171
     2
172
     0
173
     0
174
     0
175
     0
176
     0
177
     0
178
     0
  0
ENDTAB
  0
ENDSEC
  0
SECTION
  2
BLOCKS
  0
BLOCK
  8
0
  2
$MODEL_SPACE
 70
     0
 10
0.0
 20
0.0
 30
0.0
  3
$MODEL_SPACE
  1

  0
ENDBLK
  5
21
  8
0
  0
BLOCK
 67
     1
  8
0
  2
$PAPER_SPACE
 70
     0
 10
0.0
 20
0.0
 30
0.0
  3
$PAPER_SPACE
  1

  0
ENDBLK
  5
1D
 67
     1
  8
0
  0
BLOCK
  8
0
  2
_FILLED
 70
     0
 10
0.0
 20
0.0
 30
0.0
  3
_FILLED
  1

  0
SOLID
  5
1CCA0
  8
0
  6
BYBLOCK
 62
     0
 10
0.0
 20
0.0
 30
0.0
 11
-1.0
 21
0.1666666667
 31
0.0
 12
-1.0
 22
-0.1666666667
 32
0.0
 13
-1.0
 23
-0.1666666667
 33
0.0
  0
ENDBLK
  5
1CCA1
  8
0
  6
BYBLOCK
 62
     0
  0
BLOCK
  8
0
  2
A$C54BF7565
 70
     0
 10
0.0
 20
0.0
 30
0.0
  3
A$C54BF7565
  1

  0
LINE
  5
1EDB5
  8
0
 10
4.213411105075707
 20
0.392500014379415
 30
0.0
 11
4.2134111050757026
 21
29.1282889381617487
 31
0.0
  0
LINE
  5
1EDB6
  8
0
 10
4.6059111050757053
 20
29.5207889381617505
 30
0.0
 11
70.7849254185449297
 21
29.5207889381617505
 31
0.0
  0
ARC
  5
1EDB7
  8
0
 10
4.6059111050757009
 20
29.1282889381617487
 30
0.0
 40
0.3925
 50
89.9999999999993889
 51
180.0
  0
LINE
  5
1EDB8
  8
0
 10
5.89937377115979
 20
28.8903825271539816
 30
0.0
 11
69.4914627524608335
 21
28.8903825271539816
 31
0.0
  0
LINE
  5
1EDB9
  8
0
 10
4.8893737711618419
 20
1.6404064253871229
 30
0.0
 11
4.8893737711597574
 21
27.8803825271538983
 31
0.0
  0
ARC
  5
1EDBA
  8
0
 10
5.8993737711597944
 20
27.8803825271539587
 30
0.0
 40
1.01
 50
90.0000000000001847
 51
180.0000000000036096
  0
LINE
  5
1EDBB
  8
0
 10
10.9121358131603206
 20
28.1376674354441683
 30
0.0
 11
64.4787007104603163
 21
28.1376674354441683
 31
0.0
  0
LINE
  5
1EDBC
  8
0
 10
8.9771358131603112
 20
26.2026674354441695
 30
0.0
 11
8.9771358131603094
 21
3.3181215170969902
 31
0.0
  0
ARC
  5
1EDBD
  8
0
 10
10.9121358131603099
 20
26.2026674354441802
 30
0.0
 40
1.9350000000000001
 50
89.999999999999801
 51
180.000000000000199
  0
LINE
  5
1EDBE
  8
0
 10
5.1851959221613591
 20
28.5945603761523515
 30
0.0
 11
9.5438841915643415
 21
27.5709190570401397
 31
0.0
  0
CIRCLE
  5
1EDBF
  8
0
 10
17.9746459467603117
 20
14.7603944762705801
 30
0.0
 40
2.6574803149999968
  0
CIRCLE
  5
1EDC0
  8
0
 10
17.9746459467603117
 20
14.7603944762705801
 30
0.0
 40
1.318897637799999
  0
LINE
  5
1EDC1
  8
0
 10
19.4313388601603094
 20
16.6895283345705785
 30
0.0
 11
16.5179530334603086
 21
16.6895283345705785
 31
0.0
  0
LINE
  5
1EDC2
  8
0
 10
16.5179530334603086
 20
12.8312606180704591
 30
0.0
 11
16.5179530334603086
 21
16.6895283345705785
 31
0.0
  0
LINE
  5
1EDC3
  8
0
 10
19.4313388601603094
 20
12.8312606180707007
 30
0.0
 11
19.4313388601603094
 21
16.6895283345705785
 31
0.0
  0
LINE
  5
1EDC4
  8
0
 10
16.5179530334603086
 20
12.8312606180704591
 30
0.0
 11
19.4313388601603094
 21
12.8312606180707007
 31
0.0
  0
LINE
  5
1EDC5
  8
0
 10
71.1774254185449422
 20
0.392500014379415
 30
0.0
 11
71.177425418544928
 21
29.1282889381617487
 31
0.0
  0
ARC
  5
1EDC6
  8
0
 10
70.7849254185449297
 20
29.1282889381617487
 30
0.0
 40
0.3925
 50
0.0
 51
90.0000000000003979
  0
LINE
  5
1EDC7
  8
0
 10
70.5014627524587922
 20
1.6404064253871229
 30
0.0
 11
70.5014627524608812
 21
27.8803825271538983
 31
0.0
  0
ARC
  5
1EDC8
  8
0
 10
69.4914627524608477
 20
27.8803825271539587
 30
0.0
 40
1.01
 50
359.9999999999964189
 51
89.999999999999801
  0
LINE
  5
1EDC9
  8
0
 10
66.4137007104603185
 20
26.2026674354441695
 30
0.0
 11
66.4137007104603185
 21
3.3181215170969902
 31
0.0
  0
ARC
  5
1EDCA
  8
0
 10
64.4787007104603163
 20
26.2026674354441802
 30
0.0
 40
1.9350000000000001
 50
359.9999999999997726
 51
90.0
  0
LINE
  5
1EDCB
  8
0
 10
70.2056406014592795
 20
28.5945603761523515
 30
0.0
 11
65.8469523320562757
 21
27.5709190570401397
 31
0.0
  0
LINE
  5
1EDCC
  8
0
 10
6.0587804917603156
 20
16.9648612744813292
 30
0.0
 11
6.0587804917603156
 21
12.5707899059285495
 31
0.0
  0
LINE
  5
1EDCD
  8
0
 10
6.1845708572603106
 20
16.9745707898439697
 30
0.0
 11
6.1845708572603106
 21
12.5516456001736803
 31
0.0
  0
ARC
  5
1EDCE
  8
0
 10
6.6768621544985933
 20
16.9224693827637793
 30
0.0
 40
0.6195337071513586
 50
164.1442345569018073
 51
176.0764429610183868
  0
ARC
  5
1EDCF
  8
0
 10
6.2840565643031701
 20
17.0322553910392891
 30
0.0
 40
0.2116849357968146
 50
148.9114272159978043
 51
163.6808251279447859
  0
ARC
  5
1EDD0
  8
0
 10
6.1492013395549563
 20
17.1135685847582408
 30
0.0
 40
0.0542118678941835
 50
122.0236997237583978
 51
148.9114272159970938
  0
ARC
  5
1EDD1
  8
0
 10
6.1294117326997544
 20
17.1440896121663009
 30
0.0
 40
0.0178513052483979
 50
68.3637245332240724
 51
120.1174353847827945
  0
ARC
  5
1EDD2
  8
0
 10
6.1093204837146011
 20
17.1172519626224791
 30
0.0
 40
0.0509679580751473
 50
18.2421840615057
 51
58.4438507226990467
  0
ARC
  5
1EDD3
  8
0
 10
5.8217205392181093
 20
17.0102690391100708
 30
0.0
 40
0.3577903413166022
 50
5.3853596804652684
 51
20.0965078311244412
  0
ARC
  5
1EDD4
  8
0
 10
3.097786928403635
 20
16.7137066941642907
 30
0.0
 40
3.0977871295269188
 50
4.8305879622378782
 51
6.1178368155844636
  0
ARC
  5
1EDD5
  8
0
 10
6.6288147452080004
 20
12.5871305066994204
 30
0.0
 40
0.5702684151671137
 50
181.6419910366743125
 51
196.0954335816371099
  0
ARC
  5
1EDD6
  8
0
 10
6.2840565643031701
 20
12.4885112934841995
 30
0.0
 40
0.2116849357968146
 50
196.3191748720554131
 51
211.0885727840025083
  0
ARC
  5
1EDD7
  8
0
 10
6.1492013395549563
 20
12.4071980997652496
 30
0.0
 40
0.0542118678941835
 50
211.0885727840025936
 51
237.9763002762416022
  0
ARC
  5
1EDD8
  8
0
 10
6.1294117326997544
 20
12.3766770723571895
 30
0.0
 40
0.0178513052483979
 50
239.8825646152172055
 51
291.636275466775885
  0
ARC
  5
1EDD9
  8
0
 10
6.1093204837146011
 20
12.4035147219010096
 30
0.0
 40
0.0509679580751473
 50
301.5561492773010173
 51
341.7578159384942751
  0
ARC
  5
1EDDA
  8
0
 10
5.8217205392181093
 20
12.5104976454134196
 30
0.0
 40
0.3577903413166022
 50
339.9034921688755162
 51
354.6146403195347148
  0
ARC
  5
1EDDB
  8
0
 10
4.494339004003983
 20
12.6641567549704206
 30
0.0
 40
1.6939723957951669
 50
353.6539827235096141
 51
356.1916950896656999
  0
LINE
  5
1EDDC
  8
0
 10
4.6059111050757053
 20
0.0000000143794168
 30
0.0
 11
70.7849254185449297
 21
0.0000000143794168
 31
0.0
  0
ARC
  5
1EDDD
  8
0
 10
4.6059111050757009
 20
0.392500014379415
 30
0.0
 40
0.3925
 50
180.0
 51
270.0000000000003979
  0
LINE
  5
1EDDE
  8
0
 10
5.89937377115979
 20
0.6304064253871929
 30
0.0
 11
69.4914627524608335
 21
0.6304064253871929
 31
0.0
  0
ARC
  5
1EDDF
  8
0
 10
5.8993737711597944
 20
1.640406425387205
 30
0.0
 40
1.01
 50
179.9999999999967031
 51
269.9999999999997726
  0
LINE
  5
1EDE0
  8
0
 10
10.9121358131603206
 20
1.383121517096995
 30
0.0
 11
64.4787007104603163
 21
1.383121517096995
 31
0.0
  0
ARC
  5
1EDE1
  8
0
 10
10.9121358131603099
 20
3.3181215170969902
 30
0.0
 40
1.9350000000000001
 50
180.0
 51
270.0
  0
LINE
  5
1EDE2
  8
0
 10
5.1851959221613591
 20
0.9262285763888158
 30
0.0
 11
9.5438841915643415
 21
1.9498698955010241
 31
0.0
  0
ARC
  5
1EDE3
  8
0
 10
70.7849254185449297
 20
0.392500014379415
 30
0.0
 40
0.3925
 50
269.9999999999993747
 51
0.0
  0
ARC
  5
1EDE4
  8
0
 10
69.4914627524608477
 20
1.640406425387205
 30
0.0
 40
1.01
 50
270.0000000000002274
 51
0.0000000000032569
  0
ARC
  5
1EDE5
  8
0
 10
64.4787007104603163
 20
3.3181215170969902
 30
0.0
 40
1.9350000000000001
 50
269.9999999999997726
 51
0.0
  0
LINE
  5
1EDE6
  8
0
 10
70.2056406014592795
 20
0.9262285763888158
 30
0.0
 11
65.8469523320562757
 21
1.9498698955010241
 31
0.0
  0
LINE
  5
1EDE7
  8
0
 10
37.6954182618103175
 20
14.7603944762705801
 30
0.0
 11
52.5300195105287386
 21
42.8960013024525324
 31
0.0
  0
ENDBLK
  5
1EDEB
  8
0
  0
ENDSEC
  0
SECTION
  2
ENTITIES
  0
ATTDEF
  5
3930
  8
DEFPOINTS
 10
5773.5748838880535914
 20
-53.0423211515358588
 30
0.0
 40
0.001
  1
P72064-00
  3

  2
MODELNUMBER
 70
     0
1001
ACDBATTR
1070
     0
1070
     1
  0
ATTDEF
  5
3931
  8
DEFPOINTS
 10
5773.5748838880535914
 20
-53.0439878182025168
 30
0.0
 40
0.001
  1
KALLISTA
  3

  2
BRANDNAME
 70
     0
1001
ACDBATTR
1070
     0
1070
     1
  0
ATTDEF
  5
3932
  8
DEFPOINTS
 10
5773.5748838880535914
 20
-53.045654484869182
 30
0.0
 40
0.001
  1
BATHROOM SINK
  3

  2
PRODUCT
 70
     0
1001
ACDBATTR
1070
     0
1070
     1
  0
LINE
  5
24E88
  8
0
 10
5774.6149521862707843
 20
-54.6087236115137173
 30
0.0
 11
5772.5399521862709662
 21
-54.6087236115137173
 31
0.0
  0
LINE
  5
24E89
  8
0
 10
5772.3899521862704205
 20
-53.5462236115137173
 30
0.0
 11
5772.3899521862704205
 21
-54.4587236115137188
 31
0.0
  0
LINE
  5
24E8A
  8
0
 10
5774.7649521862704205
 20
-53.5462236115137173
 30
0.0
 11
5774.7649521862704205
 21
-54.4587236115137188
 31
0.0
  0
ARC
  5
24E8B
  8
0
 10
5771.8899521862704205
 20
-53.5462236115137173
 30
0.0
 40
0.5
 50
0.0
 51
90.0
  0
ARC
  5
24E8C
  8
0
 10
5775.26495218627133
 20
-53.5462236115137173
 30
0.0
 40
0.5
 50
90.0
 51
180.0
  0
ARC
  5
24E8D
  8
0
 10
5774.6149521862707843
 20
-54.4587236115137188
 30
0.0
 40
0.15
 50
270.0
 51
359.9999999999996021
  0
ARC
  5
24E8E
  8
0
 10
5772.5399521862709662
 20
-54.4587236115137188
 30
0.0
 40
0.15
 50
180.0
 51
270.0
  0
ARC
  5
24E8F
  8
0
 10
5766.7746476639458706
 20
-48.6062206952486733
 30
0.0
 40
0.0600057869003133
 50
90.9758541862267265
 51
190.8317622191956957
  0
ARC
  5
24E90
  8
0
 10
5773.5803648113487725
 20
-47.3029480590399274
 30
0.0
 40
6.989385661368404
 50
190.8406363114839053
 51
235.2567344680005021
  0
LINE
  5
24E91
  8
0
 10
5766.7736257026808744
 20
-48.5462236115137173
 30
0.0
 11
5780.3812786698599666
 21
-48.5462236115137173
 31
0.0
  0
ARC
  5
24E92
  8
0
 10
5780.3802567085958799
 20
-48.6062206952486733
 30
0.0
 40
0.0600057869003133
 50
349.1682377808043043
 51
89.0241458137732735
  0
ARC
  5
24E93
  8
0
 10
5773.5745395606691091
 20
-47.3029480588289033
 30
0.0
 40
6.9893856619224888
 50
304.7432655355385123
 51
349.1593636876265805
  0
LINE
  5
24E94
  8
0
 10
5777.5577917315731611
 20
-53.0462236115140229
 30
0.0
 11
5769.5971126411113801
 21
-53.0462236115134118
 31
0.0
  0
ENDSEC
  0
EOF
